  0
SECTION
  2
HEADER
  9
$ACADVER
  1
AC1009
  9
$DWGCODEPAGE
  3
ansi_932
  9
$INSBASE
 10
0.0
 20
0.0
 30
0.0
  9
$EXTMIN
 10
-834.1222462209136
 20
-570.0
 30
0.0
  9
$EXTMAX
 10
832.0045405853736
 20
570.0
 30
0.0
  9
$LIMMIN
 10
-297.25
 20
-210.25
  9
$LIMMAX
 10
297.25
 20
210.25
  9
$ORTHOMODE
 70
     0
  9
$REGENMODE
 70
     1
  9
$FILLMODE
 70
     1
  9
$QTEXTMODE
 70
     0
  9
$MIRRTEXT
 70
     1
  9
$DRAGMODE
 70
     2
  9
$LTSCALE
 40
0.5
  9
$OSMODE
 70
    37
  9
$ATTMODE
 70
     1
  9
$TEXTSIZE
 40
0.2
  9
$TRACEWID
 40
0.05
  9
$TEXTSTYLE
  7
STANDARD
  9
$CLAYER
  8
0
  9
$CELTYPE
  6
BYLAYER
  9
$CECOLOR
 62
   256
  9
$DIMSCALE
 40
1.0
  9
$DIMASZ
 40
1.25
  9
$DIMEXO
 40
0.0625
  9
$DIMDLI
 40
0.38
  9
$DIMRND
 40
0.0
  9
$DIMDLE
 40
0.0
  9
$DIMEXE
 40
0.18
  9
$DIMTP
 40
0.0
  9
$DIMTM
 40
0.0
  9
$DIMTXT
 40
0.18
  9
$DIMCEN
 40
0.09
  9
$DIMTSZ
 40
0.0
  9
$DIMTOL
 70
     0
  9
$DIMLIM
 70
     0
  9
$DIMTIH
 70
     1
  9
$DIMTOH
 70
     1
  9
$DIMSE1
 70
     0
  9
$DIMSE2
 70
     0
  9
$DIMTAD
 70
     3
  9
$DIMZIN
 70
     0
  9
$DIMBLK
  1

  9
$DIMASO
 70
     1
  9
$DIMSHO
 70
     1
  9
$DIMPOST
  1

  9
$DIMAPOST
  1

  9
$DIMALT
 70
     0
  9
$DIMALTD
 70
     2
  9
$DIMALTF
 40
25.4
  9
$DIMLFAC
 40
1.0
  9
$DIMTOFL
 70
     0
  9
$DIMTVP
 40
0.0
  9
$DIMTIX
 70
     0
  9
$DIMSOXD
 70
     0
  9
$DIMSAH
 70
     0
  9
$DIMBLK1
  1

  9
$DIMBLK2
  1

  9
$DIMSTYLE
  2
STANDARD
  9
$DIMCLRD
 70
     0
  9
$DIMCLRE
 70
     0
  9
$DIMCLRT
 70
     0
  9
$DIMTFAC
 40
1.0
  9
$DIMGAP
 40
0.09
  9
$LUNITS
 70
     2
  9
$LUPREC
 70
     4
  9
$SKETCHINC
 40
0.1
  9
$FILLETRAD
 40
0.5
  9
$AUNITS
 70
     0
  9
$AUPREC
 70
     0
  9
$MENU
  1
.
  9
$ELEVATION
 40
0.0
  9
$PELEVATION
 40
0.0
  9
$THICKNESS
 40
0.0
  9
$LIMCHECK
 70
     0
  9
$CHAMFERA
 40
0.5
  9
$CHAMFERB
 40
0.5
  9
$SKPOLY
 70
     0
  9
$TDCREATE
 40
2456329.614333403
  9
$TDUPDATE
 40
2456329.614333415
  9
$TDINDWG
 40
0.0000000116
  9
$TDUSRTIMER
 40
0.0000000116
  9
$USRTIMER
 70
     1
  9
$ANGBASE
 50
0.0
  9
$ANGDIR
 70
     0
  9
$PDMODE
 70
     0
  9
$PDSIZE
 40
1.0
  9
$PLINEWID
 40
0.0
  9
$COORDS
 70
     1
  9
$SPLFRAME
 70
     0
  9
$SPLINETYPE
 70
     6
  9
$SPLINESEGS
 70
     8
  9
$ATTDIA
 70
     0
  9
$ATTREQ
 70
     1
  9
$HANDLING
 70
     1
  9
$HANDSEED
  5
66D
  9
$SURFTAB1
 70
     6
  9
$SURFTAB2
 70
     6
  9
$SURFTYPE
 70
     6
  9
$SURFU
 70
     6
  9
$SURFV
 70
     6
  9
$UCSNAME
  2

  9
$UCSORG
 10
0.0
 20
0.0
 30
0.0
  9
$UCSXDIR
 10
1.0
 20
0.0
 30
0.0
  9
$UCSYDIR
 10
0.0
 20
1.0
 30
0.0
  9
$PUCSNAME
  2

  9
$PUCSORG
 10
0.0
 20
0.0
 30
0.0
  9
$PUCSXDIR
 10
1.0
 20
0.0
 30
0.0
  9
$PUCSYDIR
 10
0.0
 20
1.0
 30
0.0
  9
$USERI1
 70
     0
  9
$USERI2
 70
     0
  9
$USERI3
 70
     0
  9
$USERI4
 70
     0
  9
$USERI5
 70
     0
  9
$USERR1
 40
0.0
  9
$USERR2
 40
0.0
  9
$USERR3
 40
0.0
  9
$USERR4
 40
0.0
  9
$USERR5
 40
0.0
  9
$WORLDVIEW
 70
     1
  9
$SHADEDGE
 70
     3
  9
$SHADEDIF
 70
    70
  9
$TILEMODE
 70
     1
  9
$MAXACTVP
 70
    64
  9
$PLIMCHECK
 70
     0
  9
$PEXTMIN
 10
1.000000000000000E+20
 20
1.000000000000000E+20
 30
1.000000000000000E+20
  9
$PEXTMAX
 10
-1.000000000000000E+20
 20
-1.000000000000000E+20
 30
-1.000000000000000E+20
  9
$PLIMMIN
 10
0.0
 20
0.0
  9
$PLIMMAX
 10
12.0
 20
9.0
  9
$UNITMODE
 70
     0
  9
$VISRETAIN
 70
     0
  9
$PLINEGEN
 70
     1
  9
$PSLTSCALE
 70
     0
  0
ENDSEC
  0
SECTION
  2
TABLES
  0
TABLE
  2
VPORT
 70
     1
  0
VPORT
  2
*ACTIVE
 70
     0
 10
0.0
 20
0.0
 11
1.0
 21
1.0
 12
0.0
 22
0.0
 13
0.0
 23
0.0
 14
0.5
 24
0.5
 15
0.5
 25
0.5
 16
0.0
 26
0.0
 36
1.0
 17
-1.058852817770063
 27
0.0
 37
0.0
 40
387.6
 41
1.461514725268672
 42
50.0
 43
0.0
 44
0.0
 50
0.0
 51
0.0
 71
     0
 72
  1000
 73
     1
 74
     1
 75
     0
 76
     0
 77
     0
 78
     0
  0
ENDTAB
  0
TABLE
  2
LTYPE
 70
    28
  0
LTYPE
  2
CONTINUOUS
 70
     0
  3
Solid line
 72
    65
 73
     0
 40
0.0
  0
LTYPE
  2
HIDDENX2
 70
     0
  3
CADPAC LINETYPE
 72
    65
 73
     2
 40
20.63803680981596
 49
15.47852760736197
 49
-5.15950920245399
  0
LTYPE
  2
HIDDEN
 70
     0
  3
CADPAC LINETYPE
 72
    65
 73
     2
 40
15.47852760736197
 49
10.31901840490798
 49
-5.15950920245399
  0
LTYPE
  2
HIDDEN2
 70
     0
  3
CADPAC LINETYPE
 72
    65
 73
     2
 40
12.89877300613497
 49
7.739263803680984
 49
-5.15950920245399
  0
LTYPE
  2
DASHED
 70
     0
  3
CADPAC LINETYPE
 72
    65
 73
     2
 40
14.44662576687119
 49
10.31901840490798
 49
-4.127607361963214
  0
LTYPE
  2
DASHED2
 70
     0
  3
CADPAC LINETYPE
 72
    65
 73
     2
 40
9.287116564417147
 49
6.191411042944765
 49
-3.095705521472382
  0
LTYPE
  2
DASHEDX2
 70
     0
  3
CADPAC LINETYPE
 72
    65
 73
     2
 40
24.76564417177917
 49
20.63803680981596
 49
-4.127607361963214
  0
LTYPE
  2
DOTX2
 70
     0
  3
CADPAC LINETYPE
 72
    65
 73
     2
 40
9.029141104294496
 49
0.0
 49
-9.029141104294496
  0
LTYPE
  2
DOT
 70
     0
  3
CADPAC LINETYPE
 72
    65
 73
     2
 40
7.223312883435597
 49
0.0
 49
-7.223312883435597
  0
LTYPE
  2
DOT2
 70
     0
  3
CADPAC LINETYPE
 72
    65
 73
     2
 40
5.417484662576698
 49
0.0
 49
-5.417484662576698
  0
LTYPE
  2
CENTERX2
 70
     0
  3
CADPAC LINETYPE
 72
    65
 73
     4
 40
30.95705521472394
 49
12.89877300613497
 49
-6.449386503067487
 49
5.15950920245399
 49
-6.449386503067487
  0
LTYPE
  2
CENTER
 70
     0
  3
CADPAC LINETYPE
 72
    65
 73
     4
 40
23.73374233128835
 49
10.31901840490798
 49
-5.15950920245399
 49
3.095705521472393
 49
-5.15950920245399
  0
LTYPE
  2
CENTER2
 70
     0
  3
CADPAC LINETYPE
 72
    65
 73
     4
 40
16.51042944785277
 49
7.739263803680984
 49
-3.869631901840492
 49
1.031901840490798
 49
-3.869631901840492
  0
LTYPE
  2
DASHDOTX2
 70
     0
  3
CADPAC LINETYPE
 72
    65
 73
     4
 40
49.53128834355846
 49
24.76564417177917
 49
-8.255214723926429
 49
8.255214723926429
 49
-8.255214723926429
  0
LTYPE
  2
DASHDOT
 70
     0
  3
CADPAC LINETYPE
 72
    65
 73
     4
 40
24.76564417177929
 49
12.38282208588964
 49
-4.127607361963214
 49
4.127607361963214
 49
-4.127607361963214
  0
LTYPE
  2
DASHDOT2
 70
     0
  3
CADPAC LINETYPE
 72
    65
 73
     4
 40
15.89128834355838
 49
9.287116564417232
 49
-3.095705521472411
 49
0.4127607361963215
 49
-3.095705521472411
  0
LTYPE
  2
DIVIDEX2
 70
     0
  3
CADPAC LINETYPE
 72
    65
 73
     6
 40
66.04171779141132
 49
24.76564417177917
 49
-8.255214723926429
 49
8.255214723926429
 49
-8.255214723926429
 49
8.255214723926429
 49
-8.255214723926429
  0
LTYPE
  2
DIVIDE
 70
     0
  3
CADPAC LINETYPE
 72
    65
 73
     6
 40
33.02085889570572
 49
12.38282208588964
 49
-4.127607361963214
 49
4.127607361963214
 49
-4.127607361963214
 49
4.127607361963214
 49
-4.127607361963214
  0
LTYPE
  2
DIVIDE2
 70
     0
  3
CADPAC LINETYPE
 72
    65
 73
     6
 40
24.76564417177929
 49
9.287116564417232
 49
-3.095705521472411
 49
3.095705521472411
 49
-3.095705521472411
 49
3.095705521472411
 49
-3.095705521472411
  0
LTYPE
  2
BORDERX2
 70
     0
  3
CADPAC LINETYPE
 72
    65
 73
     6
 40
45.14570552147241
 49
12.89877300613497
 49
-6.449386503067487
 49
12.89877300613497
 49
-6.449386503067487
 49
0.0
 49
-6.449386503067487
  0
LTYPE
  2
BORDER
 70
     0
  3
CADPAC LINETYPE
 72
    65
 73
     6
 40
36.11656441717793
 49
10.31901840490798
 49
-5.15950920245399
 49
10.31901840490798
 49
-5.15950920245399
 49
0.0
 49
-5.15950920245399
  0
LTYPE
  2
BORDER2
 70
     0
  3
CADPAC LINETYPE
 72
    65
 73
     6
 40
26.82944785276067
 49
8.255214723926429
 49
-5.159509202453933
 49
3.095705521472382
 49
-5.159509202453933
 49
0.0
 49
-5.15950920245399
  0
LTYPE
  2
PHANTOMX2
 70
     0
  3
CADPAC LINETYPE
 72
    65
 73
     6
 40
38.69631901840492
 49
12.89877300613497
 49
-5.15950920245399
 49
5.15950920245399
 49
-5.15950920245399
 49
5.15950920245399
 49
-5.15950920245399
  0
LTYPE
  2
PHANTOM
 70
     0
  3
CADPAC LINETYPE
 72
    65
 73
     6
 40
31.98895705521473
 49
10.31901840490798
 49
-5.15950920245399
 49
3.095705521472393
 49
-5.15950920245399
 49
3.095705521472393
 49
-5.15950920245399
  0
LTYPE
  2
PHANTOM2
 70
     0
  3
CADPAC LINETYPE
 72
    65
 73
     6
 40
27.34539877300615
 49
7.739263803680984
 49
-5.15950920245399
 49
2.063803680981596
 49
-5.15950920245399
 49
2.063803680981596
 49
-5.15950920245399
  0
LTYPE
  2
ACAD_ISO06W100
 70
     0
  3
CADPAC LINETYPE
 72
    65
 73
     8
 40
54.69079754601205
 49
24.76564417177917
 49
-5.159509202453933
 49
3.095705521472382
 49
-5.159509202453933
 49
3.095705521472382
 49
-5.159509202453933
 49
3.095705521472382
 49
-5.159509202453933
  0
LTYPE
  2
ACAD_ISO13W100
 70
     0
  3
CADPAC LINETYPE
 72
    65
 73
     8
 40
41.27607361963192
 49
10.31901840490798
 49
-5.15950920245399
 49
10.31901840490798
 49
-5.15950920245399
 49
0.0
 49
-5.15950920245399
 49
0.0
 49
-5.15950920245399
  0
LTYPE
  2
ACAD_ISO14W100
 70
     0
  3
CADPAC LINETYPE
 72
    65
 73
     8
 40
30.95705521472394
 49
10.31901840490798
 49
-5.15950920245399
 49
0.0
 49
-5.15950920245399
 49
0.0
 49
-5.15950920245399
 49
0.0
 49
-5.15950920245399
  0
ENDTAB
  0
TABLE
  2
LAYER
 70
     3
  0
LAYER
  2
0
 70
     0
 62
     7
  6
CONTINUOUS
  0
LAYER
  2
LAYER0014
 70
     0
 62
     7
  6
CONTINUOUS
  0
LAYER
  2
LAYER0002
 70
     0
 62
     7
  6
CONTINUOUS
  0
ENDTAB
  0
TABLE
  2
STYLE
 70
     5
  0
STYLE
  2
STANDARD
 70
     0
 40
0.0
 41
1.0
 50
0.0
 71
     0
 42
0.2
  3
txt
  4

  0
STYLE
  2
FDASTYLE1
 70
     0
 40
0.0
 41
0.7256235827664407
 50
0.0
 71
     0
 42
0.2
  3
txt.shx
  4
bigfont
  0
STYLE
  2
FDASTYLE0
 70
     4
 40
0.0
 41
0.8
 50
0.0
 71
     0
 42
0.2
  3
txt.shx
  4
bigfont
  0
STYLE
  2
FDASTYLE2
 70
     0
 40
0.0
 41
0.8123476848090981
 50
0.0
 71
     0
 42
0.2
  3
MSMINCHO.TTC
  4

  0
STYLE
  2
FDASTYLE3
 70
     0
 40
0.0
 41
0.6347897774113767
 50
0.0
 71
     0
 42
0.2
  3
MSGOTHIC.TTC
  4

  0
ENDTAB
  0
TABLE
  2
VIEW
 70
     0
  0
ENDTAB
  0
TABLE
  2
UCS
 70
     0
  0
ENDTAB
  0
TABLE
  2
APPID
 70
     2
  0
APPID
  2
ACAD
 70
     0
  0
APPID
  2
DAFUSIONOUT
 70
     0
  0
ENDTAB
  0
TABLE
  2
DIMSTYLE
 70
     1
  0
DIMSTYLE
  2
STANDARD
 70
     0
  3

  4

  5

  6

  7

 40
1.0
 41
0.18
 42
0.0625
 43
0.38
 44
0.18
 45
0.0
 46
0.0
 47
0.0
 48
0.0
140
0.18
141
0.09
142
0.0
143
25.4
144
1.0
145
0.0
146
1.0
147
0.09
 71
     0
 72
     0
 73
     1
 74
     1
 75
     0
 76
     0
 77
     0
 78
     0
170
     0
171
     2
172
     0
173
     0
174
     0
175
     0
176
     0
177
     0
178
     0
  0
ENDTAB
  0
ENDSEC
  0
SECTION
  2
BLOCKS
  0
BLOCK
  8
0
  2
$MODEL_SPACE
 70
     0
 10
0.0
 20
0.0
 30
0.0
  3
$MODEL_SPACE
  1

  0
ENDBLK
  5
21
  8
0
  0
BLOCK
 67
     1
  8
0
  2
$PAPER_SPACE
 70
     0
 10
0.0
 20
0.0
 30
0.0
  3
$PAPER_SPACE
  1

  0
ENDBLK
  5
1D
 67
     1
  8
0
  0
BLOCK
  8
0
  2
DC_GROUP_1
 70
     0
 10
0.0
 20
0.0
 30
0.0
  3
DC_GROUP_1
  1

  0
LINE
  5
1AE
  8
LAYER0014
  6
CONTINUOUS
 62
     7
 10
-222.1629471065658
 20
85.6543232830372
 30
0.0
 11
-237.5618203975815
 21
85.6543232830372
 31
0.0
  0
LINE
  5
1AF
  8
LAYER0014
  6
CONTINUOUS
 62
     7
 10
-222.4136947872299
 20
-32.3456767169628
 30
0.0
 11
-237.5618203975815
 21
-32.3456767169628
 31
0.0
  0
LINE
  5
1B0
  8
LAYER0014
  6
CONTINUOUS
 62
     7
 10
-235.275824914183
 20
85.6543232830372
 30
0.0
 11
-235.275824914183
 21
-32.3456767169628
 31
0.0
  0
INSERT
  5
1B1
  8
LAYER0014
  6
CONTINUOUS
  2
DC_GROUP_2
 10
0.0
 20
0.0
 30
0.0
  0
INSERT
  5
1B2
  8
LAYER0014
  6
CONTINUOUS
  2
DC_GROUP_3
 10
0.0
 20
0.0
 30
0.0
  0
TEXT
  5
1B4
  8
LAYER0014
 62
     7
 10
-236.2869950157248
 20
20.25433303079215
 30
0.0
 40
4.0
  1
φ118
 50
89.90000000000001
 41
0.7256235827664407
  7
FDASTYLE1
 72
     5
 11
-236.2657186318358
 21
32.44479065411606
 31
0.0
  0
ENDBLK
  5
4E
  8
0
  0
BLOCK
  8
0
  2
DC_GROUP_2
 70
     0
 10
0.0
 20
0.0
 30
0.0
  3
DC_GROUP_2
  1

  0
LINE
  5
1B5
  8
LAYER0014
  6
CONTINUOUS
 62
     7
 10
-235.8117244490807
 20
83.65432487540654
 30
0.0
 11
-235.275824914183
 21
85.6543232830372
 31
0.0
  0
LINE
  5
1B6
  8
LAYER0014
  6
CONTINUOUS
 62
     7
 10
-235.275824914183
 20
85.6543232830372
 30
0.0
 11
-234.7399253792854
 21
83.65432487540654
 31
0.0
  0
LINE
  5
1B7
  8
LAYER0014
  6
CONTINUOUS
 62
     7
 10
-235.275824914183
 20
85.6543232830372
 30
0.0
 11
-235.275824914183
 21
83.65432487540654
 31
0.0
  0
ENDBLK
  5
51
  8
0
  0
BLOCK
  8
0
  2
DC_GROUP_3
 70
     0
 10
0.0
 20
0.0
 30
0.0
  3
DC_GROUP_3
  1

  0
LINE
  5
1B8
  8
LAYER0014
  6
CONTINUOUS
 62
     7
 10
-234.7399253792854
 20
-30.34567830933214
 30
0.0
 11
-235.275824914183
 21
-32.3456767169628
 31
0.0
  0
LINE
  5
1B9
  8
LAYER0014
  6
CONTINUOUS
 62
     7
 10
-235.275824914183
 20
-32.3456767169628
 30
0.0
 11
-235.8117244490807
 21
-30.34567830933214
 31
0.0
  0
LINE
  5
1BA
  8
LAYER0014
  6
CONTINUOUS
 62
     7
 10
-235.275824914183
 20
-32.3456767169628
 30
0.0
 11
-235.275824914183
 21
-30.34567830933214
 31
0.0
  0
ENDBLK
  5
54
  8
0
  0
BLOCK
  8
0
  2
DC_GROUP_4
 70
     0
 10
0.0
 20
0.0
 30
0.0
  3
DC_GROUP_4
  1

  0
LINE
  5
1BB
  8
LAYER0014
  6
CONTINUOUS
 62
     7
 10
-196.375395226683
 20
96.6543232830372
 30
0.0
 11
-247.5618203975815
 21
96.6543232830372
 31
0.0
  0
LINE
  5
1BC
  8
LAYER0014
  6
CONTINUOUS
 62
     7
 10
-196.3753647091049
 20
-43.3456767169628
 30
0.0
 11
-247.5618203975815
 21
-43.3456767169628
 31
0.0
  0
LINE
  5
1BD
  8
LAYER0014
  6
CONTINUOUS
 62
     7
 10
-245.275824914183
 20
96.6543232830372
 30
0.0
 11
-245.275824914183
 21
-43.3456767169628
 31
0.0
  0
INSERT
  5
1BE
  8
LAYER0014
  6
CONTINUOUS
  2
DC_GROUP_5
 10
0.0
 20
0.0
 30
0.0
  0
INSERT
  5
1BF
  8
LAYER0014
  6
CONTINUOUS
  2
DC_GROUP_6
 10
0.0
 20
0.0
 30
0.0
  0
TEXT
  5
1C0
  8
LAYER0014
 62
     7
 10
-246.2869950157248
 20
20.25433303079215
 30
0.0
 40
4.0
  1
φ140
 50
89.90000000000001
 41
0.7256235827664407
  7
FDASTYLE1
 72
     5
 11
-246.2657186318358
 21
32.44479065411606
 31
0.0
  0
ENDBLK
  5
57
  8
0
  0
BLOCK
  8
0
  2
DC_GROUP_5
 70
     0
 10
0.0
 20
0.0
 30
0.0
  3
DC_GROUP_5
  1

  0
LINE
  5
1C1
  8
LAYER0014
  6
CONTINUOUS
 62
     7
 10
-245.8117244490806
 20
94.65432487540654
 30
0.0
 11
-245.275824914183
 21
96.6543232830372
 31
0.0
  0
LINE
  5
1C2
  8
LAYER0014
  6
CONTINUOUS
 62
     7
 10
-245.275824914183
 20
96.6543232830372
 30
0.0
 11
-244.7399253792854
 21
94.65432487540654
 31
0.0
  0
LINE
  5
1C3
  8
LAYER0014
  6
CONTINUOUS
 62
     7
 10
-245.275824914183
 20
96.6543232830372
 30
0.0
 11
-245.275824914183
 21
94.65432487540654
 31
0.0
  0
ENDBLK
  5
5A
  8
0
  0
BLOCK
  8
0
  2
DC_GROUP_6
 70
     0
 10
0.0
 20
0.0
 30
0.0
  3
DC_GROUP_6
  1

  0
LINE
  5
1C4
  8
LAYER0014
  6
CONTINUOUS
 62
     7
 10
-244.7399253792854
 20
-41.34567830933214
 30
0.0
 11
-245.275824914183
 21
-43.3456767169628
 31
0.0
  0
LINE
  5
1C5
  8
LAYER0014
  6
CONTINUOUS
 62
     7
 10
-245.275824914183
 20
-43.3456767169628
 30
0.0
 11
-245.8117244490806
 21
-41.34567830933214
 31
0.0
  0
LINE
  5
1C6
  8
LAYER0014
  6
CONTINUOUS
 62
     7
 10
-245.275824914183
 20
-43.3456767169628
 30
0.0
 11
-245.275824914183
 21
-41.34567830933214
 31
0.0
  0
ENDBLK
  5
5D
  8
0
  0
BLOCK
  8
0
  2
DC_GROUP_7
 70
     0
 10
0.0
 20
0.0
 30
0.0
  3
DC_GROUP_7
  1

  0
LINE
  5
1C7
  8
LAYER0014
  6
CONTINUOUS
 62
     7
 10
-199.3753647091049
 20
154.1543309124317
 30
0.0
 11
-257.5618203975815
 21
154.1543309124317
 31
0.0
  0
LINE
  5
1C8
  8
LAYER0014
  6
CONTINUOUS
 62
     7
 10
-199.3753647091049
 20
-100.8456767169628
 30
0.0
 11
-257.5618203975815
 21
-100.8456767169628
 31
0.0
  0
LINE
  5
1C9
  8
LAYER0014
  6
CONTINUOUS
 62
     7
 10
-255.275824914183
 20
154.1543309124317
 30
0.0
 11
-255.275824914183
 21
-100.8456767169628
 31
0.0
  0
INSERT
  5
1CA
  8
LAYER0014
  6
CONTINUOUS
  2
DC_GROUP_8
 10
0.0
 20
0.0
 30
0.0
  0
INSERT
  5
1CB
  8
LAYER0014
  6
CONTINUOUS
  2
DC_GROUP_9
 10
0.0
 20
0.0
 30
0.0
  0
TEXT
  5
1CC
  8
LAYER0014
 62
     7
 10
-256.2925800664958
 20
17.05434171936689
 30
0.0
 40
4.0
  1
φ255H7
 50
89.90000000000001
 41
0.7492195629552553
  7
FDASTYLE1
 72
     5
 11
-256.2601507394391
 21
35.63495858072346
 31
0.0
  0
ENDBLK
  5
60
  8
0
  0
BLOCK
  8
0
  2
DC_GROUP_8
 70
     0
 10
0.0
 20
0.0
 30
0.0
  3
DC_GROUP_8
  1

  0
LINE
  5
1CD
  8
LAYER0014
  6
CONTINUOUS
 62
     7
 10
-255.8117244490806
 20
152.154332504801
 30
0.0
 11
-255.275824914183
 21
154.1543309124317
 31
0.0
  0
LINE
  5
1CE
  8
LAYER0014
  6
CONTINUOUS
 62
     7
 10
-255.275824914183
 20
154.1543309124317
 30
0.0
 11
-254.7399253792854
 21
152.154332504801
 31
0.0
  0
LINE
  5
1CF
  8
LAYER0014
  6
CONTINUOUS
 62
     7
 10
-255.275824914183
 20
154.1543309124317
 30
0.0
 11
-255.275824914183
 21
152.154332504801
 31
0.0
  0
ENDBLK
  5
63
  8
0
  0
BLOCK
  8
0
  2
DC_GROUP_9
 70
     0
 10
0.0
 20
0.0
 30
0.0
  3
DC_GROUP_9
  1

  0
LINE
  5
1D0
  8
LAYER0014
  6
CONTINUOUS
 62
     7
 10
-254.7399253792854
 20
-98.84567830933214
 30
0.0
 11
-255.275824914183
 21
-100.8456767169628
 31
0.0
  0
LINE
  5
1D1
  8
LAYER0014
  6
CONTINUOUS
 62
     7
 10
-255.275824914183
 20
-100.8456767169628
 30
0.0
 11
-255.8117244490806
 21
-98.84567830933214
 31
0.0
  0
LINE
  5
1D2
  8
LAYER0014
  6
CONTINUOUS
 62
     7
 10
-255.275824914183
 20
-100.8456767169628
 30
0.0
 11
-255.275824914183
 21
-98.84567830933214
 31
0.0
  0
ENDBLK
  5
66
  8
0
  0
BLOCK
  8
0
  2
DC_GROUP_10
 70
     0
 10
0.0
 20
0.0
 30
0.0
  3
DC_GROUP_10
  1

  0
LINE
  5
1D3
  8
LAYER0014
  6
CONTINUOUS
 62
     7
 10
-194.8353647091049
 20
98.19432328303721
 30
0.0
 11
-194.8353647091049
 21
113.435413065752
 31
0.0
  0
LINE
  5
1D4
  8
LAYER0014
  6
CONTINUOUS
 62
     7
 10
-219.8353647091049
 20
88.19432328303721
 30
0.0
 11
-219.8353647091049
 21
113.435413065752
 31
0.0
  0
LINE
  5
1D5
  8
LAYER0014
  6
CONTINUOUS
 62
     7
 10
-194.8353647091049
 20
111.1494099529591
 30
0.0
 11
-219.8353647091049
 21
111.1494099529591
 31
0.0
  0
INSERT
  5
1D6
  8
LAYER0014
  6
CONTINUOUS
  2
DC_GROUP_11
 10
0.0
 20
0.0
 30
0.0
  0
INSERT
  5
1D7
  8
LAYER0014
  6
CONTINUOUS
  2
DC_GROUP_12
 10
0.0
 20
0.0
 30
0.0
  0
TEXT
  5
1D8
  8
LAYER0014
 62
     7
 10
-210.5353647091049
 20
112.1494099529591
 30
0.0
 40
4.0
  1
25
 41
0.7999999999999972
  7
FDASTYLE1
 72
     5
 11
-204.135364709105
 21
112.1494099529591
 31
0.0
  0
ENDBLK
  5
69
  8
0
  0
BLOCK
  8
0
  2
DC_GROUP_11
 70
     0
 10
0.0
 20
0.0
 30
0.0
  3
DC_GROUP_11
  1

  0
LINE
  5
1D9
  8
LAYER0014
  6
CONTINUOUS
 62
     7
 10
-196.8353631167356
 20
111.6853094878567
 30
0.0
 11
-194.8353647091049
 21
111.1494099529591
 31
0.0
  0
LINE
  5
1DA
  8
LAYER0014
  6
CONTINUOUS
 62
     7
 10
-194.8353647091049
 20
111.1494099529591
 30
0.0
 11
-196.8353631167356
 21
110.6135104180615
 31
0.0
  0
LINE
  5
1DB
  8
LAYER0014
  6
CONTINUOUS
 62
     7
 10
-194.8353647091049
 20
111.1494099529591
 30
0.0
 11
-196.8353631167356
 21
111.1494099529591
 31
0.0
  0
ENDBLK
  5
6C
  8
0
  0
BLOCK
  8
0
  2
DC_GROUP_12
 70
     0
 10
0.0
 20
0.0
 30
0.0
  3
DC_GROUP_12
  1

  0
LINE
  5
1DC
  8
LAYER0014
  6
CONTINUOUS
 62
     7
 10
-217.8353663014743
 20
110.6135104180615
 30
0.0
 11
-219.8353647091049
 21
111.1494099529591
 31
0.0
  0
LINE
  5
1DD
  8
LAYER0014
  6
CONTINUOUS
 62
     7
 10
-219.8353647091049
 20
111.1494099529591
 30
0.0
 11
-217.8353663014743
 21
111.6853094878567
 31
0.0
  0
LINE
  5
1DE
  8
LAYER0014
  6
CONTINUOUS
 62
     7
 10
-219.8353647091049
 20
111.1494099529591
 30
0.0
 11
-217.8353663014743
 21
111.1494099529591
 31
0.0
  0
ENDBLK
  5
6F
  8
0
  0
BLOCK
  8
0
  2
DC_GROUP_13
 70
     0
 10
0.0
 20
0.0
 30
0.0
  3
DC_GROUP_13
  1

  0
LINE
  5
1DF
  8
LAYER0014
  6
CONTINUOUS
 62
     7
 10
-196.8353647091049
 20
-148.5073359576855
 30
0.0
 11
-191.1353525020737
 21
-148.5073359576855
 31
0.0
  0
LINE
  5
1E0
  8
LAYER0014
  6
CONTINUOUS
 62
     7
 10
-196.8353647091049
 20
-125.8856767169628
 30
0.0
 11
-196.8353647091049
 21
-149.5073359576855
 31
0.0
  0
LINE
  5
1E1
  8
LAYER0014
  6
CONTINUOUS
 62
     7
 10
-191.1353525020737
 20
-103.3856767169628
 30
0.0
 11
-191.1353525020737
 21
-149.5073359576855
 31
0.0
  0
LINE
  5
1E2
  8
LAYER0014
  6
CONTINUOUS
 62
     7
 10
-176.847296482812
 20
-148.5073359576855
 30
0.0
 11
-191.1353525020737
 21
-148.5073359576855
 31
0.0
  0
LINE
  5
1E3
  8
LAYER0014
  6
CONTINUOUS
 62
     7
 10
-201.8353647091049
 20
-148.5073359576855
 30
0.0
 11
-196.8353647091049
 21
-148.5073359576855
 31
0.0
  0
INSERT
  5
1E4
  8
LAYER0014
  6
CONTINUOUS
  2
DC_GROUP_14
 10
0.0
 20
0.0
 30
0.0
  0
INSERT
  5
1E5
  8
LAYER0014
  6
CONTINUOUS
  2
DC_GROUP_15
 10
0.0
 20
0.0
 30
0.0
  0
TEXT
  5
1E6
  8
LAYER0014
 62
     7
 10
-187.447296482812
 20
-147.5073359576855
 30
0.0
 40
4.0
  1
5.7
 50
-0.1000000000000078
 41
0.8000000000000002
  7
FDASTYLE1
 72
     5
 11
-177.8473111044445
 21
-147.5240911099981
 31
0.0
  0
ENDBLK
  5
72
  8
0
  0
BLOCK
  8
0
  2
DC_GROUP_14
 70
     0
 10
0.0
 20
0.0
 30
0.0
  3
DC_GROUP_14
  1

  0
LINE
  5
1E7
  8
LAYER0014
  6
CONTINUOUS
 62
     7
 10
-189.135354094443
 20
-149.0432354925831
 30
0.0
 11
-191.1353525020737
 21
-148.5073359576855
 31
0.0
  0
LINE
  5
1E8
  8
LAYER0014
  6
CONTINUOUS
 62
     7
 10
-191.1353525020737
 20
-148.5073359576855
 30
0.0
 11
-189.135354094443
 21
-147.9714364227879
 31
0.0
  0
LINE
  5
1E9
  8
LAYER0014
  6
CONTINUOUS
 62
     7
 10
-191.1353525020737
 20
-148.5073359576855
 30
0.0
 11
-189.135354094443
 21
-148.5073359576855
 31
0.0
  0
ENDBLK
  5
75
  8
0
  0
BLOCK
  8
0
  2
DC_GROUP_15
 70
     0
 10
0.0
 20
0.0
 30
0.0
  3
DC_GROUP_15
  1

  0
LINE
  5
1EA
  8
LAYER0014
  6
CONTINUOUS
 62
     7
 10
-198.8353631167356
 20
-147.9714364227879
 30
0.0
 11
-196.8353647091049
 21
-148.5073359576855
 31
0.0
  0
LINE
  5
1EB
  8
LAYER0014
  6
CONTINUOUS
 62
     7
 10
-196.8353647091049
 20
-148.5073359576855
 30
0.0
 11
-198.8353631167356
 21
-149.0432354925831
 31
0.0
  0
LINE
  5
1EC
  8
LAYER0014
  6
CONTINUOUS
 62
     7
 10
-196.8353647091049
 20
-148.5073359576855
 30
0.0
 11
-198.8353631167356
 21
-148.5073359576855
 31
0.0
  0
ENDBLK
  5
78
  8
0
  0
BLOCK
  8
0
  2
DC_GROUP_16
 70
     0
 10
0.0
 20
0.0
 30
0.0
  3
DC_GROUP_16
  1

  0
LINE
  5
1ED
  8
LAYER0014
  6
CONTINUOUS
 62
     7
 10
-219.8353647091049
 20
-158.1266902057323
 30
0.0
 11
-191.1353525020737
 21
-158.1266902057323
 31
0.0
  0
LINE
  5
1EE
  8
LAYER0014
  6
CONTINUOUS
 62
     7
 10
-219.8353647091049
 20
-34.8856767169628
 30
0.0
 11
-219.8353647091049
 21
-159.1266902057323
 31
0.0
  0
LINE
  5
1EF
  8
LAYER0014
  6
CONTINUOUS
 62
     7
 10
-191.1353525020737
 20
-103.3856767169628
 30
0.0
 11
-191.1353525020737
 21
-159.1266902057323
 31
0.0
  0
LINE
  5
1F0
  8
LAYER0014
  6
CONTINUOUS
 62
     7
 10
-246.5688730098862
 20
-158.1266902057323
 30
0.0
 11
-219.8353647091049
 21
-158.1266902057323
 31
0.0
  0
LINE
  5
1F1
  8
LAYER0014
  6
CONTINUOUS
 62
     7
 10
-186.1353525020737
 20
-158.1266902057323
 30
0.0
 11
-191.1353525020737
 21
-158.1266902057323
 31
0.0
  0
INSERT
  5
1F2
  8
LAYER0014
  6
CONTINUOUS
  2
DC_GROUP_17
 10
0.0
 20
0.0
 30
0.0
  0
INSERT
  5
1F3
  8
LAYER0014
  6
CONTINUOUS
  2
DC_GROUP_18
 10
0.0
 20
0.0
 30
0.0
  0
TEXT
  5
1F4
  8
LAYER0014
 62
     7
 10
-245.5688730098862
 20
-157.1266902057323
 30
0.0
 40
4.0
  1
MAX41.7
 41
0.8000000000000002
  7
FDASTYLE1
 72
     5
 11
-223.1688730098862
 21
-157.1266902057323
 31
0.0
  0
ENDBLK
  5
7B
  8
0
  0
BLOCK
  8
0
  2
DC_GROUP_17
 70
     0
 10
0.0
 20
0.0
 30
0.0
  3
DC_GROUP_17
  1

  0
LINE
  5
1F5
  8
LAYER0014
  6
CONTINUOUS
 62
     7
 10
-221.8353631167356
 20
-157.5907906708347
 30
0.0
 11
-219.8353647091049
 21
-158.1266902057323
 31
0.0
  0
LINE
  5
1F6
  8
LAYER0014
  6
CONTINUOUS
 62
     7
 10
-219.8353647091049
 20
-158.1266902057323
 30
0.0
 11
-221.8353631167356
 21
-158.6625897406299
 31
0.0
  0
LINE
  5
1F7
  8
LAYER0014
  6
CONTINUOUS
 62
     7
 10
-219.8353647091049
 20
-158.1266902057323
 30
0.0
 11
-221.8353631167356
 21
-158.1266902057323
 31
0.0
  0
ENDBLK
  5
7E
  8
0
  0
BLOCK
  8
0
  2
DC_GROUP_18
 70
     0
 10
0.0
 20
0.0
 30
0.0
  3
DC_GROUP_18
  1

  0
LINE
  5
1F8
  8
LAYER0014
  6
CONTINUOUS
 62
     7
 10
-189.135354094443
 20
-158.6625897406299
 30
0.0
 11
-191.1353525020737
 21
-158.1266902057323
 31
0.0
  0
LINE
  5
1F9
  8
LAYER0014
  6
CONTINUOUS
 62
     7
 10
-191.1353525020737
 20
-158.1266902057323
 30
0.0
 11
-189.135354094443
 21
-157.5907906708347
 31
0.0
  0
LINE
  5
1FA
  8
LAYER0014
  6
CONTINUOUS
 62
     7
 10
-191.1353525020737
 20
-158.1266902057323
 30
0.0
 11
-189.135354094443
 21
-158.1266902057323
 31
0.0
  0
ENDBLK
  5
81
  8
0
  0
BLOCK
  8
0
  2
DC_GROUP_19
 70
     0
 10
0.0
 20
0.0
 30
0.0
  3
DC_GROUP_19
  1

  0
LINE
  5
1FB
  8
LAYER0014
  6
CONTINUOUS
 62
     7
 10
-191.1353525020737
 20
-158.1266902057323
 30
0.0
 11
-91.83536470910494
 21
-158.1266902057323
 31
0.0
  0
LINE
  5
1FC
  8
LAYER0014
  6
CONTINUOUS
 62
     7
 10
-191.1353525020737
 20
-103.3856767169628
 30
0.0
 11
-191.1353525020737
 21
-159.1266902057323
 31
0.0
  0
LINE
  5
1FD
  8
LAYER0014
  6
CONTINUOUS
 62
     7
 10
-91.83536470910494
 20
-122.8856767169628
 30
0.0
 11
-91.83536470910494
 21
-159.1266902057323
 31
0.0
  0
INSERT
  5
1FE
  8
LAYER0014
  6
CONTINUOUS
  2
DC_GROUP_20
 10
0.0
 20
0.0
 30
0.0
  0
INSERT
  5
1FF
  8
LAYER0014
  6
CONTINUOUS
  2
DC_GROUP_21
 10
0.0
 20
0.0
 30
0.0
  0
TEXT
  5
200
  8
LAYER0014
 62
     7
 10
-147.8853488578344
 20
-157.1155201041906
 30
0.0
 40
4.0
  1
99.3
 50
-0.1000000000000078
 41
0.8000000000000025
  7
FDASTYLE1
 72
     5
 11
-135.0853683533443
 21
-157.1378603072741
 31
0.0
  0
ENDBLK
  5
84
  8
0
  0
BLOCK
  8
0
  2
DC_GROUP_20
 70
     0
 10
0.0
 20
0.0
 30
0.0
  3
DC_GROUP_20
  1

  0
LINE
  5
201
  8
LAYER0014
  6
CONTINUOUS
 62
     7
 10
-189.135354094443
 20
-158.6625897406299
 30
0.0
 11
-191.1353525020737
 21
-158.1266902057323
 31
0.0
  0
LINE
  5
202
  8
LAYER0014
  6
CONTINUOUS
 62
     7
 10
-191.1353525020737
 20
-158.1266902057323
 30
0.0
 11
-189.135354094443
 21
-157.5907906708347
 31
0.0
  0
LINE
  5
203
  8
LAYER0014
  6
CONTINUOUS
 62
     7
 10
-191.1353525020737
 20
-158.1266902057323
 30
0.0
 11
-189.135354094443
 21
-158.1266902057323
 31
0.0
  0
ENDBLK
  5
87
  8
0
  0
BLOCK
  8
0
  2
DC_GROUP_21
 70
     0
 10
0.0
 20
0.0
 30
0.0
  3
DC_GROUP_21
  1

  0
LINE
  5
204
  8
LAYER0014
  6
CONTINUOUS
 62
     7
 10
-93.83536311673559
 20
-157.5907906708347
 30
0.0
 11
-91.83536470910494
 21
-158.1266902057323
 31
0.0
  0
LINE
  5
205
  8
LAYER0014
  6
CONTINUOUS
 62
     7
 10
-91.83536470910494
 20
-158.1266902057323
 30
0.0
 11
-93.83536311673559
 21
-158.6625897406299
 31
0.0
  0
LINE
  5
206
  8
LAYER0014
  6
CONTINUOUS
 62
     7
 10
-91.83536470910494
 20
-158.1266902057323
 30
0.0
 11
-93.83536311673559
 21
-158.1266902057323
 31
0.0
  0
ENDBLK
  5
8A
  8
0
  0
BLOCK
  8
0
  2
DC_GROUP_22
 70
     0
 10
0.0
 20
0.0
 30
0.0
  3
DC_GROUP_22
  1

  0
LINE
  5
207
  8
LAYER0014
  6
CONTINUOUS
 62
     7
 10
-196.8353647091049
 20
-168.485988911787
 30
0.0
 11
-91.83536470910494
 21
-168.485988911787
 31
0.0
  0
LINE
  5
208
  8
LAYER0014
  6
CONTINUOUS
 62
     7
 10
-196.8353647091049
 20
-125.8856767169628
 30
0.0
 11
-196.8353647091049
 21
-169.485988911787
 31
0.0
  0
LINE
  5
209
  8
LAYER0014
  6
CONTINUOUS
 62
     7
 10
-91.83536470910494
 20
-122.8856767169628
 30
0.0
 11
-91.83536470910494
 21
-169.485988911787
 31
0.0
  0
INSERT
  5
20A
  8
LAYER0014
  6
CONTINUOUS
  2
DC_GROUP_23
 10
0.0
 20
0.0
 30
0.0
  0
INSERT
  5
20B
  8
LAYER0014
  6
CONTINUOUS
  2
DC_GROUP_24
 10
0.0
 20
0.0
 30
0.0
  0
TEXT
  5
20C
  8
LAYER0014
 62
     7
 10
-149.1353573982887
 20
-167.4776113356307
 30
0.0
 40
4.0
  1
105
 50
-0.1000000000000078
 41
0.8000000000000025
  7
FDASTYLE1
 72
     5
 11
-139.5353720199211
 21
-167.4943664879433
 31
0.0
  0
ENDBLK
  5
8D
  8
0
  0
BLOCK
  8
0
  2
DC_GROUP_23
 70
     0
 10
0.0
 20
0.0
 30
0.0
  3
DC_GROUP_23
  1

  0
LINE
  5
20D
  8
LAYER0014
  6
CONTINUOUS
 62
     7
 10
-194.8353663014743
 20
-169.0218884466846
 30
0.0
 11
-196.8353647091049
 21
-168.485988911787
 31
0.0
  0
LINE
  5
20E
  8
LAYER0014
  6
CONTINUOUS
 62
     7
 10
-196.8353647091049
 20
-168.485988911787
 30
0.0
 11
-194.8353663014743
 21
-167.9500893768894
 31
0.0
  0
LINE
  5
20F
  8
LAYER0014
  6
CONTINUOUS
 62
     7
 10
-196.8353647091049
 20
-168.485988911787
 30
0.0
 11
-194.8353663014743
 21
-168.485988911787
 31
0.0
  0
ENDBLK
  5
90
  8
0
  0
BLOCK
  8
0
  2
DC_GROUP_24
 70
     0
 10
0.0
 20
0.0
 30
0.0
  3
DC_GROUP_24
  1

  0
LINE
  5
210
  8
LAYER0014
  6
CONTINUOUS
 62
     7
 10
-93.83536311673559
 20
-167.9500893768894
 30
0.0
 11
-91.83536470910494
 21
-168.485988911787
 31
0.0
  0
LINE
  5
211
  8
LAYER0014
  6
CONTINUOUS
 62
     7
 10
-91.83536470910494
 20
-168.485988911787
 30
0.0
 11
-93.83536311673559
 21
-169.0218884466846
 31
0.0
  0
LINE
  5
212
  8
LAYER0014
  6
CONTINUOUS
 62
     7
 10
-91.83536470910494
 20
-168.485988911787
 30
0.0
 11
-93.83536311673559
 21
-168.485988911787
 31
0.0
  0
ENDBLK
  5
93
  8
0
  0
BLOCK
  8
0
  2
DC_GROUP_25
 70
     0
 10
0.0
 20
0.0
 30
0.0
  3
DC_GROUP_25
  1

  0
LINE
  5
213
  8
LAYER0014
  6
CONTINUOUS
 62
     7
 10
-206.0258859493393
 20
82.6543232830372
 30
0.0
 11
-206.0258859493393
 21
-29.3456767169628
 31
0.0
  0
INSERT
  5
214
  8
LAYER0014
  6
CONTINUOUS
  2
DC_GROUP_26
 10
0.0
 20
0.0
 30
0.0
  0
INSERT
  5
215
  8
LAYER0014
  6
CONTINUOUS
  2
DC_GROUP_27
 10
0.0
 20
0.0
 30
0.0
  0
TEXT
  5
216
  8
LAYER0014
 62
     7
 10
-207.0510186778082
 20
12.25434521548585
 30
0.0
 40
4.0
  1
M112×Ｐ1.5
 50
89.90000000000001
 41
0.7333635129017656
  7
FDASTYLE1
 72
     5
 11
-207.0028921764848
 21
39.8287713022863
 31
0.0
  0
ENDBLK
  5
96
  8
0
  0
BLOCK
  8
0
  2
DC_GROUP_26
 70
     0
 10
0.0
 20
0.0
 30
0.0
  3
DC_GROUP_26
  1

  0
LINE
  5
217
  8
LAYER0014
  6
CONTINUOUS
 62
     7
 10
-206.5617854842369
 20
80.65432487540653
 30
0.0
 11
-206.0258859493393
 21
82.6543232830372
 31
0.0
  0
LINE
  5
218
  8
LAYER0014
  6
CONTINUOUS
 62
     7
 10
-206.0258859493393
 20
82.6543232830372
 30
0.0
 11
-205.4899864144417
 21
80.65432487540653
 31
0.0
  0
LINE
  5
219
  8
LAYER0014
  6
CONTINUOUS
 62
     7
 10
-206.0258859493393
 20
82.6543232830372
 30
0.0
 11
-206.0258859493393
 21
80.65432487540653
 31
0.0
  0
ENDBLK
  5
99
  8
0
  0
BLOCK
  8
0
  2
DC_GROUP_27
 70
     0
 10
0.0
 20
0.0
 30
0.0
  3
DC_GROUP_27
  1

  0
LINE
  5
21A
  8
LAYER0014
  6
CONTINUOUS
 62
     7
 10
-205.4899864144417
 20
-27.34567830933214
 30
0.0
 11
-206.0258859493393
 21
-29.3456767169628
 31
0.0
  0
LINE
  5
21B
  8
LAYER0014
  6
CONTINUOUS
 62
     7
 10
-206.0258859493393
 20
-29.3456767169628
 30
0.0
 11
-206.5617854842369
 21
-27.34567830933214
 31
0.0
  0
LINE
  5
21C
  8
LAYER0014
  6
CONTINUOUS
 62
     7
 10
-206.0258859493393
 20
-29.3456767169628
 30
0.0
 11
-206.0258859493393
 21
-27.34567830933214
 31
0.0
  0
ENDBLK
  5
9C
  8
0
  0
BLOCK
  8
0
  2
DC_GROUP_28
 70
     0
 10
0.0
 20
0.0
 30
0.0
  3
DC_GROUP_28
  1

  0
LINE
  5
21D
  8
LAYER0014
  6
CONTINUOUS
 62
     7
 10
-219.8353647091049
 20
-10.96990424076651
 30
0.0
 11
-201.8353647091049
 21
-10.96990424076651
 31
0.0
  0
INSERT
  5
21E
  8
LAYER0014
  6
CONTINUOUS
  2
DC_GROUP_29
 10
0.0
 20
0.0
 30
0.0
  0
INSERT
  5
21F
  8
LAYER0014
  6
CONTINUOUS
  2
DC_GROUP_30
 10
0.0
 20
0.0
 30
0.0
  0
TEXT
  5
220
  8
LAYER0014
 62
     7
 10
-214.0353598352274
 20
-9.96431918999564
 30
0.0
 40
4.0
  1
18
 50
-0.1000000000000078
 41
0.7999999999999954
  7
FDASTYLE1
 72
     5
 11
-207.6353695829824
 21
-9.975489291537389
 31
0.0
  0
ENDBLK
  5
9F
  8
0
  0
BLOCK
  8
0
  2
DC_GROUP_29
 70
     0
 10
0.0
 20
0.0
 30
0.0
  3
DC_GROUP_29
  1

  0
LINE
  5
221
  8
LAYER0014
  6
CONTINUOUS
 62
     7
 10
-217.8353663014743
 20
-11.50580377566412
 30
0.0
 11
-219.8353647091049
 21
-10.96990424076651
 31
0.0
  0
LINE
  5
222
  8
LAYER0014
  6
CONTINUOUS
 62
     7
 10
-219.8353647091049
 20
-10.96990424076651
 30
0.0
 11
-217.8353663014743
 21
-10.4340047058689
 31
0.0
  0
LINE
  5
223
  8
LAYER0014
  6
CONTINUOUS
 62
     7
 10
-219.8353647091049
 20
-10.96990424076651
 30
0.0
 11
-217.8353663014743
 21
-10.96990424076651
 31
0.0
  0
ENDBLK
  5
A2
  8
0
  0
BLOCK
  8
0
  2
DC_GROUP_30
 70
     0
 10
0.0
 20
0.0
 30
0.0
  3
DC_GROUP_30
  1

  0
LINE
  5
224
  8
LAYER0014
  6
CONTINUOUS
 62
     7
 10
-203.8353631167356
 20
-10.4340047058689
 30
0.0
 11
-201.8353647091049
 21
-10.96990424076651
 31
0.0
  0
LINE
  5
225
  8
LAYER0014
  6
CONTINUOUS
 62
     7
 10
-201.8353647091049
 20
-10.96990424076651
 30
0.0
 11
-203.8353631167356
 21
-11.50580377566412
 31
0.0
  0
LINE
  5
226
  8
LAYER0014
  6
CONTINUOUS
 62
     7
 10
-201.8353647091049
 20
-10.96990424076651
 30
0.0
 11
-203.8353631167356
 21
-10.96990424076651
 31
0.0
  0
ENDBLK
  5
A5
  8
0
  0
BLOCK
  8
0
  2
DC_GROUP_31
 70
     0
 10
0.0
 20
0.0
 30
0.0
  3
DC_GROUP_31
  1

  0
LINE
  5
227
  8
LAYER0014
  6
CONTINUOUS
 62
     7
 10
-201.8353647091049
 20
-10.96990424076651
 30
0.0
 11
-197.8353647091049
 21
-10.96990424076651
 31
0.0
  0
TEXT
  5
228
  8
LAYER0014
 62
     7
 10
-201.4353622721662
 20
-9.967111715381074
 30
0.0
 40
4.0
  1
4
 50
-0.1000000000000078
 41
0.8000000000000025
  7
FDASTYLE1
 72
     5
 11
-198.2353671460437
 21
-9.97269676615195
 31
0.0
  0
ENDBLK
  5
A8
  8
0
  0
BLOCK
  8
0
  2
DC_GROUP_32
 70
     0
 10
0.0
 20
0.0
 30
0.0
  3
DC_GROUP_32
  1

  0
LINE
  5
229
  8
LAYER0014
  6
CONTINUOUS
 62
     7
 10
-105.3353647091049
 20
-10.96990424076651
 30
0.0
 11
-91.83536470910494
 21
-10.96990424076651
 31
0.0
  0
INSERT
  5
22A
  8
LAYER0014
  6
CONTINUOUS
  2
DC_GROUP_33
 10
0.0
 20
0.0
 30
0.0
  0
INSERT
  5
22B
  8
LAYER0014
  6
CONTINUOUS
  2
DC_GROUP_34
 10
0.0
 20
0.0
 30
0.0
  0
TEXT
  5
22C
  8
LAYER0014
 62
     7
 10
-104.98535496135
 20
-9.958734139224763
 30
0.0
 40
4.0
  1
13.5
 50
-0.1000000000000078
 41
0.8000000000000007
  7
FDASTYLE1
 72
     5
 11
-92.18537445685993
 21
-9.981074342308263
 31
0.0
  0
ENDBLK
  5
AB
  8
0
  0
BLOCK
  8
0
  2
DC_GROUP_33
 70
     0
 10
0.0
 20
0.0
 30
0.0
  3
DC_GROUP_33
  1

  0
LINE
  5
22D
  8
LAYER0014
  6
CONTINUOUS
 62
     7
 10
-103.3353663014743
 20
-11.50580377566412
 30
0.0
 11
-105.3353647091049
 21
-10.96990424076651
 31
0.0
  0
LINE
  5
22E
  8
LAYER0014
  6
CONTINUOUS
 62
     7
 10
-105.3353647091049
 20
-10.96990424076651
 30
0.0
 11
-103.3353663014743
 21
-10.4340047058689
 31
0.0
  0
LINE
  5
22F
  8
LAYER0014
  6
CONTINUOUS
 62
     7
 10
-105.3353647091049
 20
-10.96990424076651
 30
0.0
 11
-103.3353663014743
 21
-10.96990424076651
 31
0.0
  0
ENDBLK
  5
AE
  8
0
  0
BLOCK
  8
0
  2
DC_GROUP_34
 70
     0
 10
0.0
 20
0.0
 30
0.0
  3
DC_GROUP_34
  1

  0
LINE
  5
230
  8
LAYER0014
  6
CONTINUOUS
 62
     7
 10
-93.83536311673559
 20
-10.4340047058689
 30
0.0
 11
-91.83536470910494
 21
-10.96990424076651
 31
0.0
  0
LINE
  5
231
  8
LAYER0014
  6
CONTINUOUS
 62
     7
 10
-91.83536470910494
 20
-10.96990424076651
 30
0.0
 11
-93.83536311673559
 21
-11.50580377566412
 31
0.0
  0
LINE
  5
232
  8
LAYER0014
  6
CONTINUOUS
 62
     7
 10
-91.83536470910494
 20
-10.96990424076651
 30
0.0
 11
-93.83536311673559
 21
-10.96990424076651
 31
0.0
  0
ENDBLK
  5
B1
  8
0
  0
BLOCK
  8
0
  2
DC_GROUP_35
 70
     0
 10
0.0
 20
0.0
 30
0.0
  3
DC_GROUP_35
  1

  0
LINE
  5
233
  8
LAYER0014
  6
CONTINUOUS
 62
     7
 10
-216.3753647091049
 20
-51.04567366520499
 30
0.0
 11
-237.871512780394
 21
-51.04567366520499
 31
0.0
  0
LINE
  5
234
  8
LAYER0014
  6
CONTINUOUS
 62
     7
 10
-216.3753647091049
 20
-67.04567366520499
 30
0.0
 11
-237.871512780394
 21
-67.04567366520499
 31
0.0
  0
LINE
  5
235
  8
LAYER0014
  6
CONTINUOUS
 62
     7
 10
-235.5855172969955
 20
-51.04567366520499
 30
0.0
 11
-235.5855172969955
 21
-67.04567366520499
 31
0.0
  0
INSERT
  5
236
  8
LAYER0014
  6
CONTINUOUS
  2
DC_GROUP_36
 10
0.0
 20
0.0
 30
0.0
  0
INSERT
  5
237
  8
LAYER0014
  6
CONTINUOUS
  2
DC_GROUP_37
 10
0.0
 20
0.0
 30
0.0
  0
TEXT
  5
238
  8
LAYER0014
 62
     7
 10
-236.5938948731518
 20
-63.84566635438878
 30
0.0
 40
4.0
  1
M16
 50
89.90000000000001
 41
0.8000000000000019
  7
FDASTYLE1
 72
     5
 11
-236.5771397208392
 21
-54.2456809760212
 31
0.0
  0
ENDBLK
  5
B4
  8
0
  0
BLOCK
  8
0
  2
DC_GROUP_36
 70
     0
 10
0.0
 20
0.0
 30
0.0
  3
DC_GROUP_36
  1

  0
LINE
  5
239
  8
LAYER0014
  6
CONTINUOUS
 62
     7
 10
-236.1214168318932
 20
-53.04567207283565
 30
0.0
 11
-235.5855172969955
 21
-51.04567366520499
 31
0.0
  0
LINE
  5
23A
  8
LAYER0014
  6
CONTINUOUS
 62
     7
 10
-235.5855172969955
 20
-51.04567366520499
 30
0.0
 11
-235.0496177620979
 21
-53.04567207283565
 31
0.0
  0
LINE
  5
23B
  8
LAYER0014
  6
CONTINUOUS
 62
     7
 10
-235.5855172969955
 20
-51.04567366520499
 30
0.0
 11
-235.5855172969955
 21
-53.04567207283565
 31
0.0
  0
ENDBLK
  5
B7
  8
0
  0
BLOCK
  8
0
  2
DC_GROUP_37
 70
     0
 10
0.0
 20
0.0
 30
0.0
  3
DC_GROUP_37
  1

  0
LINE
  5
23C
  8
LAYER0014
  6
CONTINUOUS
 62
     7
 10
-235.0496177620979
 20
-65.04567525757432
 30
0.0
 11
-235.5855172969955
 21
-67.04567366520499
 31
0.0
  0
LINE
  5
23D
  8
LAYER0014
  6
CONTINUOUS
 62
     7
 10
-235.5855172969955
 20
-67.04567366520499
 30
0.0
 11
-236.1214168318932
 21
-65.04567525757432
 31
0.0
  0
LINE
  5
23E
  8
LAYER0014
  6
CONTINUOUS
 62
     7
 10
-235.5855172969955
 20
-67.04567366520499
 30
0.0
 11
-235.5855172969955
 21
-65.04567525757432
 31
0.0
  0
ENDBLK
  5
BA
  8
0
  0
BLOCK
  8
0
  2
DC_GROUP_38
 70
     0
 10
0.0
 20
0.0
 30
0.0
  3
DC_GROUP_38
  1

  0
LINE
  5
23F
  8
LAYER0014
  6
CONTINUOUS
 62
     7
 10
-214.8353647091049
 20
-68.58567366520499
 30
0.0
 11
-214.8353647091049
 21
-87.88688307682608
 31
0.0
  0
LINE
  5
240
  8
LAYER0014
  6
CONTINUOUS
 62
     7
 10
-214.8353647091049
 20
-85.60087996403311
 30
0.0
 11
-191.1353525020737
 21
-85.60087996403311
 31
0.0
  0
LINE
  5
241
  8
LAYER0014
  6
CONTINUOUS
 62
     7
 10
-174.4035025020736
 20
-85.60087996403311
 30
0.0
 11
-191.1353525020737
 21
-85.60087996403311
 31
0.0
  0
LINE
  5
242
  8
LAYER0014
  6
CONTINUOUS
 62
     7
 10
-219.8353647091049
 20
-85.60087996403311
 30
0.0
 11
-214.8353647091049
 21
-85.60087996403311
 31
0.0
  0
INSERT
  5
243
  8
LAYER0014
  6
CONTINUOUS
  2
DC_GROUP_39
 10
0.0
 20
0.0
 30
0.0
  0
INSERT
  5
244
  8
LAYER0014
  6
CONTINUOUS
  2
DC_GROUP_40
 10
0.0
 20
0.0
 30
0.0
  0
TEXT
  5
245
  8
LAYER0014
 62
     7
 10
-188.2035025020737
 20
-84.60087996403311
 30
0.0
 40
4.0
  1
23.7
 50
-0.1000000000000078
 41
0.8000000000000007
  7
FDASTYLE1
 72
     5
 11
-175.4035219975836
 21
-84.62322016711661
 31
0.0
  0
ENDBLK
  5
BD
  8
0
  0
BLOCK
  8
0
  2
DC_GROUP_39
 70
     0
 10
0.0
 20
0.0
 30
0.0
  3
DC_GROUP_39
  1

  0
LINE
  5
246
  8
LAYER0014
  6
CONTINUOUS
 62
     7
 10
-189.135354094443
 20
-86.13677949893072
 30
0.0
 11
-191.1353525020737
 21
-85.60087996403311
 31
0.0
  0
LINE
  5
247
  8
LAYER0014
  6
CONTINUOUS
 62
     7
 10
-191.1353525020737
 20
-85.60087996403311
 30
0.0
 11
-189.135354094443
 21
-85.0649804291355
 31
0.0
  0
LINE
  5
248
  8
LAYER0014
  6
CONTINUOUS
 62
     7
 10
-191.1353525020737
 20
-85.60087996403311
 30
0.0
 11
-189.135354094443
 21
-85.60087996403311
 31
0.0
  0
ENDBLK
  5
C0
  8
0
  0
BLOCK
  8
0
  2
DC_GROUP_40
 70
     0
 10
0.0
 20
0.0
 30
0.0
  3
DC_GROUP_40
  1

  0
LINE
  5
249
  8
LAYER0014
  6
CONTINUOUS
 62
     7
 10
-216.8353631167356
 20
-85.0649804291355
 30
0.0
 11
-214.8353647091049
 21
-85.60087996403311
 31
0.0
  0
LINE
  5
24A
  8
LAYER0014
  6
CONTINUOUS
 62
     7
 10
-214.8353647091049
 20
-85.60087996403311
 30
0.0
 11
-216.8353631167356
 21
-86.13677949893072
 31
0.0
  0
LINE
  5
24B
  8
LAYER0014
  6
CONTINUOUS
 62
     7
 10
-214.8353647091049
 20
-85.60087996403311
 30
0.0
 11
-216.8353631167356
 21
-85.60087996403311
 31
0.0
  0
ENDBLK
  5
C3
  8
0
  0
BLOCK
  8
0
  2
DC_GROUP_41
 70
     0
 10
0.0
 20
0.0
 30
0.0
  3
DC_GROUP_41
  1

  0
LINE
  5
24C
  8
LAYER0014
  6
CONTINUOUS
 62
     7
 10
-168.3753647091049
 20
32.15432519038583
 30
0.0
 11
-177.4366525509018
 21
32.15432519038583
 31
0.0
  0
LINE
  5
24D
  8
LAYER0014
  6
CONTINUOUS
 62
     7
 10
-168.3753647091049
 20
21.15432519038583
 30
0.0
 11
-177.4366525509018
 21
21.15432519038583
 31
0.0
  0
LINE
  5
24E
  8
LAYER0014
  6
CONTINUOUS
 62
     7
 10
-175.1506570675034
 20
32.15432519038583
 30
0.0
 11
-175.1506570675034
 21
21.15432519038583
 31
0.0
  0
INSERT
  5
24F
  8
LAYER0014
  6
CONTINUOUS
  2
DC_GROUP_42
 10
0.0
 20
0.0
 30
0.0
  0
INSERT
  5
250
  8
LAYER0014
  6
CONTINUOUS
  2
DC_GROUP_43
 10
0.0
 20
0.0
 30
0.0
  0
TEXT
  5
251
  8
LAYER0014
 62
     7
 10
-176.7562396813355
 20
23.45712258964876
 30
0.0
 40
4.0
  1
11
 50
89.90000000000001
 41
0.7999999999999972
  7
FDASTYLE1
 72
     5
 11
-176.7450695797938
 21
29.85711284189378
 31
0.0
  0
ENDBLK
  5
C6
  8
0
  0
BLOCK
  8
0
  2
DC_GROUP_42
 70
     0
 10
0.0
 20
0.0
 30
0.0
  3
DC_GROUP_42
  1

  0
LINE
  5
252
  8
LAYER0014
  6
CONTINUOUS
 62
     7
 10
-175.6865566024011
 20
30.15432678275517
 30
0.0
 11
-175.1506570675034
 21
32.15432519038583
 31
0.0
  0
LINE
  5
253
  8
LAYER0014
  6
CONTINUOUS
 62
     7
 10
-175.1506570675034
 20
32.15432519038583
 30
0.0
 11
-174.6147575326058
 21
30.15432678275517
 31
0.0
  0
LINE
  5
254
  8
LAYER0014
  6
CONTINUOUS
 62
     7
 10
-175.1506570675034
 20
32.15432519038583
 30
0.0
 11
-175.1506570675034
 21
30.15432678275517
 31
0.0
  0
ENDBLK
  5
C9
  8
0
  0
BLOCK
  8
0
  2
DC_GROUP_43
 70
     0
 10
0.0
 20
0.0
 30
0.0
  3
DC_GROUP_43
  1

  0
LINE
  5
255
  8
LAYER0014
  6
CONTINUOUS
 62
     7
 10
-174.6147575326058
 20
23.15432359801649
 30
0.0
 11
-175.1506570675034
 21
21.15432519038583
 31
0.0
  0
LINE
  5
256
  8
LAYER0014
  6
CONTINUOUS
 62
     7
 10
-175.1506570675034
 20
21.15432519038583
 30
0.0
 11
-175.6865566024011
 21
23.15432359801649
 31
0.0
  0
LINE
  5
257
  8
LAYER0014
  6
CONTINUOUS
 62
     7
 10
-175.1506570675034
 20
21.15432519038583
 30
0.0
 11
-175.1506570675034
 21
23.15432359801649
 31
0.0
  0
ENDBLK
  5
CC
  8
0
  0
BLOCK
  8
0
  2
DC_GROUP_44
 70
     0
 10
0.0
 20
0.0
 30
0.0
  3
DC_GROUP_44
  1

  0
LINE
  5
258
  8
LAYER0014
  6
CONTINUOUS
 62
     7
 10
-157.2953647091049
 20
76.6543232830372
 30
0.0
 11
-146.9581521846909
 21
76.6543232830372
 31
0.0
  0
LINE
  5
259
  8
LAYER0014
  6
CONTINUOUS
 62
     7
 10
-157.2953647091049
 20
-23.34567480961417
 30
0.0
 11
-146.9581521846909
 21
-23.34567480961417
 31
0.0
  0
LINE
  5
25A
  8
LAYER0014
  6
CONTINUOUS
 62
     7
 10
-149.2441629268784
 20
76.6543232830372
 30
0.0
 11
-149.2441629268784
 21
-23.34567480961417
 31
0.0
  0
INSERT
  5
25B
  8
LAYER0014
  6
CONTINUOUS
  2
DC_GROUP_45
 10
0.0
 20
0.0
 30
0.0
  0
INSERT
  5
25C
  8
LAYER0014
  6
CONTINUOUS
  2
DC_GROUP_46
 10
0.0
 20
0.0
 30
0.0
  0
TEXT
  5
25D
  8
LAYER0014
 62
     7
 10
-150.8609156423355
 20
17.05713228972006
 30
0.0
 40
4.0
  1
φ100
 50
89.90000000000001
 41
0.7256235827664407
  7
FDASTYLE1
 72
     5
 11
-150.8396392584465
 21
29.24758991304396
 31
0.0
  0
TEXT
  5
25E
  8
LAYER0014
 62
     7
 10
-153.0368267600953
 20
30.86095099352842
 30
0.0
 40
2.2
  1
+0.3
 50
89.90000000000001
 41
0.7999999999999991
  7
FDASTYLE1
 72
     5
 11
-153.0245396483994
 21
37.90094027099796
 31
0.0
  0
TEXT
  5
25F
  8
LAYER0014
 62
     7
 10
-150.6368304155034
 20
30.85676220545026
 30
0.0
 40
2.2
  1
　0
 50
89.90000000000001
 41
0.661157024793392
  7
FDASTYLE1
 72
     5
 11
-150.6312453647325
 21
34.0567573315728
 31
0.0
  0
ENDBLK
  5
CF
  8
0
  0
BLOCK
  8
0
  2
DC_GROUP_45
 70
     0
 10
0.0
 20
0.0
 30
0.0
  3
DC_GROUP_45
  1

  0
LINE
  5
260
  8
LAYER0014
  6
CONTINUOUS
 62
     7
 10
-149.7800624617761
 20
74.65432487540654
 30
0.0
 11
-149.2441629268784
 21
76.6543232830372
 31
0.0
  0
LINE
  5
261
  8
LAYER0014
  6
CONTINUOUS
 62
     7
 10
-149.2441629268784
 20
76.6543232830372
 30
0.0
 11
-148.7082633919808
 21
74.65432487540654
 31
0.0
  0
LINE
  5
262
  8
LAYER0014
  6
CONTINUOUS
 62
     7
 10
-149.2441629268784
 20
76.6543232830372
 30
0.0
 11
-149.2441629268784
 21
74.65432487540654
 31
0.0
  0
ENDBLK
  5
D2
  8
0
  0
BLOCK
  8
0
  2
DC_GROUP_46
 70
     0
 10
0.0
 20
0.0
 30
0.0
  3
DC_GROUP_46
  1

  0
LINE
  5
263
  8
LAYER0014
  6
CONTINUOUS
 62
     7
 10
-148.7082633919808
 20
-21.34567640198351
 30
0.0
 11
-149.2441629268784
 21
-23.34567480961417
 31
0.0
  0
LINE
  5
264
  8
LAYER0014
  6
CONTINUOUS
 62
     7
 10
-149.2441629268784
 20
-23.34567480961417
 30
0.0
 11
-149.7800624617761
 21
-21.34567640198351
 31
0.0
  0
LINE
  5
265
  8
LAYER0014
  6
CONTINUOUS
 62
     7
 10
-149.2441629268784
 20
-23.34567480961417
 30
0.0
 11
-149.2441629268784
 21
-21.34567640198351
 31
0.0
  0
ENDBLK
  5
D5
  8
0
  0
BLOCK
  8
0
  2
DC_GROUP_47
 70
     0
 10
0.0
 20
0.0
 30
0.0
  3
DC_GROUP_47
  1

  0
LINE
  5
266
  8
LAYER0014
  6
CONTINUOUS
 62
     7
 10
-197.8353647091049
 20
-10.96990424076651
 30
0.0
 11
-159.8353647091049
 21
-10.96990424076651
 31
0.0
  0
INSERT
  5
267
  8
LAYER0014
  6
CONTINUOUS
  2
DC_GROUP_48
 10
0.0
 20
0.0
 30
0.0
  0
INSERT
  5
268
  8
LAYER0014
  6
CONTINUOUS
  2
DC_GROUP_49
 10
0.0
 20
0.0
 30
0.0
  0
TEXT
  5
269
  8
LAYER0014
 62
     7
 10
-182.0353598352274
 20
-9.96431918999564
 30
0.0
 40
4.0
  1
38
 50
-0.1000000000000078
 41
0.7999999999999954
  7
FDASTYLE1
 72
     5
 11
-175.6353695829824
 21
-9.975489291537389
 31
0.0
  0
ENDBLK
  5
D8
  8
0
  0
BLOCK
  8
0
  2
DC_GROUP_48
 70
     0
 10
0.0
 20
0.0
 30
0.0
  3
DC_GROUP_48
  1

  0
LINE
  5
26A
  8
LAYER0014
  6
CONTINUOUS
 62
     7
 10
-195.8353663014743
 20
-11.50580377566412
 30
0.0
 11
-197.8353647091049
 21
-10.96990424076651
 31
0.0
  0
LINE
  5
26B
  8
LAYER0014
  6
CONTINUOUS
 62
     7
 10
-197.8353647091049
 20
-10.96990424076651
 30
0.0
 11
-195.8353663014743
 21
-10.4340047058689
 31
0.0
  0
LINE
  5
26C
  8
LAYER0014
  6
CONTINUOUS
 62
     7
 10
-197.8353647091049
 20
-10.96990424076651
 30
0.0
 11
-195.8353663014743
 21
-10.96990424076651
 31
0.0
  0
ENDBLK
  5
DB
  8
0
  0
BLOCK
  8
0
  2
DC_GROUP_49
 70
     0
 10
0.0
 20
0.0
 30
0.0
  3
DC_GROUP_49
  1

  0
LINE
  5
26D
  8
LAYER0014
  6
CONTINUOUS
 62
     7
 10
-161.8353631167356
 20
-10.4340047058689
 30
0.0
 11
-159.8353647091049
 21
-10.96990424076651
 31
0.0
  0
LINE
  5
26E
  8
LAYER0014
  6
CONTINUOUS
 62
     7
 10
-159.8353647091049
 20
-10.96990424076651
 30
0.0
 11
-161.8353631167356
 21
-11.50580377566412
 31
0.0
  0
LINE
  5
26F
  8
LAYER0014
  6
CONTINUOUS
 62
     7
 10
-159.8353647091049
 20
-10.96990424076651
 30
0.0
 11
-161.8353631167356
 21
-10.96990424076651
 31
0.0
  0
ENDBLK
  5
DE
  8
0
  0
BLOCK
  8
0
  2
DC_GROUP_50
 70
     0
 10
0.0
 20
0.0
 30
0.0
  3
DC_GROUP_50
  1

  0
LINE
  5
270
  8
LAYER0014
  6
CONTINUOUS
 62
     7
 10
-159.8353647091049
 20
-10.96990424076651
 30
0.0
 11
-105.3353647091049
 21
-10.96990424076651
 31
0.0
  0
INSERT
  5
271
  8
LAYER0014
  6
CONTINUOUS
  2
DC_GROUP_51
 10
0.0
 20
0.0
 30
0.0
  0
INSERT
  5
272
  8
LAYER0014
  6
CONTINUOUS
  2
DC_GROUP_52
 10
0.0
 20
0.0
 30
0.0
  0
TEXT
  5
273
  8
LAYER0014
 62
     7
 10
-138.98535496135
 20
-9.958734139224763
 30
0.0
 40
4.0
  1
54.5
 50
-0.1000000000000078
 41
0.8000000000000016
  7
FDASTYLE1
 72
     5
 11
-126.1853744568599
 21
-9.981074342308263
 31
0.0
  0
ENDBLK
  5
E1
  8
0
  0
BLOCK
  8
0
  2
DC_GROUP_51
 70
     0
 10
0.0
 20
0.0
 30
0.0
  3
DC_GROUP_51
  1

  0
LINE
  5
274
  8
LAYER0014
  6
CONTINUOUS
 62
     7
 10
-157.8353663014743
 20
-11.50580377566412
 30
0.0
 11
-159.8353647091049
 21
-10.96990424076651
 31
0.0
  0
LINE
  5
275
  8
LAYER0014
  6
CONTINUOUS
 62
     7
 10
-159.8353647091049
 20
-10.96990424076651
 30
0.0
 11
-157.8353663014743
 21
-10.4340047058689
 31
0.0
  0
LINE
  5
276
  8
LAYER0014
  6
CONTINUOUS
 62
     7
 10
-159.8353647091049
 20
-10.96990424076651
 30
0.0
 11
-157.8353663014743
 21
-10.96990424076651
 31
0.0
  0
ENDBLK
  5
E4
  8
0
  0
BLOCK
  8
0
  2
DC_GROUP_52
 70
     0
 10
0.0
 20
0.0
 30
0.0
  3
DC_GROUP_52
  1

  0
LINE
  5
277
  8
LAYER0014
  6
CONTINUOUS
 62
     7
 10
-107.3353631167356
 20
-10.4340047058689
 30
0.0
 11
-105.3353647091049
 21
-10.96990424076651
 31
0.0
  0
LINE
  5
278
  8
LAYER0014
  6
CONTINUOUS
 62
     7
 10
-105.3353647091049
 20
-10.96990424076651
 30
0.0
 11
-107.3353631167356
 21
-11.50580377566412
 31
0.0
  0
LINE
  5
279
  8
LAYER0014
  6
CONTINUOUS
 62
     7
 10
-105.3353647091049
 20
-10.96990424076651
 30
0.0
 11
-107.3353631167356
 21
-10.96990424076651
 31
0.0
  0
ENDBLK
  5
E7
  8
0
  0
BLOCK
  8
0
  2
DC_GROUP_53
 70
     0
 10
0.0
 20
0.0
 30
0.0
  3
DC_GROUP_53
  1

  0
LINE
  5
27A
  8
LAYER0014
  6
CONTINUOUS
 62
     7
 10
-165.8353647091049
 20
18.61432519038583
 30
0.0
 11
-165.8353647091049
 21
6.996415797075285
 31
0.0
  0
LINE
  5
27B
  8
LAYER0014
  6
CONTINUOUS
 62
     7
 10
-165.8353647091049
 20
9.282416048845304
 30
0.0
 11
-159.8353647091049
 21
9.282416048845304
 31
0.0
  0
LINE
  5
27C
  8
LAYER0014
  6
CONTINUOUS
 62
     7
 10
-154.8353647091049
 20
9.282416048845304
 30
0.0
 11
-159.8353647091049
 21
9.282416048845304
 31
0.0
  0
LINE
  5
27D
  8
LAYER0014
  6
CONTINUOUS
 62
     7
 10
-170.8353647091049
 20
9.282416048845304
 30
0.0
 11
-165.8353647091049
 21
9.282416048845304
 31
0.0
  0
INSERT
  5
27E
  8
LAYER0014
  6
CONTINUOUS
  2
DC_GROUP_54
 10
0.0
 20
0.0
 30
0.0
  0
INSERT
  5
27F
  8
LAYER0014
  6
CONTINUOUS
  2
DC_GROUP_55
 10
0.0
 20
0.0
 30
0.0
  0
TEXT
  5
280
  8
LAYER0014
 62
     7
 10
-164.4353647091049
 20
10.2824160488453
 30
0.0
 40
4.0
  1
6
 41
0.7999999999999972
  7
FDASTYLE1
 72
     5
 11
-161.2353647091049
 21
10.2824160488453
 31
0.0
  0
ENDBLK
  5
EA
  8
0
  0
BLOCK
  8
0
  2
DC_GROUP_54
 70
     0
 10
0.0
 20
0.0
 30
0.0
  3
DC_GROUP_54
  1

  0
LINE
  5
281
  8
LAYER0014
  6
CONTINUOUS
 62
     7
 10
-157.8353663014743
 20
8.746516513947697
 30
0.0
 11
-159.8353647091049
 21
9.282416048845304
 31
0.0
  0
LINE
  5
282
  8
LAYER0014
  6
CONTINUOUS
 62
     7
 10
-159.8353647091049
 20
9.282416048845304
 30
0.0
 11
-157.8353663014743
 21
9.81831558374291
 31
0.0
  0
LINE
  5
283
  8
LAYER0014
  6
CONTINUOUS
 62
     7
 10
-159.8353647091049
 20
9.282416048845304
 30
0.0
 11
-157.8353663014743
 21
9.282416048845304
 31
0.0
  0
ENDBLK
  5
ED
  8
0
  0
BLOCK
  8
0
  2
DC_GROUP_55
 70
     0
 10
0.0
 20
0.0
 30
0.0
  3
DC_GROUP_55
  1

  0
LINE
  5
284
  8
LAYER0014
  6
CONTINUOUS
 62
     7
 10
-167.8353631167356
 20
9.81831558374291
 30
0.0
 11
-165.8353647091049
 21
9.282416048845304
 31
0.0
  0
LINE
  5
285
  8
LAYER0014
  6
CONTINUOUS
 62
     7
 10
-165.8353647091049
 20
9.282416048845304
 30
0.0
 11
-167.8353631167356
 21
8.746516513947697
 31
0.0
  0
LINE
  5
286
  8
LAYER0014
  6
CONTINUOUS
 62
     7
 10
-165.8353647091049
 20
9.282416048845304
 30
0.0
 11
-167.8353631167356
 21
9.282416048845304
 31
0.0
  0
ENDBLK
  5
F0
  8
0
  0
BLOCK
  8
0
  2
DC_GROUP_56
 70
     0
 10
0.0
 20
0.0
 30
0.0
  3
DC_GROUP_56
  1

  0
LINE
  5
287
  8
LAYER0014
  6
CONTINUOUS
 62
     7
 10
-87.29536470910493
 20
95.6543232830372
 30
0.0
 11
-55.61413134118502
 21
95.6543232830372
 31
0.0
  0
LINE
  5
288
  8
LAYER0014
  6
CONTINUOUS
 62
     7
 10
-56.88769854089205
 20
107.6543232830372
 30
0.0
 11
-55.61413134118502
 21
107.6543232830372
 31
0.0
  0
LINE
  5
289
  8
LAYER0014
  6
CONTINUOUS
 62
     7
 10
-56.61413134118502
 20
95.6543232830372
 30
0.0
 11
-56.61413134118502
 21
107.6543232830372
 31
0.0
  0
INSERT
  5
28A
  8
LAYER0014
  6
BORDER
  2
DC_GROUP_57
 10
0.0
 20
0.0
 30
0.0
  0
INSERT
  5
28B
  8
LAYER0014
  6
BORDER
  2
DC_GROUP_58
 10
0.0
 20
0.0
 30
0.0
  0
ENDBLK
  5
F3
  8
0
  0
BLOCK
  8
0
  2
DC_GROUP_57
 70
     0
 10
0.0
 20
0.0
 30
0.0
  3
DC_GROUP_57
  1

  0
LINE
  5
28C
  8
LAYER0014
  6
CONTINUOUS
 62
     7
 10
-56.07823180628739
 20
97.65432169066787
 30
0.0
 11
-56.61413134118502
 21
95.6543232830372
 31
0.0
  0
LINE
  5
28D
  8
LAYER0014
  6
CONTINUOUS
 62
     7
 10
-56.61413134118502
 20
95.6543232830372
 30
0.0
 11
-57.15003087608262
 21
97.65432169066787
 31
0.0
  0
LINE
  5
28E
  8
LAYER0014
  6
CONTINUOUS
 62
     7
 10
-56.61413134118502
 20
95.6543232830372
 30
0.0
 11
-56.61413134118501
 21
97.65432169066787
 31
0.0
  0
ENDBLK
  5
F6
  8
0
  0
BLOCK
  8
0
  2
DC_GROUP_58
 70
     0
 10
0.0
 20
0.0
 30
0.0
  3
DC_GROUP_58
  1

  0
LINE
  5
28F
  8
LAYER0014
  6
CONTINUOUS
 62
     7
 10
-57.15003087608262
 20
105.6543248754065
 30
0.0
 11
-56.61413134118502
 21
107.6543232830372
 31
0.0
  0
LINE
  5
290
  8
LAYER0014
  6
CONTINUOUS
 62
     7
 10
-56.61413134118502
 20
107.6543232830372
 30
0.0
 11
-56.0782318062874
 21
105.6543248754065
 31
0.0
  0
LINE
  5
291
  8
LAYER0014
  6
CONTINUOUS
 62
     7
 10
-56.61413134118502
 20
107.6543232830372
 30
0.0
 11
-56.61413134118502
 21
105.6543248754065
 31
0.0
  0
ENDBLK
  5
F9
  8
0
  0
BLOCK
  8
0
  2
DC_GROUP_59
 70
     0
 10
0.0
 20
0.0
 30
0.0
  3
DC_GROUP_59
  1

  0
LINE
  5
292
  8
LAYER0014
  6
CONTINUOUS
 62
     7
 10
-56.82079546472018
 20
107.6543232830372
 30
0.0
 11
-57.61413134118502
 21
107.6543232830372
 31
0.0
  0
LINE
  5
293
  8
LAYER0014
  6
CONTINUOUS
 62
     7
 10
-60.74079546472017
 20
142.6543309124317
 30
0.0
 11
-55.61413134118502
 21
142.6543309124317
 31
0.0
  0
LINE
  5
294
  8
LAYER0014
  6
CONTINUOUS
 62
     7
 10
-56.61413134118502
 20
107.6543232830372
 30
0.0
 11
-56.61413134118502
 21
142.6543309124317
 31
0.0
  0
INSERT
  5
295
  8
LAYER0014
  6
BORDER
  2
DC_GROUP_60
 10
0.0
 20
0.0
 30
0.0
  0
INSERT
  5
296
  8
LAYER0014
  6
BORDER
  2
DC_GROUP_61
 10
0.0
 20
0.0
 30
0.0
  0
TEXT
  5
297
  8
LAYER0014
 62
     7
 10
-57.61413134118502
 20
121.9543270977345
 30
0.0
 40
4.0
  1
35
 50
90.0
 41
0.8000000000000043
  7
FDASTYLE1
 72
     5
 11
-57.61413134118502
 21
128.3543270977345
 31
0.0
  0
ENDBLK
  5
FC
  8
0
  0
BLOCK
  8
0
  2
DC_GROUP_60
 70
     0
 10
0.0
 20
0.0
 30
0.0
  3
DC_GROUP_60
  1

  0
LINE
  5
298
  8
LAYER0014
  6
CONTINUOUS
 62
     7
 10
-56.0782318062874
 20
109.6543216906679
 30
0.0
 11
-56.61413134118502
 21
107.6543232830372
 31
0.0
  0
LINE
  5
299
  8
LAYER0014
  6
CONTINUOUS
 62
     7
 10
-56.61413134118502
 20
107.6543232830372
 30
0.0
 11
-57.15003087608262
 21
109.6543216906679
 31
0.0
  0
LINE
  5
29A
  8
LAYER0014
  6
CONTINUOUS
 62
     7
 10
-56.61413134118502
 20
107.6543232830372
 30
0.0
 11
-56.61413134118502
 21
109.6543216906679
 31
0.0
  0
ENDBLK
  5
FF
  8
0
  0
BLOCK
  8
0
  2
DC_GROUP_61
 70
     0
 10
0.0
 20
0.0
 30
0.0
  3
DC_GROUP_61
  1

  0
LINE
  5
29B
  8
LAYER0014
  6
CONTINUOUS
 62
     7
 10
-57.15003087608262
 20
140.6543325048011
 30
0.0
 11
-56.61413134118502
 21
142.6543309124317
 31
0.0
  0
LINE
  5
29C
  8
LAYER0014
  6
CONTINUOUS
 62
     7
 10
-56.61413134118502
 20
142.6543309124317
 30
0.0
 11
-56.0782318062874
 21
140.6543325048011
 31
0.0
  0
LINE
  5
29D
  8
LAYER0014
  6
CONTINUOUS
 62
     7
 10
-56.61413134118502
 20
142.6543309124317
 30
0.0
 11
-56.61413134118502
 21
140.6543325048011
 31
0.0
  0
ENDBLK
  5
102
  8
0
  0
BLOCK
  8
0
  2
DC_GROUP_62
 70
     0
 10
0.0
 20
0.0
 30
0.0
  3
DC_GROUP_62
  1

  0
LINE
  5
29E
  8
LAYER0014
  6
CONTINUOUS
 62
     7
 10
238.2166516397628
 20
-52.98702543419861
 30
0.0
 11
248.2166504476699
 21
-35.66651647728943
 31
0.0
  0
INSERT
  5
29F
  8
LAYER0014
  6
CONTINUOUS
  2
DC_GROUP_63
 10
0.0
 20
0.0
 30
0.0
  0
INSERT
  5
2A0
  8
LAYER0014
  6
CONTINUOUS
  2
DC_GROUP_64
 10
0.0
 20
0.0
 30
0.0
  0
TEXT
  5
2A1
  8
LAYER0014
 62
     7
 10
239.1409568852866
 20
-49.3637401111726
 30
0.0
 40
4.0
  1
20H8
 50
59.9
 41
0.8000000000000009
  7
FDASTYLE1
 72
     5
 11
245.5602943209277
 21
-38.28980192788038
 31
0.0
  0
ENDBLK
  5
105
  8
0
  0
BLOCK
  8
0
  2
DC_GROUP_63
 70
     0
 10
0.0
 20
0.0
 30
0.0
  3
DC_GROUP_63
  1

  0
LINE
  5
2A2
  8
LAYER0014
  6
CONTINUOUS
 62
     7
 10
239.6807533468453
 20
-51.52292566528025
 30
0.0
 11
238.2166516397628
 21
-52.98702543419861
 31
0.0
  0
LINE
  5
2A3
  8
LAYER0014
  6
CONTINUOUS
 62
     7
 10
238.2166516397628
 20
-52.98702543419861
 30
0.0
 11
238.7525480851813
 21
-50.98702619874462
 31
0.0
  0
LINE
  5
2A4
  8
LAYER0014
  6
CONTINUOUS
 62
     7
 10
238.2166516397628
 20
-52.98702543419861
 30
0.0
 11
239.2166507160133
 21
-51.25497593201244
 31
0.0
  0
ENDBLK
  5
108
  8
0
  0
BLOCK
  8
0
  2
DC_GROUP_64
 70
     0
 10
0.0
 20
0.0
 30
0.0
  3
DC_GROUP_64
  1

  0
LINE
  5
2A5
  8
LAYER0014
  6
CONTINUOUS
 62
     7
 10
246.7525487405874
 20
-37.13061624620777
 30
0.0
 11
248.2166504476699
 21
-35.66651647728943
 31
0.0
  0
LINE
  5
2A6
  8
LAYER0014
  6
CONTINUOUS
 62
     7
 10
248.2166504476699
 20
-35.66651647728943
 30
0.0
 11
247.6807540022514
 21
-37.6665157127434
 31
0.0
  0
LINE
  5
2A7
  8
LAYER0014
  6
CONTINUOUS
 62
     7
 10
248.2166504476699
 20
-35.66651647728943
 30
0.0
 11
247.2166513714194
 21
-37.39856597947559
 31
0.0
  0
ENDBLK
  5
10B
  8
0
  0
BLOCK
  8
0
  2
DC_GROUP_65
 70
     0
 10
0.0
 20
0.0
 30
0.0
  3
DC_GROUP_65
  1

  0
LINE
  5
2A8
  8
LAYER0014
  6
CONTINUOUS
 62
     7
 10
150.744892641238
 20
-66.42720532742808
 30
0.0
 11
190.7648695437983
 21
-114.1751736465785
 31
0.0
  0
LINE
  5
2A9
  8
LAYER0014
  6
CONTINUOUS
 62
     7
 10
190.7648702762467
 20
-114.1751750079784
 30
0.0
 11
222.7734304569107
 21
-114.1751750079784
 31
0.0
  0
INSERT
  5
2AA
  8
LAYER0014
  6
CONTINUOUS
  2
DC_GROUP_66
 10
0.0
 20
0.0
 30
0.0
  0
TEXT
  5
2AB
  8
LAYER0014
 62
     7
 10
192.1448599002701
 20
-112.5751750079784
 30
0.0
 40
4.0
  1
PCD 171.4
 41
0.8000000000000003
  7
FDASTYLE1
 72
     5
 11
220.9448599002701
 21
-112.5751750079784
 31
0.0
  0
ENDBLK
  5
10E
  8
0
  0
BLOCK
  8
0
  2
DC_GROUP_66
 70
     0
 10
0.0
 20
0.0
 30
0.0
  3
DC_GROUP_66
  1

  0
LINE
  5
2AC
  8
LAYER0014
  6
CONTINUOUS
 62
     7
 10
151.6188980072718
 20
-68.30424996253213
 30
0.0
 11
150.744892641238
 21
-66.42720532742808
 31
0.0
  0
LINE
  5
2AD
  8
LAYER0014
  6
CONTINUOUS
 62
     7
 10
150.744892641238
 20
-66.42720532742808
 30
0.0
 11
152.4403275573054
 21
-67.61576848831115
 31
0.0
  0
LINE
  5
2AE
  8
LAYER0014
  6
CONTINUOUS
 62
     7
 10
150.744892641238
 20
-66.42720532742808
 30
0.0
 11
152.0296127822886
 21
-67.96000922542163
 31
0.0
  0
ENDBLK
  5
111
  8
0
  0
BLOCK
  8
0
  2
DC_GROUP_67
 70
     0
 10
0.0
 20
0.0
 30
0.0
  3
DC_GROUP_67
  1

  0
LINE
  5
2AF
  8
LAYER0014
  6
CONTINUOUS
 62
     7
 10
122.3169219939727
 20
-43.24322160093928
 30
0.0
 11
191.0408776578428
 21
-124.9391637339832
 31
0.0
  0
LINE
  5
2B0
  8
LAYER0014
  6
CONTINUOUS
 62
     7
 10
191.0408712528092
 20
-124.9391596881542
 30
0.0
 11
229.1734396121842
 21
-124.9391596881542
 31
0.0
  0
INSERT
  5
2B1
  8
LAYER0014
  6
CONTINUOUS
  2
DC_GROUP_68
 10
0.0
 20
0.0
 30
0.0
  0
TEXT
  5
2B2
  8
LAYER0014
 62
     7
 10
192.1448599002701
 20
-123.3391596881542
 30
0.0
 40
4.0
  1
3-M6 PCD135
 41
0.7999999999999997
  7
FDASTYLE1
 72
     5
 11
227.3448599002701
 21
-123.3391596881542
 31
0.0
  0
ENDBLK
  5
114
  8
0
  0
BLOCK
  8
0
  2
DC_GROUP_68
 70
     0
 10
0.0
 20
0.0
 30
0.0
  3
DC_GROUP_68
  1

  0
LINE
  5
2B3
  8
LAYER0014
  6
CONTINUOUS
 62
     7
 10
123.1943010878438
 20
-45.1186916400672
 30
0.0
 11
122.3169219939727
 21
-43.24322160093928
 31
0.0
  0
LINE
  5
2B4
  8
LAYER0014
  6
CONTINUOUS
 62
     7
 10
122.3169219939727
 20
-43.24322160093928
 30
0.0
 11
124.014491341577
 21
-44.42873425464767
 31
0.0
  0
LINE
  5
2B5
  8
LAYER0014
  6
CONTINUOUS
 62
     7
 10
122.3169219939727
 20
-43.24322160093928
 30
0.0
 11
123.6043962147104
 21
-44.77371294735744
 31
0.0
  0
ENDBLK
  5
117
  8
0
  0
BLOCK
  8
0
  2
DC_GROUP_69
 70
     0
 10
0.0
 20
0.0
 30
0.0
  3
DC_GROUP_69
  1

  0
LINE
  5
2B6
  8
LAYER0014
  6
CONTINUOUS
 62
     7
 10
-102.7953647091049
 20
79.1543232830372
 30
0.0
 11
-74.48981417199556
 21
79.1543232830372
 31
0.0
  0
LINE
  5
2B7
  8
LAYER0014
  6
CONTINUOUS
 62
     7
 10
-102.7953647091049
 20
-25.84567480961417
 30
0.0
 11
-74.48981417199556
 21
-25.84567480961417
 31
0.0
  0
LINE
  5
2B8
  8
LAYER0014
  6
CONTINUOUS
 62
     7
 10
-76.77581728478853
 20
79.1543232830372
 30
0.0
 11
-76.77581728478853
 21
-25.84567480961417
 31
0.0
  0
INSERT
  5
2B9
  8
LAYER0014
  6
CONTINUOUS
  2
DC_GROUP_70
 10
0.0
 20
0.0
 30
0.0
  0
INSERT
  5
2BA
  8
LAYER0014
  6
CONTINUOUS
  2
DC_GROUP_71
 10
0.0
 20
0.0
 30
0.0
  0
TEXT
  5
2BB
  8
LAYER0014
 62
     7
 10
-77.78698738633028
 20
16.23433398446647
 30
0.0
 40
4.0
  1
φ105
 50
89.90000000000001
 41
0.7256235827664407
  7
FDASTYLE1
 72
     5
 11
-77.76571100244124
 21
28.42479160779038
 31
0.0
  0
TEXT
  5
2BC
  8
LAYER0014
 62
     7
 10
-79.96289850409012
 20
30.03815268827482
 30
0.0
 40
2.2
  1
+0.3
 50
89.90000000000001
 41
0.8000000000000006
  7
FDASTYLE1
 72
     5
 11
-79.95061139239419
 21
37.07814196574437
 31
0.0
  0
TEXT
  5
2BD
  8
LAYER0014
 62
     7
 10
-77.56290215949824
 20
30.03396390019667
 30
0.0
 40
2.2
  1
　0
 50
89.90000000000001
 41
0.6611570247933898
  7
FDASTYLE1
 72
     5
 11
-77.55731710872736
 21
33.2339590263192
 31
0.0
  0
ENDBLK
  5
11A
  8
0
  0
BLOCK
  8
0
  2
DC_GROUP_70
 70
     0
 10
0.0
 20
0.0
 30
0.0
  3
DC_GROUP_70
  1

  0
LINE
  5
2BE
  8
LAYER0014
  6
CONTINUOUS
 62
     7
 10
-77.31171681968614
 20
77.15432487540653
 30
0.0
 11
-76.77581728478853
 21
79.1543232830372
 31
0.0
  0
LINE
  5
2BF
  8
LAYER0014
  6
CONTINUOUS
 62
     7
 10
-76.77581728478853
 20
79.1543232830372
 30
0.0
 11
-76.23991774989092
 21
77.15432487540653
 31
0.0
  0
LINE
  5
2C0
  8
LAYER0014
  6
CONTINUOUS
 62
     7
 10
-76.77581728478853
 20
79.1543232830372
 30
0.0
 11
-76.77581728478853
 21
77.15432487540653
 31
0.0
  0
ENDBLK
  5
11D
  8
0
  0
BLOCK
  8
0
  2
DC_GROUP_71
 70
     0
 10
0.0
 20
0.0
 30
0.0
  3
DC_GROUP_71
  1

  0
LINE
  5
2C1
  8
LAYER0014
  6
CONTINUOUS
 62
     7
 10
-76.23991774989092
 20
-23.84567640198351
 30
0.0
 11
-76.77581728478853
 21
-25.84567480961417
 31
0.0
  0
LINE
  5
2C2
  8
LAYER0014
  6
CONTINUOUS
 62
     7
 10
-76.77581728478853
 20
-25.84567480961417
 30
0.0
 11
-77.31171681968614
 21
-23.84567640198351
 31
0.0
  0
LINE
  5
2C3
  8
LAYER0014
  6
CONTINUOUS
 62
     7
 10
-76.77581728478853
 20
-25.84567480961417
 30
0.0
 11
-76.77581728478853
 21
-23.84567640198351
 31
0.0
  0
ENDBLK
  5
120
  8
0
  0
BLOCK
  8
0
  2
DC_GROUP_72
 70
     0
 10
0.0
 20
0.0
 30
0.0
  3
DC_GROUP_72
  1

  0
LINE
  5
2C4
  8
LAYER0014
  6
CONTINUOUS
 62
     7
 10
-86.38804659387056
 20
-40.8456767169628
 30
0.0
 11
-64.48981417199556
 21
-40.8456767169628
 31
0.0
  0
LINE
  5
2C5
  8
LAYER0014
  6
CONTINUOUS
 62
     7
 10
-66.77581347009127
 20
-40.8456767169628
 30
0.0
 11
-66.77581347009127
 21
61.6543232830372
 31
0.0
  0
INSERT
  5
2C6
  8
LAYER0014
  6
CONTINUOUS
  2
DC_GROUP_73
 10
0.0
 20
0.0
 30
0.0
  0
TEXT
  5
2C7
  8
LAYER0014
 62
     7
 10
-67.77581347009127
 20
18.21344044436795
 30
0.0
 40
4.0
  1
PCD135
 50
90.0
 41
0.7999999999999999
  7
FDASTYLE1
 72
     5
 11
-67.77581347009127
 21
37.41344044436795
 31
0.0
  0
ENDBLK
  5
123
  8
0
  0
BLOCK
  8
0
  2
DC_GROUP_73
 70
     0
 10
0.0
 20
0.0
 30
0.0
  3
DC_GROUP_73
  1

  0
LINE
  5
2C8
  8
LAYER0014
  6
CONTINUOUS
 62
     7
 10
-66.23991393519364
 20
-38.84567830933214
 30
0.0
 11
-66.77581347009127
 21
-40.8456767169628
 31
0.0
  0
LINE
  5
2C9
  8
LAYER0014
  6
CONTINUOUS
 62
     7
 10
-66.77581347009127
 20
-40.8456767169628
 30
0.0
 11
-67.31171300498887
 21
-38.84567830933214
 31
0.0
  0
LINE
  5
2CA
  8
LAYER0014
  6
CONTINUOUS
 62
     7
 10
-66.77581347009127
 20
-40.8456767169628
 30
0.0
 11
-66.77581347009127
 21
-38.84567830933214
 31
0.0
  0
ENDBLK
  5
126
  8
0
  0
BLOCK
  8
0
  2
DC_GROUP_74
 70
     0
 10
0.0
 20
0.0
 30
0.0
  3
DC_GROUP_74
  1

  0
LINE
  5
2CB
  8
LAYER0014
  6
CONTINUOUS
 62
     7
 10
-89.29536470910493
 20
-50.3456767169628
 30
0.0
 11
-54.48981417199556
 21
-50.3456767169628
 31
0.0
  0
LINE
  5
2CC
  8
LAYER0014
  6
CONTINUOUS
 62
     7
 10
-56.77581347009127
 20
-50.3456767169628
 30
0.0
 11
-56.77581347009127
 21
61.6543232830372
 31
0.0
  0
INSERT
  5
2CD
  8
LAYER0014
  6
BORDER
  2
DC_GROUP_75
 10
0.0
 20
0.0
 30
0.0
  0
TEXT
  5
2CE
  8
LAYER0014
 62
     7
 10
-57.77581347009127
 20
20.80450408503667
 30
0.0
 40
4.0
  1
φ154
 50
90.0
 41
0.7256235827664398
  7
FDASTYLE1
 72
     5
 11
-57.77581347009127
 21
32.99498027551286
 31
0.0
  0
ENDBLK
  5
129
  8
0
  0
BLOCK
  8
0
  2
DC_GROUP_75
 70
     0
 10
0.0
 20
0.0
 30
0.0
  3
DC_GROUP_75
  1

  0
LINE
  5
2CF
  8
LAYER0014
  6
CONTINUOUS
 62
     7
 10
-56.23991393519366
 20
-48.34567830933214
 30
0.0
 11
-56.77581347009127
 21
-50.3456767169628
 31
0.0
  0
LINE
  5
2D0
  8
LAYER0014
  6
CONTINUOUS
 62
     7
 10
-56.77581347009127
 20
-50.3456767169628
 30
0.0
 11
-57.31171300498888
 21
-48.34567830933214
 31
0.0
  0
LINE
  5
2D1
  8
LAYER0014
  6
CONTINUOUS
 62
     7
 10
-56.77581347009127
 20
-50.3456767169628
 30
0.0
 11
-56.77581347009127
 21
-48.34567830933214
 31
0.0
  0
ENDBLK
  5
12C
  8
0
  0
BLOCK
  8
0
  2
DC_GROUP_76
 70
     0
 10
0.0
 20
0.0
 30
0.0
  3
DC_GROUP_76
  1

  0
LINE
  5
2D2
  8
LAYER0014
  6
CONTINUOUS
 62
     7
 10
-199.3753647091049
 20
176.6543309124317
 30
0.0
 11
-268.0618203975815
 21
176.6543309124317
 31
0.0
  0
LINE
  5
2D3
  8
LAYER0014
  6
CONTINUOUS
 62
     7
 10
-199.3753647091049
 20
-123.3456767169628
 30
0.0
 11
-268.0618203975815
 21
-123.3456767169628
 31
0.0
  0
LINE
  5
2D4
  8
LAYER0014
  6
CONTINUOUS
 62
     7
 10
-265.775809655394
 20
176.6543309124317
 30
0.0
 11
-265.775809655394
 21
-123.3456767169628
 31
0.0
  0
INSERT
  5
2D5
  8
LAYER0014
  6
CONTINUOUS
  2
DC_GROUP_77
 10
0.0
 20
0.0
 30
0.0
  0
INSERT
  5
2D6
  8
LAYER0014
  6
CONTINUOUS
  2
DC_GROUP_78
 10
0.0
 20
0.0
 30
0.0
  0
TEXT
  5
2D7
  8
LAYER0014
 62
     7
 10
-266.7869797569359
 20
20.25433684548946
 30
0.0
 40
4.0
  1
φ300
 50
89.90000000000001
 41
0.7256235827664374
  7
FDASTYLE1
 72
     5
 11
-266.7657033730469
 21
32.4447944688133
 31
0.0
  0
ENDBLK
  5
12F
  8
0
  0
BLOCK
  8
0
  2
DC_GROUP_77
 70
     0
 10
0.0
 20
0.0
 30
0.0
  3
DC_GROUP_77
  1

  0
LINE
  5
2D8
  8
LAYER0014
  6
CONTINUOUS
 62
     7
 10
-266.3117091902916
 20
174.654332504801
 30
0.0
 11
-265.775809655394
 21
176.6543309124317
 31
0.0
  0
LINE
  5
2D9
  8
LAYER0014
  6
CONTINUOUS
 62
     7
 10
-265.775809655394
 20
176.6543309124317
 30
0.0
 11
-265.2399101204964
 21
174.654332504801
 31
0.0
  0
LINE
  5
2DA
  8
LAYER0014
  6
CONTINUOUS
 62
     7
 10
-265.775809655394
 20
176.6543309124317
 30
0.0
 11
-265.775809655394
 21
174.654332504801
 31
0.0
  0
ENDBLK
  5
132
  8
0
  0
BLOCK
  8
0
  2
DC_GROUP_78
 70
     0
 10
0.0
 20
0.0
 30
0.0
  3
DC_GROUP_78
  1

  0
LINE
  5
2DB
  8
LAYER0014
  6
CONTINUOUS
 62
     7
 10
-265.2399101204964
 20
-121.3456783093321
 30
0.0
 11
-265.775809655394
 21
-123.3456767169628
 31
0.0
  0
LINE
  5
2DC
  8
LAYER0014
  6
CONTINUOUS
 62
     7
 10
-265.775809655394
 20
-123.3456767169628
 30
0.0
 11
-266.3117091902916
 21
-121.3456783093321
 31
0.0
  0
LINE
  5
2DD
  8
LAYER0014
  6
CONTINUOUS
 62
     7
 10
-265.775809655394
 20
-123.3456767169628
 30
0.0
 11
-265.775809655394
 21
-121.3456783093321
 31
0.0
  0
ENDBLK
  5
135
  8
0
  0
BLOCK
  8
0
  2
DC_GROUP_79
 70
     0
 10
0.0
 20
0.0
 30
0.0
  3
DC_GROUP_79
  1

  0
LINE
  5
2DE
  8
LAYER0014
  6
CONTINUOUS
 62
     7
 10
-91.83536470910494
 20
179.0697557953487
 30
0.0
 11
-89.83536470910494
 21
179.0697557953487
 31
0.0
  0
LINE
  5
2DF
  8
LAYER0014
  6
CONTINUOUS
 62
     7
 10
-91.83536470910494
 20
175.1837169774259
 30
0.0
 11
-91.83536470910494
 21
180.0697557953487
 31
0.0
  0
LINE
  5
2E0
  8
LAYER0014
  6
CONTINUOUS
 62
     7
 10
-89.83536470910494
 20
179.1943309124317
 30
0.0
 11
-89.83536470910494
 21
178.0697557953487
 31
0.0
  0
LINE
  5
2E1
  8
LAYER0014
  6
CONTINUOUS
 62
     7
 10
-130.1697399341797
 20
179.0697557953487
 30
0.0
 11
-91.83536470910494
 21
179.0697557953487
 31
0.0
  0
LINE
  5
2E2
  8
LAYER0014
  6
CONTINUOUS
 62
     7
 10
-84.83536470910494
 20
179.0697557953487
 30
0.0
 11
-89.83536470910494
 21
179.0697557953487
 31
0.0
  0
INSERT
  5
2E3
  8
LAYER0014
  6
CONTINUOUS
  2
DC_GROUP_80
 10
0.0
 20
0.0
 30
0.0
  0
INSERT
  5
2E4
  8
LAYER0014
  6
CONTINUOUS
  2
DC_GROUP_81
 10
0.0
 20
0.0
 30
0.0
  0
TEXT
  5
2E5
  8
LAYER0014
 62
     7
 10
-129.1696877140615
 20
180.1295956277117
 30
0.0
 40
3.200000047683716
  1
2(ﾁｬｯｸ上面ﾖﾘ)
 50
-0.1000000000000078
 41
0.7399635797025124
  7
FDASTYLE1
 72
     5
 11
-102.1758570382813
 21
180.0824824575716
 31
0.0
  0
ENDBLK
  5
138
  8
0
  0
BLOCK
  8
0
  2
DC_GROUP_80
 70
     0
 10
0.0
 20
0.0
 30
0.0
  3
DC_GROUP_80
  1

  0
LINE
  5
2E6
  8
LAYER0014
  6
CONTINUOUS
 62
     7
 10
-93.83536311673559
 20
179.6056553302463
 30
0.0
 11
-91.83536470910494
 21
179.0697557953487
 31
0.0
  0
LINE
  5
2E7
  8
LAYER0014
  6
CONTINUOUS
 62
     7
 10
-91.83536470910494
 20
179.0697557953487
 30
0.0
 11
-93.83536311673559
 21
178.5338562604511
 31
0.0
  0
LINE
  5
2E8
  8
LAYER0014
  6
CONTINUOUS
 62
     7
 10
-91.83536470910494
 20
179.0697557953487
 30
0.0
 11
-93.83536311673559
 21
179.0697557953487
 31
0.0
  0
ENDBLK
  5
13B
  8
0
  0
BLOCK
  8
0
  2
DC_GROUP_81
 70
     0
 10
0.0
 20
0.0
 30
0.0
  3
DC_GROUP_81
  1

  0
LINE
  5
2E9
  8
LAYER0014
  6
CONTINUOUS
 62
     7
 10
-87.83536630147427
 20
178.5338562604511
 30
0.0
 11
-89.83536470910494
 21
179.0697557953487
 31
0.0
  0
LINE
  5
2EA
  8
LAYER0014
  6
CONTINUOUS
 62
     7
 10
-89.83536470910494
 20
179.0697557953487
 30
0.0
 11
-87.83536630147427
 21
179.6056553302463
 31
0.0
  0
LINE
  5
2EB
  8
LAYER0014
  6
CONTINUOUS
 62
     7
 10
-89.83536470910494
 20
179.0697557953487
 30
0.0
 11
-87.83536630147427
 21
179.0697557953487
 31
0.0
  0
ENDBLK
  5
13E
  8
0
  0
BLOCK
  8
0
  2
DC_GROUP_82
 70
     0
 10
0.0
 20
0.0
 30
0.0
  3
DC_GROUP_82
  1

  0
LINE
  5
2EC
  8
LAYER0014
  6
CONTINUOUS
 62
     7
 10
-89.89975693626478
 20
165.8065363515686
 30
0.0
 11
-78.10623675747479
 21
180.71532599017
 31
0.0
  0
LINE
  5
2ED
  8
LAYER0014
  6
CONTINUOUS
 62
     7
 10
-78.10624507235366
 20
180.7153353616371
 30
0.0
 11
-31.4765739755519
 21
180.7153353616371
 31
0.0
  0
INSERT
  5
2EE
  8
LAYER0014
  6
CONTINUOUS
  2
DC_GROUP_83
 10
0.0
 20
0.0
 30
0.0
  0
TEXT
  5
2EF
  8
LAYER0014
 62
     7
 10
-77.2279339151271
 20
182.3153353616371
 30
0.0
 40
4.0
  1
ｾﾚｰｼｮﾝP1.5山60ﾟ
 41
0.7776234874032931
  7
FDASTYLE1
 72
     5
 11
-33.05891983062005
 21
182.3153353616371
 31
0.0
  0
ENDBLK
  5
141
  8
0
  0
BLOCK
  8
0
  2
DC_GROUP_83
 70
     0
 10
0.0
 20
0.0
 30
0.0
  3
DC_GROUP_83
  1

  0
LINE
  5
2F0
  8
LAYER0014
  6
CONTINUOUS
 62
     7
 10
-88.23865481355522
 20
167.0426276426788
 30
0.0
 11
-89.89975693626478
 21
165.8065363515686
 31
0.0
  0
LINE
  5
2F1
  8
LAYER0014
  6
CONTINUOUS
 62
     7
 10
-89.89975693626478
 20
165.8065363515686
 30
0.0
 11
-89.07924874187286
 21
167.7075750794656
 31
0.0
  0
LINE
  5
2F2
  8
LAYER0014
  6
CONTINUOUS
 62
     7
 10
-89.89975693626478
 20
165.8065363515686
 30
0.0
 11
-88.65895177771402
 21
167.3751013610722
 31
0.0
  0
ENDBLK
  5
144
  8
0
  0
BLOCK
  8
0
  2
DC_GROUP_84
 70
     0
 10
0.0
 20
0.0
 30
0.0
  3
DC_GROUP_84
  1

  0
LINE
  5
2F3
  8
LAYER0014
  6
CONTINUOUS
 62
     7
 10
-43.92769854089205
 20
26.65432519038583
 30
0.0
 11
-54.94746340295259
 21
26.65432519038583
 31
0.0
  0
LINE
  5
2F4
  8
LAYER0014
  6
CONTINUOUS
 62
     7
 10
-87.29536470910493
 20
95.6543232830372
 30
0.0
 11
-44.66146029015962
 21
95.6543232830372
 31
0.0
  0
LINE
  5
2F5
  8
LAYER0014
  6
CONTINUOUS
 62
     7
 10
-46.94746340295259
 20
26.65432519038583
 30
0.0
 11
-46.94746340295259
 21
95.6543232830372
 31
0.0
  0
INSERT
  5
2F6
  8
LAYER0014
  6
BORDER
  2
DC_GROUP_85
 10
0.0
 20
0.0
 30
0.0
  0
INSERT
  5
2F7
  8
LAYER0014
  6
BORDER
  2
DC_GROUP_86
 10
0.0
 20
0.0
 30
0.0
  0
TEXT
  5
2F8
  8
LAYER0014
 62
     7
 10
-47.94746340295259
 20
51.55432423671152
 30
0.0
 40
4.0
  1
MAX 71
 50
90.0
 41
0.7999999999999995
  7
FDASTYLE1
 72
     5
 11
-47.94746340295259
 21
70.75432423671151
 31
0.0
  0
ENDBLK
  5
147
  8
0
  0
BLOCK
  8
0
  2
DC_GROUP_85
 70
     0
 10
0.0
 20
0.0
 30
0.0
  3
DC_GROUP_85
  1

  0
LINE
  5
2F9
  8
LAYER0014
  6
CONTINUOUS
 62
     7
 10
-46.41156386805498
 20
28.65432359801649
 30
0.0
 11
-46.94746340295259
 21
26.65432519038583
 31
0.0
  0
LINE
  5
2FA
  8
LAYER0014
  6
CONTINUOUS
 62
     7
 10
-46.94746340295259
 20
26.65432519038583
 30
0.0
 11
-47.4833629378502
 21
28.65432359801649
 31
0.0
  0
LINE
  5
2FB
  8
LAYER0014
  6
CONTINUOUS
 62
     7
 10
-46.94746340295259
 20
26.65432519038583
 30
0.0
 11
-46.94746340295259
 21
28.65432359801649
 31
0.0
  0
ENDBLK
  5
14A
  8
0
  0
BLOCK
  8
0
  2
DC_GROUP_86
 70
     0
 10
0.0
 20
0.0
 30
0.0
  3
DC_GROUP_86
  1

  0
LINE
  5
2FC
  8
LAYER0014
  6
CONTINUOUS
 62
     7
 10
-47.4833629378502
 20
93.65432487540654
 30
0.0
 11
-46.94746340295259
 21
95.6543232830372
 31
0.0
  0
LINE
  5
2FD
  8
LAYER0014
  6
CONTINUOUS
 62
     7
 10
-46.94746340295259
 20
95.6543232830372
 30
0.0
 11
-46.41156386805498
 21
93.65432487540654
 31
0.0
  0
LINE
  5
2FE
  8
LAYER0014
  6
CONTINUOUS
 62
     7
 10
-46.94746340295259
 20
95.6543232830372
 30
0.0
 11
-46.94746340295259
 21
93.65432487540654
 31
0.0
  0
ENDBLK
  5
14D
  8
0
  0
BLOCK
  8
0
  2
DC_GROUP_87
 70
     0
 10
0.0
 20
0.0
 30
0.0
  3
DC_GROUP_87
  1

  0
LINE
  5
2FF
  8
LAYER0014
  6
CONTINUOUS
 62
     7
 10
-87.29536470910493
 20
95.6543232830372
 30
0.0
 11
-44.66146029015962
 21
95.6543232830372
 31
0.0
  0
LINE
  5
300
  8
LAYER0014
  6
CONTINUOUS
 62
     7
 10
-87.29536470910493
 20
176.6543309124317
 30
0.0
 11
-44.66146029015962
 21
176.6543309124317
 31
0.0
  0
LINE
  5
301
  8
LAYER0014
  6
CONTINUOUS
 62
     7
 10
-46.94746340295259
 20
95.6543232830372
 30
0.0
 11
-46.94746340295259
 21
176.6543309124317
 31
0.0
  0
INSERT
  5
302
  8
LAYER0014
  6
BORDER
  2
DC_GROUP_88
 10
0.0
 20
0.0
 30
0.0
  0
INSERT
  5
303
  8
LAYER0014
  6
BORDER
  2
DC_GROUP_89
 10
0.0
 20
0.0
 30
0.0
  0
TEXT
  5
304
  8
LAYER0014
 62
     7
 10
-47.94746340295259
 20
132.9543270977345
 30
0.0
 40
4.0
  1
81
 50
90.0
 41
0.8000000000000007
  7
FDASTYLE1
 72
     5
 11
-47.94746340295259
 21
139.3543270977345
 31
0.0
  0
ENDBLK
  5
150
  8
0
  0
BLOCK
  8
0
  2
DC_GROUP_88
 70
     0
 10
0.0
 20
0.0
 30
0.0
  3
DC_GROUP_88
  1

  0
LINE
  5
305
  8
LAYER0014
  6
CONTINUOUS
 62
     7
 10
-46.41156386805498
 20
97.65432169066787
 30
0.0
 11
-46.94746340295259
 21
95.6543232830372
 31
0.0
  0
LINE
  5
306
  8
LAYER0014
  6
CONTINUOUS
 62
     7
 10
-46.94746340295259
 20
95.6543232830372
 30
0.0
 11
-47.4833629378502
 21
97.65432169066787
 31
0.0
  0
LINE
  5
307
  8
LAYER0014
  6
CONTINUOUS
 62
     7
 10
-46.94746340295259
 20
95.6543232830372
 30
0.0
 11
-46.94746340295259
 21
97.65432169066787
 31
0.0
  0
ENDBLK
  5
153
  8
0
  0
BLOCK
  8
0
  2
DC_GROUP_89
 70
     0
 10
0.0
 20
0.0
 30
0.0
  3
DC_GROUP_89
  1

  0
LINE
  5
308
  8
LAYER0014
  6
CONTINUOUS
 62
     7
 10
-47.4833629378502
 20
174.654332504801
 30
0.0
 11
-46.94746340295259
 21
176.6543309124317
 31
0.0
  0
LINE
  5
309
  8
LAYER0014
  6
CONTINUOUS
 62
     7
 10
-46.94746340295259
 20
176.6543309124317
 30
0.0
 11
-46.41156386805498
 21
174.654332504801
 31
0.0
  0
LINE
  5
30A
  8
LAYER0014
  6
CONTINUOUS
 62
     7
 10
-46.94746340295259
 20
176.6543309124317
 30
0.0
 11
-46.94746340295259
 21
174.654332504801
 31
0.0
  0
ENDBLK
  5
156
  8
0
  0
BLOCK
  8
0
  2
DC_GROUP_90
 70
     0
 10
0.0
 20
0.0
 30
0.0
  3
DC_GROUP_90
  1

  0
LINE
  5
30B
  8
LAYER0014
  6
CONTINUOUS
 62
     7
 10
-72.82412713597668
 20
147.5121782171586
 30
0.0
 11
-61.9915302421774
 21
165.371341473724
 31
0.0
  0
LINE
  5
30C
  8
LAYER0014
  6
CONTINUOUS
 62
     7
 10
-61.99153460046235
 20
165.3713414104786
 30
0.0
 11
-50.56186617394869
 21
165.3713414104786
 31
0.0
  0
INSERT
  5
30D
  8
LAYER0014
  6
CONTINUOUS
  2
DC_GROUP_91
 10
0.0
 20
0.0
 30
0.0
  0
TEXT
  5
30E
  8
LAYER0014
 62
     7
 10
-61.11321581384127
 20
166.9713414104786
 30
0.0
 40
4.0
  1
M12
 41
0.8000000000000002
  7
FDASTYLE1
 72
     5
 11
-51.51321581384126
 21
166.9713414104786
 31
0.0
  0
ENDBLK
  5
159
  8
0
  0
BLOCK
  8
0
  2
DC_GROUP_91
 70
     0
 10
0.0
 20
0.0
 30
0.0
  3
DC_GROUP_91
  1

  0
LINE
  5
30F
  8
LAYER0014
  6
CONTINUOUS
 62
     7
 10
-71.32870472191574
 20
148.9442723989612
 30
0.0
 11
-72.82412713597668
 21
147.5121782171586
 31
0.0
  0
LINE
  5
310
  8
LAYER0014
  6
CONTINUOUS
 62
     7
 10
-72.82412713597668
 20
147.5121782171586
 30
0.0
 11
-72.24510335135516
 21
149.5001202180407
 31
0.0
  0
LINE
  5
311
  8
LAYER0014
  6
CONTINUOUS
 62
     7
 10
-72.82412713597668
 20
147.5121782171586
 30
0.0
 11
-71.78690403663545
 21
149.222196308501
 31
0.0
  0
ENDBLK
  5
15C
  8
0
  0
BLOCK
  8
0
  2
DC_GROUP_92
 70
     0
 10
0.0
 20
0.0
 30
0.0
  3
DC_GROUP_92
  1

  0
LINE
  5
312
  8
LAYER0014
  6
CONTINUOUS
 62
     7
 10
-33.44237553714294
 20
26.65432519038583
 30
0.0
 11
-33.44237553714294
 21
136.6543309124317
 31
0.0
  0
LINE
  5
313
  8
LAYER0014
  6
CONTINUOUS
 62
     7
 10
57.73376615027006
 20
136.6543309124317
 30
0.0
 11
-34.44237553714294
 21
136.6543309124317
 31
0.0
  0
INSERT
  5
314
  8
LAYER0014
  6
CONTINUOUS
  2
DC_GROUP_93
 10
0.0
 20
0.0
 30
0.0
  0
INSERT
  5
315
  8
LAYER0014
  6
CONTINUOUS
  2
DC_GROUP_94
 10
0.0
 20
0.0
 30
0.0
  0
TEXT
  5
316
  8
LAYER0014
 62
     7
 10
-34.45075311329926
 20
76.854335362225
 30
0.0
 40
4.0
  1
110
 50
89.90000000000001
 41
0.8000000000000002
  7
FDASTYLE1
 72
     5
 11
-34.43399796098663
 21
86.45432074059256
 31
0.0
  0
ENDBLK
  5
15F
  8
0
  0
BLOCK
  8
0
  2
DC_GROUP_93
 70
     0
 10
0.0
 20
0.0
 30
0.0
  3
DC_GROUP_93
  1

  0
LINE
  5
317
  8
LAYER0014
  6
CONTINUOUS
 62
     7
 10
-32.90647600224533
 20
28.65432359801649
 30
0.0
 11
-33.44237553714294
 21
26.65432519038583
 31
0.0
  0
LINE
  5
318
  8
LAYER0014
  6
CONTINUOUS
 62
     7
 10
-33.44237553714294
 20
26.65432519038583
 30
0.0
 11
-33.97827507204054
 21
28.65432359801649
 31
0.0
  0
LINE
  5
319
  8
LAYER0014
  6
CONTINUOUS
 62
     7
 10
-33.44237553714294
 20
26.65432519038583
 30
0.0
 11
-33.44237553714294
 21
28.65432359801649
 31
0.0
  0
ENDBLK
  5
162
  8
0
  0
BLOCK
  8
0
  2
DC_GROUP_94
 70
     0
 10
0.0
 20
0.0
 30
0.0
  3
DC_GROUP_94
  1

  0
LINE
  5
31A
  8
LAYER0014
  6
CONTINUOUS
 62
     7
 10
-33.97827507204055
 20
134.654332504801
 30
0.0
 11
-33.44237553714294
 21
136.6543309124317
 31
0.0
  0
LINE
  5
31B
  8
LAYER0014
  6
CONTINUOUS
 62
     7
 10
-33.44237553714294
 20
136.6543309124317
 30
0.0
 11
-32.90647600224533
 21
134.654332504801
 31
0.0
  0
LINE
  5
31C
  8
LAYER0014
  6
CONTINUOUS
 62
     7
 10
-33.44237553714294
 20
136.6543309124317
 30
0.0
 11
-33.44237553714294
 21
134.654332504801
 31
0.0
  0
ENDBLK
  5
165
  8
0
  0
BLOCK
  8
0
  2
DC_GROUP_95
 70
     0
 10
0.0
 20
0.0
 30
0.0
  3
DC_GROUP_95
  1

  0
LINE
  5
31D
  8
LAYER0014
  6
CONTINUOUS
 62
     7
 10
171.9169926369504
 20
56.47055082152131
 30
0.0
 11
147.8845758154782
 21
42.59544116841877
 31
0.0
  0
ARC
  5
31E
  8
LAYER0014
  6
CONTINUOUS
 62
     7
 10
120.2737814090592
 20
26.65432519038583
 30
0.0
 40
34.168212890625
 50
0.0
 51
30.00001108010981
  0
INSERT
  5
31F
  8
LAYER0014
  6
CONTINUOUS
  2
DC_GROUP_96
 10
0.0
 20
0.0
 30
0.0
  0
INSERT
  5
320
  8
LAYER0014
  6
CONTINUOUS
  2
DC_GROUP_97
 10
0.0
 20
0.0
 30
0.0
  0
TEXT
  5
321
  8
LAYER0014
 62
     7
 10
153.5808833409967
 20
40.54826532514854
 30
0.0
 40
4.0
  1
30ﾟ
 50
-75.00000000000003
 41
0.8000000000000019
  7
FDASTYLE1
 72
     5
 11
156.0655461739809
 21
31.27537739277346
 31
0.0
  0
ENDBLK
  5
168
  8
0
  0
BLOCK
  8
0
  2
DC_GROUP_96
 70
     0
 10
0.0
 20
0.0
 30
0.0
  3
DC_GROUP_96
  1

  0
LINE
  5
322
  8
LAYER0014
  6
CONTINUOUS
 62
     7
 10
154.9191388357334
 20
28.66914901239784
 30
0.0
 11
154.4419942996842
 21
26.65432519038583
 31
0.0
  0
LINE
  5
323
  8
LAYER0014
  6
CONTINUOUS
 62
     7
 10
154.4419942996842
 20
26.65432519038583
 30
0.0
 11
153.8477987603233
 21
28.63778519830943
 31
0.0
  0
LINE
  5
324
  8
LAYER0014
  6
CONTINUOUS
 62
     7
 10
154.4419942996842
 20
26.65432519038583
 30
0.0
 11
154.3834687980283
 21
28.65346710535363
 31
0.0
  0
ENDBLK
  5
16B
  8
0
  0
BLOCK
  8
0
  2
DC_GROUP_97
 70
     0
 10
0.0
 20
0.0
 30
0.0
  3
DC_GROUP_97
  1

  0
LINE
  5
325
  8
LAYER0014
  6
CONTINUOUS
 62
     7
 10
150.3414604321506
 20
41.72361292638584
 30
0.0
 11
149.8643184704551
 21
43.73843735804684
 31
0.0
  0
LINE
  5
326
  8
LAYER0014
  6
CONTINUOUS
 62
     7
 10
149.8643184704551
 20
43.73843735804684
 30
0.0
 11
151.2849499622547
 21
42.23212128678694
 31
0.0
  0
LINE
  5
327
  8
LAYER0014
  6
CONTINUOUS
 62
     7
 10
149.8643184704551
 20
43.73843735804684
 30
0.0
 11
150.8132051972026
 21
41.97786710658639
 31
0.0
  0
ENDBLK
  5
16E
  8
0
  0
BLOCK
  8
0
  2
DC_GROUP_98
 70
     0
 10
0.0
 20
0.0
 30
0.0
  3
DC_GROUP_98
  1

  0
LINE
  5
328
  8
LAYER0014
  6
CONTINUOUS
 62
     7
 10
103.932665616301
 20
-34.33147081812165
 30
0.0
 11
112.0859744417445
 21
-3.902888890289576
 31
0.0
  0
LINE
  5
329
  8
LAYER0014
  6
CONTINUOUS
 62
     7
 10
120.2737724717245
 20
-67.19920755500333
 30
0.0
 11
120.2737871320226
 21
-4.980836201853851
 31
0.0
  0
ARC
  5
32A
  8
LAYER0014
  6
CONTINUOUS
 62
     7
 10
120.2737661502701
 20
26.65434807856943
 30
0.0
 40
33.92118453979492
 50
254.999986832825
 51
270.0000179860894
  0
INSERT
  5
32B
  8
LAYER0014
  6
CONTINUOUS
  2
DC_GROUP_99
 10
0.0
 20
0.0
 30
0.0
  0
INSERT
  5
32C
  8
LAYER0014
  6
CONTINUOUS
  2
DC_GROUP_100
 10
0.0
 20
0.0
 30
0.0
  0
TEXT
  5
32D
  8
LAYER0014
 62
     7
 10
111.2960756773294
 20
-4.763799680585995
 30
0.0
 40
4.0
  1
15ﾟ
 50
-7.500000000000006
 41
0.8000000000000002
  7
FDASTYLE1
 72
     5
 11
120.813946346518
 21
-6.016851125898493
 31
0.0
  0
ENDBLK
  5
171
  8
0
  0
BLOCK
  8
0
  2
DC_GROUP_99
 70
     0
 10
0.0
 20
0.0
 30
0.0
  3
DC_GROUP_99
  1

  0
LINE
  5
32E
  8
LAYER0014
  6
CONTINUOUS
 62
     7
 10
113.3171954087473
 20
-7.092971038862892
 30
0.0
 11
111.4943100291113
 21
-6.11099810912512
 31
0.0
  0
LINE
  5
32F
  8
LAYER0014
  6
CONTINUOUS
 62
     7
 10
111.4943100291113
 20
-6.11099810912512
 30
0.0
 11
113.5639614511505
 21
-6.04996587764337
 31
0.0
  0
LINE
  5
330
  8
LAYER0014
  6
CONTINUOUS
 62
     7
 10
111.4943100291113
 20
-6.11099810912512
 30
0.0
 11
113.4405784299489
 21
-6.571468458253133
 31
0.0
  0
ENDBLK
  5
174
  8
0
  0
BLOCK
  8
0
  2
DC_GROUP_100
 70
     0
 10
0.0
 20
0.0
 30
0.0
  3
DC_GROUP_100
  1

  0
LINE
  5
331
  8
LAYER0014
  6
CONTINUOUS
 62
     7
 10
118.290443292587
 20
-6.672218814662369
 30
0.0
 11
120.2737767986889
 21
-7.266836461223825
 31
0.0
  0
LINE
  5
332
  8
LAYER0014
  6
CONTINUOUS
 62
     7
 10
120.2737767986889
 20
-7.266836461223825
 30
0.0
 11
118.258851476237
 21
-7.743552190952681
 31
0.0
  0
LINE
  5
333
  8
LAYER0014
  6
CONTINUOUS
 62
     7
 10
120.2737767986889
 20
-7.266836461223825
 30
0.0
 11
118.274647384412
 21
-7.207885502807525
 31
0.0
  0
ENDBLK
  5
177
  8
0
  0
BLOCK
  8
0
  2
DC_GROUP_101
 70
     0
 10
0.0
 20
0.0
 30
0.0
  3
DC_GROUP_101
  1

  0
LINE
  5
334
  8
LAYER0014
  6
CONTINUOUS
 62
     7
 10
120.2737724717245
 20
-67.19920755500333
 30
0.0
 11
120.2737871320226
 21
-4.980836201853851
 31
0.0
  0
LINE
  5
335
  8
LAYER0014
  6
CONTINUOUS
 62
     7
 10
136.6297367200924
 20
-34.38705243264089
 30
0.0
 11
128.3650157830837
 21
-3.542628155800488
 31
0.0
  0
ARC
  5
336
  8
LAYER0014
  6
CONTINUOUS
 62
     7
 10
120.2737661502701
 20
26.65433663447763
 30
0.0
 40
33.92117309570313
 50
270.0000179860894
 51
284.9999740072728
  0
INSERT
  5
337
  8
LAYER0014
  6
CONTINUOUS
  2
DC_GROUP_102
 10
0.0
 20
0.0
 30
0.0
  0
INSERT
  5
338
  8
LAYER0014
  6
CONTINUOUS
  2
DC_GROUP_103
 10
0.0
 20
0.0
 30
0.0
  0
TEXT
  5
339
  8
LAYER0014
 62
     7
 10
119.7352686622056
 20
-6.00818123152538
 30
0.0
 40
4.0
  1
15ﾟ
 50
7.400000000000001
 41
0.8000000000000013
  7
FDASTYLE1
 72
     5
 11
129.2553118210832
 21
-4.771743504380776
 31
0.0
  0
ENDBLK
  5
17A
  8
0
  0
BLOCK
  8
0
  2
DC_GROUP_102
 70
     0
 10
0.0
 20
0.0
 30
0.0
  3
DC_GROUP_102
  1

  0
LINE
  5
33A
  8
LAYER0014
  6
CONTINUOUS
 62
     7
 10
122.2887024251759
 20
-7.743550905876035
 30
0.0
 11
120.2737767986853
 21
-7.266836461223825
 31
0.0
  0
LINE
  5
33B
  8
LAYER0014
  6
CONTINUOUS
 62
     7
 10
120.2737767986853
 20
-7.266836461223825
 30
0.0
 11
122.2571099255523
 21
-6.672217549734532
 31
0.0
  0
LINE
  5
33C
  8
LAYER0014
  6
CONTINUOUS
 62
     7
 10
120.2737767986853
 20
-7.266836461223825
 30
0.0
 11
122.2729061753641
 21
-7.207884227805284
 31
0.0
  0
ENDBLK
  5
17D
  8
0
  0
BLOCK
  8
0
  2
DC_GROUP_103
 70
     0
 10
0.0
 20
0.0
 30
0.0
  3
DC_GROUP_103
  1

  0
LINE
  5
33D
  8
LAYER0014
  6
CONTINUOUS
 62
     7
 10
126.9835455356589
 20
-6.049970832943082
 30
0.0
 11
129.053196915377
 21
-6.111004499552195
 31
0.0
  0
LINE
  5
33E
  8
LAYER0014
  6
CONTINUOUS
 62
     7
 10
129.053196915377
 20
-6.111004499552195
 30
0.0
 11
127.2303108548266
 21
-7.09297616527364
 31
0.0
  0
LINE
  5
33F
  8
LAYER0014
  6
CONTINUOUS
 62
     7
 10
129.053196915377
 20
-6.111004499552195
 30
0.0
 11
127.1069281952428
 21
-6.571473499108357
 31
0.0
  0
ENDBLK
  5
180
  8
0
  0
BLOCK
  8
0
  2
DC_GROUP_104
 70
     0
 10
0.0
 20
0.0
 30
0.0
  3
DC_GROUP_104
  1

  0
LINE
  5
340
  8
LAYER0014
  6
CONTINUOUS
 62
     7
 10
75.27376615027006
 20
160.1126541346272
 30
0.0
 11
120.2737661502701
 21
160.1126541346272
 31
0.0
  0
LINE
  5
341
  8
LAYER0014
  6
CONTINUOUS
 62
     7
 10
75.27376615027006
 20
154.1943309124317
 30
0.0
 11
75.27376615027006
 21
161.1126541346272
 31
0.0
  0
INSERT
  5
342
  8
LAYER0014
  6
CONTINUOUS
  2
DC_GROUP_105
 10
0.0
 20
0.0
 30
0.0
  0
INSERT
  5
343
  8
LAYER0014
  6
CONTINUOUS
  2
DC_GROUP_106
 10
0.0
 20
0.0
 30
0.0
  0
TEXT
  5
344
  8
LAYER0014
 62
     7
 10
89.02558735519219
 20
161.1126541346272
 30
0.0
 40
4.0
  1
45
 41
0.8000000000000007
  7
FDASTYLE1
 72
     5
 11
95.42558735519219
 21
161.1126541346272
 31
0.0
  0
ENDBLK
  5
183
  8
0
  0
BLOCK
  8
0
  2
DC_GROUP_105
 70
     0
 10
0.0
 20
0.0
 30
0.0
  3
DC_GROUP_105
  1

  0
LINE
  5
345
  8
LAYER0014
  6
CONTINUOUS
 62
     7
 10
77.27376455790072
 20
159.5767545997296
 30
0.0
 11
75.27376615027006
 21
160.1126541346272
 31
0.0
  0
LINE
  5
346
  8
LAYER0014
  6
CONTINUOUS
 62
     7
 10
75.27376615027006
 20
160.1126541346272
 30
0.0
 11
77.27376455790072
 21
160.6485536695248
 31
0.0
  0
LINE
  5
347
  8
LAYER0014
  6
CONTINUOUS
 62
     7
 10
75.27376615027006
 20
160.1126541346272
 30
0.0
 11
77.27376455790072
 21
160.1126541346272
 31
0.0
  0
ENDBLK
  5
186
  8
0
  0
BLOCK
  8
0
  2
DC_GROUP_106
 70
     0
 10
0.0
 20
0.0
 30
0.0
  3
DC_GROUP_106
  1

  0
LINE
  5
348
  8
LAYER0014
  6
CONTINUOUS
 62
     7
 10
118.2737677426394
 20
160.6485536695248
 30
0.0
 11
120.2737661502701
 21
160.1126541346272
 31
0.0
  0
LINE
  5
349
  8
LAYER0014
  6
CONTINUOUS
 62
     7
 10
120.2737661502701
 20
160.1126541346272
 30
0.0
 11
118.2737677426394
 21
159.5767545997296
 31
0.0
  0
LINE
  5
34A
  8
LAYER0014
  6
CONTINUOUS
 62
     7
 10
120.2737661502701
 20
160.1126541346272
 30
0.0
 11
118.2737677426394
 21
160.1126541346272
 31
0.0
  0
ENDBLK
  5
189
  8
0
  0
BLOCK
  8
0
  2
DC_GROUP_107
 70
     0
 10
0.0
 20
0.0
 30
0.0
  3
DC_GROUP_107
  1

  0
LINE
  5
34B
  8
LAYER0014
  6
CONTINUOUS
 62
     7
 10
248.177538164239
 20
-73.17169022203659
 30
0.0
 11
270.6775368231345
 21
-34.20054506899093
 31
0.0
  0
LINE
  5
34C
  8
LAYER0014
  6
CONTINUOUS
 62
     7
 10
241.1273400667375
 20
-69.10126121121867
 30
0.0
 11
249.0435638211341
 21
-73.67168978363581
 31
0.0
  0
LINE
  5
34D
  8
LAYER0014
  6
CONTINUOUS
 62
     7
 10
263.627326057598
 20
-30.13010908906428
 30
0.0
 11
271.5435624983682
 21
-34.70054459882672
 31
0.0
  0
INSERT
  5
34E
  8
LAYER0014
  6
CONTINUOUS
  2
DC_GROUP_108
 10
0.0
 20
0.0
 30
0.0
  0
INSERT
  5
34F
  8
LAYER0014
  6
CONTINUOUS
  2
DC_GROUP_109
 10
0.0
 20
0.0
 30
0.0
  0
TEXT
  5
350
  8
LAYER0014
 62
     7
 10
256.956677707072
 20
-55.95460223276753
 30
0.0
 40
4.0
  1
45
 50
59.9
 41
0.8000000000000026
  7
FDASTYLE1
 72
     5
 11
260.1663464248925
 21
-50.4176331411214
 31
0.0
  0
ENDBLK
  5
18C
  8
0
  0
BLOCK
  8
0
  2
DC_GROUP_108
 70
     0
 10
0.0
 20
0.0
 30
0.0
  3
DC_GROUP_108
  1

  0
LINE
  5
351
  8
LAYER0014
  6
CONTINUOUS
 62
     7
 10
249.6416399091092
 20
-71.70759049090607
 30
0.0
 11
248.177538164239
 21
-73.17169022203659
 31
0.0
  0
LINE
  5
352
  8
LAYER0014
  6
CONTINUOUS
 62
     7
 10
248.177538164239
 20
-73.17169022203659
 30
0.0
 11
248.7134346612766
 21
-71.17169100041387
 31
0.0
  0
LINE
  5
353
  8
LAYER0014
  6
CONTINUOUS
 62
     7
 10
248.177538164239
 20
-73.17169022203659
 30
0.0
 11
249.1775372851929
 21
-71.43964074565999
 31
0.0
  0
ENDBLK
  5
18F
  8
0
  0
BLOCK
  8
0
  2
DC_GROUP_109
 70
     0
 10
0.0
 20
0.0
 30
0.0
  3
DC_GROUP_109
  1

  0
LINE
  5
354
  8
LAYER0014
  6
CONTINUOUS
 62
     7
 10
269.2134350782642
 20
-35.66464480012144
 30
0.0
 11
270.6775368231345
 21
-34.20054506899093
 31
0.0
  0
LINE
  5
355
  8
LAYER0014
  6
CONTINUOUS
 62
     7
 10
270.6775368231345
 20
-34.20054506899093
 30
0.0
 11
270.1416403260969
 21
-36.20054429061364
 31
0.0
  0
LINE
  5
356
  8
LAYER0014
  6
CONTINUOUS
 62
     7
 10
270.6775368231345
 20
-34.20054506899093
 30
0.0
 11
269.6775377021805
 21
-35.93259454536754
 31
0.0
  0
ENDBLK
  5
192
  8
0
  0
BLOCK
  8
0
  2
DC_GROUP_110
 70
     0
 10
0.0
 20
0.0
 30
0.0
  3
DC_GROUP_110
  1

  0
TEXT
  5
357
  8
LAYER0014
 62
     7
 10
-61.31203401424673
 20
97.75395312689912
 30
0.0
 40
4.0
  1
12
 50
90.0
 41
0.8000000000000007
  7
FDASTYLE1
 72
     5
 11
-61.31203401424673
 21
104.1539531268991
 31
0.0
  0
TEXT
  5
358
  8
LAYER0014
 62
     7
 10
-57.11203384735374
 20
96.55395313285959
 30
0.0
 40
4.0
  1
MIN
 50
90.0
 41
0.7999999999999995
  7
FDASTYLE1
 72
     5
 11
-57.11203384735374
 21
106.1539531328596
 31
0.0
  0
ENDBLK
  5
195
  8
0
  0
BLOCK
  8
0
  2
DC_GROUP_111
 70
     0
 10
0.0
 20
0.0
 30
0.0
  3
DC_GROUP_111
  1

  0
LINE
  5
359
  8
0
  6
CONTINUOUS
 62
     9
 10
-191.1353525020737
 20
-101.8456767169628
 30
0.0
 11
-191.1353525020737
 21
-179.485988911787
 31
0.0
  0
LINE
  5
35A
  8
0
  6
CONTINUOUS
 62
     9
 10
-207.8353647091049
 20
-43.3456767169628
 30
0.0
 11
-207.8353647091049
 21
-179.485988911787
 31
0.0
  0
LINE
  5
35B
  8
0
  6
CONTINUOUS
 62
     9
 10
-207.8353647091049
 20
-178.485988911787
 30
0.0
 11
-191.1353525020737
 21
-178.485988911787
 31
0.0
  0
LINE
  5
35C
  8
0
  6
CONTINUOUS
 62
     9
 10
-234.4663823832652
 20
-178.485988911787
 30
0.0
 11
-207.8353647091049
 21
-178.485988911787
 31
0.0
  0
LINE
  5
35D
  8
0
  6
CONTINUOUS
 62
     9
 10
-186.1353525020737
 20
-178.485988911787
 30
0.0
 11
-191.1353525020737
 21
-178.485988911787
 31
0.0
  0
INSERT
  5
35E
  8
0
  6
CONTINUOUS
  2
DC_GROUP_112
 10
0.0
 20
0.0
 30
0.0
  0
INSERT
  5
35F
  8
0
  6
CONTINUOUS
  2
DC_GROUP_113
 10
0.0
 20
0.0
 30
0.0
  0
TEXT
  5
360
  8
0
 62
     7
 10
-233.4663823832652
 20
-177.485988911787
 30
0.0
 40
4.0
  1
MAX16.7
 41
0.8000000000000002
  7
FDASTYLE1
 72
     5
 11
-211.0663823832652
 21
-177.485988911787
 31
0.0
  0
ENDBLK
  5
198
  8
0
  0
BLOCK
  8
0
  2
DC_GROUP_112
 70
     0
 10
0.0
 20
0.0
 30
0.0
  3
DC_GROUP_112
  1

  0
LINE
  5
361
  8
0
  6
CONTINUOUS
 62
     9
 10
-209.8353631167356
 20
-177.9500893768894
 30
0.0
 11
-207.8353647091049
 21
-178.485988911787
 31
0.0
  0
LINE
  5
362
  8
0
  6
CONTINUOUS
 62
     9
 10
-207.8353647091049
 20
-178.485988911787
 30
0.0
 11
-209.8353631167356
 21
-179.0218884466846
 31
0.0
  0
LINE
  5
363
  8
0
  6
CONTINUOUS
 62
     9
 10
-207.8353647091049
 20
-178.485988911787
 30
0.0
 11
-209.8353631167356
 21
-178.485988911787
 31
0.0
  0
ENDBLK
  5
19B
  8
0
  0
BLOCK
  8
0
  2
DC_GROUP_113
 70
     0
 10
0.0
 20
0.0
 30
0.0
  3
DC_GROUP_113
  1

  0
LINE
  5
364
  8
0
  6
CONTINUOUS
 62
     9
 10
-189.135354094443
 20
-179.0218884466846
 30
0.0
 11
-191.1353525020737
 21
-178.485988911787
 31
0.0
  0
LINE
  5
365
  8
0
  6
CONTINUOUS
 62
     9
 10
-191.1353525020737
 20
-178.485988911787
 30
0.0
 11
-189.135354094443
 21
-177.9500893768894
 31
0.0
  0
LINE
  5
366
  8
0
  6
CONTINUOUS
 62
     9
 10
-191.1353525020737
 20
-178.485988911787
 30
0.0
 11
-189.135354094443
 21
-178.485988911787
 31
0.0
  0
ENDBLK
  5
19E
  8
0
  0
BLOCK
  8
0
  2
DC_GROUP_114
 70
     0
 10
0.0
 20
0.0
 30
0.0
  3
DC_GROUP_114
  1

  0
LINE
  5
367
  8
0
  6
CONTINUOUS
 62
     9
 10
-142.1353525020737
 20
-128.3911359649819
 30
0.0
 11
-142.1353525020737
 21
-139.4667453669821
 31
0.0
  0
LINE
  5
368
  8
0
  6
CONTINUOUS
 62
     9
 10
-191.1353525020737
 20
-101.8456767169628
 30
0.0
 11
-191.1353525020737
 21
-139.4667453669821
 31
0.0
  0
LINE
  5
369
  8
0
  6
CONTINUOUS
 62
     9
 10
-191.1353525020737
 20
-138.4667453669821
 30
0.0
 11
-142.1353525020737
 21
-138.4667453669821
 31
0.0
  0
INSERT
  5
36A
  8
0
  6
CONTINUOUS
  2
DC_GROUP_115
 10
0.0
 20
0.0
 30
0.0
  0
INSERT
  5
36B
  8
0
  6
CONTINUOUS
  2
DC_GROUP_116
 10
0.0
 20
0.0
 30
0.0
  0
TEXT
  5
36C
  8
0
 62
     7
 10
-169.8353525020737
 20
-137.4667453669821
 30
0.0
 40
4.0
  1
49
 41
0.7999999999999972
  7
FDASTYLE1
 72
     5
 11
-163.4353525020738
 21
-137.4667453669821
 31
0.0
  0
ENDBLK
  5
1A1
  8
0
  0
BLOCK
  8
0
  2
DC_GROUP_115
 70
     0
 10
0.0
 20
0.0
 30
0.0
  3
DC_GROUP_115
  1

  0
LINE
  5
36D
  8
0
  6
CONTINUOUS
 62
     9
 10
-189.135354094443
 20
-139.0026449018797
 30
0.0
 11
-191.1353525020737
 21
-138.4667453669821
 31
0.0
  0
LINE
  5
36E
  8
0
  6
CONTINUOUS
 62
     9
 10
-191.1353525020737
 20
-138.4667453669821
 30
0.0
 11
-189.135354094443
 21
-137.9308458320845
 31
0.0
  0
LINE
  5
36F
  8
0
  6
CONTINUOUS
 62
     9
 10
-191.1353525020737
 20
-138.4667453669821
 30
0.0
 11
-189.135354094443
 21
-138.4667453669821
 31
0.0
  0
ENDBLK
  5
1A4
  8
0
  0
BLOCK
  8
0
  2
DC_GROUP_116
 70
     0
 10
0.0
 20
0.0
 30
0.0
  3
DC_GROUP_116
  1

  0
LINE
  5
370
  8
0
  6
CONTINUOUS
 62
     9
 10
-144.1353509097044
 20
-137.9308458320845
 30
0.0
 11
-142.1353525020737
 21
-138.4667453669821
 31
0.0
  0
LINE
  5
371
  8
0
  6
CONTINUOUS
 62
     9
 10
-142.1353525020737
 20
-138.4667453669821
 30
0.0
 11
-144.1353509097044
 21
-139.0026449018797
 31
0.0
  0
LINE
  5
372
  8
0
  6
CONTINUOUS
 62
     9
 10
-142.1353525020737
 20
-138.4667453669821
 30
0.0
 11
-144.1353509097044
 21
-138.4667453669821
 31
0.0
  0
ENDBLK
  5
1A7
  8
0
  0
BLOCK
  8
0
  2
DC_GROUP_117
 70
     0
 10
0.0
 20
0.0
 30
0.0
  3
DC_GROUP_117
  1

  0
LINE
  5
373
  8
0
  6
CONTINUOUS
 62
     7
 10
-142.2231552625644
 20
-123.3456767169628
 30
0.0
 11
-128.5521598059712
 21
-139.5480483310141
 31
0.0
  0
LINE
  5
374
  8
0
  6
CONTINUOUS
 62
     7
 10
-128.5521598059712
 20
-139.5480483310141
 30
0.0
 11
-109.3521598059712
 21
-139.5480483310141
 31
0.0
  0
INSERT
  5
375
  8
0
  6
CONTINUOUS
  2
DC_GROUP_118
 10
0.0
 20
0.0
 30
0.0
  0
TEXT
  5
376
  8
0
 62
     7
 10
-128.5521598059712
 20
-139.5480483310141
 30
0.0
 40
4.0
  1
M12×25
 41
0.7492195629552548
  7
FDASTYLE1
 72
     5
 11
-109.9715146446809
 21
-139.5480483310141
 31
0.0
  0
ENDBLK
  5
1AA
  8
0
  0
BLOCK
  8
0
  2
DC_GROUP_118
 70
     0
 10
0.0
 20
0.0
 30
0.0
  3
DC_GROUP_118
  1

  0
LINE
  5
377
  8
0
  6
CONTINUOUS
 62
     7
 10
-141.3429813473437
 20
-125.2198367477482
 30
0.0
 11
-142.2231552625644
 21
-123.3456767169628
 31
0.0
  0
LINE
  5
378
  8
0
  6
CONTINUOUS
 62
     7
 10
-142.2231552625644
 20
-123.3456767169628
 30
0.0
 11
-140.5238205365682
 21
-124.5286574568956
 31
0.0
  0
LINE
  5
379
  8
0
  6
CONTINUOUS
 62
     7
 10
-142.2231552625644
 20
-123.3456767169628
 30
0.0
 11
-140.9334009419559
 21
-124.8742471023219
 31
0.0
  0
ENDBLK
  5
1AD
  8
0
  0
ENDSEC
  0
SECTION
  2
ENTITIES
  0
LINE
  5
37A
  8
LAYER0002
  6
CONTINUOUS
 62
     3
 10
-278.7466506188179
 20
-190.0
 30
0.0
 11
-278.7466506188179
 21
190.0
 31
0.0
  0
LINE
  5
37B
  8
LAYER0002
  6
CONTINUOUS
 62
     3
 10
275.2533493811822
 20
-190.0
 30
0.0
 11
275.2533493811822
 21
190.0
 31
0.0
  0
LINE
  5
37C
  8
LAYER0002
  6
CONTINUOUS
 62
     3
 10
-278.7466506188179
 20
-190.0
 30
0.0
 11
275.2533493811822
 21
-190.0
 31
0.0
  0
LINE
  5
37D
  8
LAYER0002
  6
CONTINUOUS
 62
     3
 10
-278.7466506188179
 20
189.9999999999999
 30
0.0
 11
275.2533493811822
 21
189.9999999999999
 31
0.0
  0
LINE
  5
37E
  8
LAYER0002
  6
CONTINUOUS
 62
     3
 10
95.25334938118219
 20
-190.0
 30
0.0
 11
95.25334938118219
 21
-130.0
 31
0.0
  0
LINE
  5
37F
  8
LAYER0002
  6
CONTINUOUS
 62
     3
 10
95.25334938118219
 20
-176.0
 30
0.0
 11
275.2533493811822
 21
-176.0
 31
0.0
  0
LINE
  5
380
  8
LAYER0002
  6
CONTINUOUS
 62
     3
 10
144.2533493811822
 20
-162.0
 30
0.0
 11
275.2533493811822
 21
-162.0
 31
0.0
  0
LINE
  5
381
  8
LAYER0002
  6
CONTINUOUS
 62
     3
 10
144.2533493811822
 20
-148.0
 30
0.0
 11
275.2533493811822
 21
-148.0
 31
0.0
  0
LINE
  5
382
  8
LAYER0002
  6
CONTINUOUS
 62
     3
 10
144.2533493811822
 20
-138.0
 30
0.0
 11
275.2533493811822
 21
-138.0
 31
0.0
  0
LINE
  5
383
  8
LAYER0002
  6
CONTINUOUS
 62
     3
 10
144.2533493811822
 20
-176.0
 30
0.0
 11
144.2533493811822
 21
-130.0
 31
0.0
  0
LINE
  5
384
  8
LAYER0002
  6
CONTINUOUS
 62
     3
 10
253.2533493811822
 20
-176.0
 30
0.0
 11
253.2533493811822
 21
-130.0
 31
0.0
  0
LINE
  5
385
  8
LAYER0002
  6
CONTINUOUS
 62
     3
 10
169.2533493811822
 20
-190.0
 30
0.0
 11
169.2533493811822
 21
-176.0
 31
0.0
  0
LINE
  5
386
  8
LAYER0002
  6
CONTINUOUS
 62
     3
 10
260.2533493811822
 20
-188.0
 30
0.0
 11
270.2533493811822
 21
-188.0
 31
0.0
  0
LINE
  5
387
  8
LAYER0002
  6
CONTINUOUS
 62
     3
 10
265.2533493811822
 20
-178.0
 30
0.0
 11
260.2533493811822
 21
-188.0
 31
0.0
  0
LINE
  5
388
  8
LAYER0002
  6
CONTINUOUS
 62
     3
 10
265.2533493811822
 20
-178.0
 30
0.0
 11
270.2533493811822
 21
-188.0
 31
0.0
  0
LINE
  5
389
  8
LAYER0002
  6
CONTINUOUS
 62
     3
 10
95.25334938118219
 20
-130.0
 30
0.0
 11
275.2533493811822
 21
-130.0
 31
0.0
  0
LINE
  5
38A
  8
LAYER0002
  6
CONTINUOUS
 62
     3
 10
224.2533493811822
 20
-176.0
 30
0.0
 11
224.2533493811822
 21
-148.0
 31
0.0
  0
LINE
  5
38B
  8
LAYER0002
  6
CONTINUOUS
 62
     4
 10
103.2533493811822
 20
-172.0
 30
0.0
 11
103.2533493811822
 21
-130.0
 31
0.0
  0
LINE
  5
38C
  8
LAYER0002
  6
CONTINUOUS
 62
     4
 10
107.2533493811822
 20
-172.0
 30
0.0
 11
107.2533493811822
 21
-130.0
 31
0.0
  0
LINE
  5
38D
  8
LAYER0002
  6
CONTINUOUS
 62
     4
 10
119.7533493811822
 20
-176.0
 30
0.0
 11
119.7533493811822
 21
-130.0
 31
0.0
  0
LINE
  5
38E
  8
LAYER0002
  6
CONTINUOUS
 62
     4
 10
95.25334938118219
 20
-137.0
 30
0.0
 11
144.2533493811822
 21
-137.0
 31
0.0
  0
LINE
  5
38F
  8
LAYER0002
  6
CONTINUOUS
 62
     4
 10
95.25334938118219
 20
-144.0
 30
0.0
 11
144.2533493811822
 21
-144.0
 31
0.0
  0
LINE
  5
390
  8
LAYER0002
  6
CONTINUOUS
 62
     4
 10
95.25334938118219
 20
-165.0
 30
0.0
 11
144.2533493811822
 21
-165.0
 31
0.0
  0
LINE
  5
391
  8
LAYER0002
  6
CONTINUOUS
 62
     4
 10
95.25334938118219
 20
-172.0
 30
0.0
 11
144.2533493811822
 21
-172.0
 31
0.0
  0
LINE
  5
392
  8
LAYER0002
  6
CONTINUOUS
 62
     4
 10
253.2533493811822
 20
-166.0
 30
0.0
 11
275.2533493811822
 21
-166.0
 31
0.0
  0
LINE
  5
393
  8
LAYER0002
  6
CONTINUOUS
 62
     4
 10
200.2533493811822
 20
-148.0
 30
0.0
 11
200.2533493811822
 21
-146.5
 31
0.0
  0
LINE
  5
394
  8
LAYER0002
  6
CONTINUOUS
 62
     4
 10
224.2533493811822
 20
-148.0
 30
0.0
 11
224.2533493811822
 21
-146.5
 31
0.0
  0
LINE
  5
395
  8
LAYER0002
  6
CONTINUOUS
 62
     4
 10
241.2533493811822
 20
-148.0
 30
0.0
 11
241.2533493811822
 21
-146.5
 31
0.0
  0
LINE
  5
396
  8
LAYER0002
  6
CONTINUOUS
 62
     4
 10
95.25334938118219
 20
-151.0
 30
0.0
 11
144.2533493811822
 21
-151.0
 31
0.0
  0
LINE
  5
397
  8
LAYER0002
  6
CONTINUOUS
 62
     4
 10
95.25334938118219
 20
-158.0
 30
0.0
 11
144.2533493811822
 21
-158.0
 31
0.0
  0
LINE
  5
398
  8
LAYER0002
  6
CONTINUOUS
 62
     4
 10
99.25334938118218
 20
-130.5
 30
0.0
 11
96.25334938118219
 21
-136.5
 31
0.0
  0
LINE
  5
399
  8
LAYER0002
  6
CONTINUOUS
 62
     4
 10
99.25334938118218
 20
-130.5
 30
0.0
 11
102.2533493811822
 21
-136.5
 31
0.0
  0
LINE
  5
39A
  8
LAYER0002
  6
CONTINUOUS
 62
     4
 10
96.25334938118219
 20
-136.5
 30
0.0
 11
102.2533493811822
 21
-136.5
 31
0.0
  0
LINE
  5
39B
  8
LAYER0002
  6
CONTINUOUS
 62
     4
 10
99.25334938118218
 20
-158.5
 30
0.0
 11
96.25334938118219
 21
-164.5
 31
0.0
  0
LINE
  5
39C
  8
LAYER0002
  6
CONTINUOUS
 62
     4
 10
99.25334938118218
 20
-158.5
 30
0.0
 11
102.2533493811822
 21
-164.5
 31
0.0
  0
LINE
  5
39D
  8
LAYER0002
  6
CONTINUOUS
 62
     4
 10
96.25334938118219
 20
-164.5
 30
0.0
 11
102.2533493811822
 21
-164.5
 31
0.0
  0
LINE
  5
39E
  8
LAYER0002
  6
CONTINUOUS
 62
     4
 10
99.25334938118218
 20
-151.5
 30
0.0
 11
96.25334938118219
 21
-157.5
 31
0.0
  0
LINE
  5
39F
  8
LAYER0002
  6
CONTINUOUS
 62
     4
 10
99.25334938118218
 20
-151.5
 30
0.0
 11
102.2533493811822
 21
-157.5
 31
0.0
  0
LINE
  5
3A0
  8
LAYER0002
  6
CONTINUOUS
 62
     4
 10
96.25334938118219
 20
-157.5
 30
0.0
 11
102.2533493811822
 21
-157.5
 31
0.0
  0
LINE
  5
3A1
  8
LAYER0002
  6
CONTINUOUS
 62
     4
 10
99.25334938118218
 20
-144.5
 30
0.0
 11
96.25334938118219
 21
-150.5
 31
0.0
  0
LINE
  5
3A2
  8
LAYER0002
  6
CONTINUOUS
 62
     4
 10
99.25334938118218
 20
-144.5
 30
0.0
 11
102.2533493811822
 21
-150.5
 31
0.0
  0
LINE
  5
3A3
  8
LAYER0002
  6
CONTINUOUS
 62
     4
 10
96.25334938118219
 20
-150.5
 30
0.0
 11
102.2533493811822
 21
-150.5
 31
0.0
  0
LINE
  5
3A4
  8
LAYER0002
  6
CONTINUOUS
 62
     4
 10
99.25334938118218
 20
-137.5
 30
0.0
 11
96.25334938118219
 21
-143.5
 31
0.0
  0
LINE
  5
3A5
  8
LAYER0002
  6
CONTINUOUS
 62
     4
 10
99.25334938118218
 20
-137.5
 30
0.0
 11
102.2533493811822
 21
-143.5
 31
0.0
  0
LINE
  5
3A6
  8
LAYER0002
  6
CONTINUOUS
 62
     4
 10
96.25334938118219
 20
-143.5
 30
0.0
 11
102.2533493811822
 21
-143.5
 31
0.0
  0
LINE
  5
3A7
  8
LAYER0002
  6
CONTINUOUS
 62
     4
 10
170.9200160478488
 20
-176.0
 30
0.0
 11
170.9200160478488
 21
-162.0
 31
0.0
  0
LINE
  5
3A8
  8
LAYER0002
  6
CONTINUOUS
 62
     4
 10
197.5866827145155
 20
-176.0
 30
0.0
 11
197.5866827145155
 21
-161.9509415757253
 31
0.0
  0
LINE
  5
3A9
  8
LAYER0002
  6
CONTINUOUS
 62
     4
 10
210.9200160478488
 20
-167.5
 30
0.0
 11
210.9200160478488
 21
-161.9509415757253
 31
0.0
  0
LINE
  5
3AA
  8
LAYER0002
  6
CONTINUOUS
 62
     4
 10
224.2533493811822
 20
-155.0
 30
0.0
 11
253.2533493811822
 21
-155.0
 31
0.0
  0
LINE
  5
3AB
  8
LAYER0002
  6
CONTINUOUS
 62
     4
 10
144.2533493811822
 20
-166.0
 30
0.0
 11
224.2533493811822
 21
-166.0
 31
0.0
  0
LINE
  5
3AC
  8
LAYER0002
  6
CONTINUOUS
 62
     4
 10
151.2533493811822
 20
-139.5
 30
0.0
 11
151.2533493811822
 21
-130.0
 31
0.0
  0
LINE
  5
3AD
  8
LAYER0002
  6
CONTINUOUS
 62
     4
 10
200.2533493811822
 20
-139.5
 30
0.0
 11
200.2533493811822
 21
-130.0
 31
0.0
  0
LINE
  5
3AE
  8
LAYER0002
  6
CONTINUOUS
 62
     4
 10
224.2533493811822
 20
-139.5
 30
0.0
 11
224.2533493811822
 21
-130.0
 31
0.0
  0
LINE
  5
3AF
  8
LAYER0002
  6
CONTINUOUS
 62
     4
 10
241.2533493811822
 20
-139.5
 30
0.0
 11
241.2533493811822
 21
-130.0
 31
0.0
  0
TEXT
  5
3B1
  8
LAYER0002
 62
     7
 10
145.2471075286569
 20
-130.821188728956
 30
0.0
 40
2.44248928
  1
符号
 41
0.8
  7
FDASTYLE0
  0
TEXT
  5
3B2
  8
LAYER0002
 62
     7
 10
160.667480503088
 20
-135.8245525019963
 30
0.0
 40
4.0
  1
品       名
 41
0.7333635129017656
  7
FDASTYLE1
 72
     5
 11
188.2419485881944
 21
-135.8245525019963
 31
0.0
  0
TEXT
  5
3B3
  8
LAYER0002
 62
     7
 10
205.4865058224918
 20
-135.8245525019963
 30
0.0
 40
4.0
  1
材  料
 41
0.6611570247933895
  7
FDASTYLE1
 72
     5
 11
217.1228694588554
 21
-135.8245525019963
 31
0.0
  0
TEXT
  5
3B4
  8
LAYER0002
 62
     7
 10
227.7694110660372
 20
-135.8245525019963
 30
0.0
 40
4.0
  1
個 数
 41
0.6228373702422144
  7
FDASTYLE1
 72
     5
 11
236.2399993013313
 21
-135.8245525019963
 31
0.0
  0
TEXT
  5
3B5
  8
LAYER0002
 62
     7
 10
243.9751603340702
 20
-133.5649080050572
 30
0.0
 40
2.5
  1
単重量
 41
0.5555555555555556
  7
FDASTYLE1
 72
     5
 11
248.9751603340702
 21
-133.5649080050572
 31
0.0
  0
TEXT
  5
3B6
  8
LAYER0002
 62
     7
 10
242.9623010048181
 20
-137.3631304897525
 30
0.0
 40
2.5
  1
(kg)
 41
0.8
  7
FDASTYLE1
 72
     5
 11
250.9623010048181
 21
-137.3631304897525
 31
0.0
  0
TEXT
  5
3B7
  8
LAYER0002
 62
     7
 10
257.39554644666
 20
-135.8245525019963
 30
0.0
 40
4.0
  1
記  事
 41
0.6611570247933878
  7
FDASTYLE1
 72
     5
 11
269.0319100830236
 21
-135.8245525019963
 31
0.0
  0
TEXT
  5
3B8
  8
LAYER0002
 62
     7
 10
257.0984288363467
 20
-165.4873041997729
 30
0.0
 40
3.0
  1
コード番号
 41
0.5555555555555556
  7
FDASTYLE1
 72
     5
 11
267.0984288363467
 21
-165.4873041997729
 31
0.0
  0
TEXT
  5
3B9
  8
LAYER0002
 62
     7
 10
100.1653413970139
 20
-175.1879010540338
 30
0.0
 40
2.5
  1
訂 正 来 歴
 41
0.64431295200526
  7
FDASTYLE1
 72
     5
 11
112.7294439611164
 21
-175.1879010540338
 31
0.0
  0
TEXT
  5
3BA
  8
LAYER0002
 62
     7
 10
124.1436842279472
 20
-175.2166697391651
 30
0.0
 40
2.5
  1
工 事 番 号
 41
0.64431295200526
  7
FDASTYLE1
 72
     5
 11
136.7077867920498
 21
-175.2166697391651
 31
0.0
  0
TEXT
  5
3BB
  8
LAYER0002
 62
     7
 10
97.18734972778506
 20
-165.9634530565915
 30
0.0
 40
1.90819475
  1
記号
 41
0.8
  7
FDASTYLE0
  0
TEXT
  5
3BC
  8
LAYER0002
 62
     7
 10
103.126736787944
 20
-165.9634530565915
 30
0.0
 40
1.90819475
  1
理由
 41
0.8
  7
FDASTYLE0
  0
TEXT
  5
3BD
  8
LAYER0002
 62
     7
 10
109.8727161721665
 20
-169.8786046700178
 30
0.0
 40
3.0
  1
日 付
 41
0.6228373702422138
  7
FDASTYLE1
 72
     5
 11
116.2256573486371
 21
-169.8786046700178
 31
0.0
  0
TEXT
  5
3BE
  8
LAYER0002
 62
     7
 10
253.8504492340214
 20
-142.3525309070082
 30
0.0
 40
3.0
  1
標　準
 41
0.4861111111111112
  7
FDASTYLE1
 72
     5
 11
259.1004492340214
 21
-142.3525309070082
 31
0.0
  0
TEXT
  5
3BF
  8
LAYER0002
 62
     7
 10
151.7015183631474
 20
-165.7187911464244
 30
0.0
 40
3.0
  1
承   認
 41
0.6858710562414269
  7
FDASTYLE1
 72
     5
 11
162.8126294742585
 21
-165.7187911464244
 31
0.0
  0
TEXT
  5
3C0
  8
LAYER0002
 62
     7
 10
178.1165774144162
 20
-165.4873041997729
 30
0.0
 40
3.0
  1
検   図
 41
0.6858710562414269
  7
FDASTYLE1
 72
     5
 11
189.2276885255273
 21
-165.4873041997729
 31
0.0
  0
TEXT
  5
3C1
  8
LAYER0002
 62
     7
 10
199.7305414795573
 20
-165.4873041997729
 30
0.0
 40
3.0
  1
担  当
 41
0.6611570247933879
  7
FDASTYLE1
 72
     5
 11
208.45781420683
 21
-165.4873041997729
 31
0.0
  0
TEXT
  5
3C2
  8
LAYER0002
 62
     7
 10
212.9304068652934
 20
-165.4873041997729
 30
0.0
 40
3.0
  1
製  図
 41
0.6611570247933879
  7
FDASTYLE1
 72
     5
 11
221.6576795925661
 21
-165.4873041997729
 31
0.0
  0
TEXT
  5
3C3
  8
LAYER0002
 62
     7
 10
225.1995866116021
 20
-153.2184960272417
 30
0.0
 40
3.0
  1
作図
 41
0.5555555555555556
  7
FDASTYLE1
 72
     5
 11
229.1995866116021
 21
-153.2184960272417
 31
0.0
  0
TEXT
  5
3C4
  8
LAYER0002
 62
     7
 10
226.3570213448598
 20
-160.2371566401815
 30
0.0
 40
4.0
  1
第 三 角 法
 41
0.6443129520052602
  7
FDASTYLE1
 72
     5
 11
246.4595854474239
 21
-160.2371566401815
 31
0.0
  0
TEXT
  5
3C5
  8
LAYER0002
 62
     7
 10
225.6625605049052
 20
-166.413251986379
 30
0.0
 40
3.0
  1
尺度
 41
0.5555555555555556
  7
FDASTYLE1
 72
     5
 11
229.6625605049052
 21
-166.413251986379
 31
0.0
  0
TEXT
  5
3C7
  8
LAYER0002
 62
     3
 10
103.6325037512162
 20
-185.9272077185017
 30
0.0
 40
7.0
  1
株式会社 野村製作所
 41
0.4314821561072638
  7
FDASTYLE2
 72
     5
 11
143.978674240182
 21
-185.9272077185017
 31
0.0
  0
TEXT
  5
3C9
  8
LAYER0002
 62
     3
 10
174.2956130480064
 20
-187.1216685584563
 30
0.0
 40
8.0
  1
２－
 41
0.7311772135933162
  7
FDASTYLE3
 72
     5
 11
187.4860499812298
 21
-187.1216685584563
 31
0.0
  0
TEXT
  5
3CA
  8
LAYER0002
 62
     3
 10
191.2075706724132
 20
-187.1216685584563
 30
0.0
 40
8.0
  1
8712006
 41
0.8000000000000002
  7
FDASTYLE1
 72
     5
 11
236.0075706724132
 21
-187.1216685584563
 31
0.0
  0
TEXT
  5
3CB
  8
LAYER0002
 62
     6
 10
229.6376616551782
 20
-145.1178196492171
 30
0.0
 40
4.0
  1
一式
 41
0.4861111111111102
  7
FDASTYLE1
 72
     5
 11
234.3043283218448
 21
-145.1178196492171
 31
0.0
  0
TEXT
  5
3CC
  8
LAYER0002
 62
     6
 10
161.9770294171055
 20
-145.1021206743685
 30
0.0
 40
5.0
  1
外　形　図
 41
0.4861111111111114
  7
FDASTYLE1
 72
     5
 11
176.5603627504388
 21
-145.1021206743685
 31
0.0
  0
TEXT
  5
3CD
  8
LAYER0002
 62
     4
 10
235.7146459418115
 20
-172.4797619591963
 30
0.0
 40
4.0
  1
1/1
 41
0.7000000000000005
  7
FDASTYLE1
 72
     5
 11
244.1146459418115
 21
-172.4797619591963
 31
0.0
  0
TEXT
  5
3CE
  8
0
 62
     6
 10
152.0050388333282
 20
-154.3880453471329
 30
0.0
 40
5.0
  1
日鋼プレシジォン
 41
0.5555555555555554
  7
FDASTYLE1
 72
     5
 11
178.6717054999948
 21
-154.3880453471329
 31
0.0
  0
TEXT
  5
3CF
  8
0
 62
     6
 10
160.6911084005076
 20
-160.9091595284539
 30
0.0
 40
5.0
  1
HWB3-300型チャック
 41
0.6035714285714285
  7
FDASTYLE1
 72
     5
 11
202.9411084005076
 21
-160.9091595284539
 31
0.0
  0
TEXT
  5
3D0
  8
0
 62
     6
 10
-73.01915409885564
 20
-170.8055878010904
 30
0.0
 40
3.200000047683716
  1
アンバランス量
 41
0.553201637688189
  7
FDASTYLE1
 72
     5
 11
-58.14909385621596
 21
-170.8055878010904
 31
0.0
  0
TEXT
  5
3D1
  8
0
 62
     6
 10
-73.01915409885564
 20
-164.405578645817
 30
0.0
 40
3.200000047683716
  1
質 量
 41
0.6497949343786916
  7
FDASTYLE1
 72
     5
 11
-65.94938510746771
 21
-164.405578645817
 31
0.0
  0
TEXT
  5
3D2
  8
0
 62
     6
 10
-73.01915409885564
 20
-158.0055847493326
 30
0.0
 40
3.200000047683716
  1
慣性ﾓ-ﾒﾝﾄ
 41
0.7194088934277372
  7
FDASTYLE1
 72
     5
 11
-55.98355124863656
 21
-158.0055847493326
 31
0.0
  0
TEXT
  5
3D3
  8
0
 62
     6
 10
-73.01915409885564
 20
-151.6055908528483
 30
0.0
 40
3.200000047683716
  1
最高使用回転速度
 41
0.5541873218421348
  7
FDASTYLE1
 72
     5
 11
-55.99451931817843
 21
-151.6055908528483
 31
0.0
  0
TEXT
  5
3D4
  8
0
 62
     6
 10
-73.01915409885564
 20
-145.2055816975748
 30
0.0
 40
3.200000047683716
  1
静的把握力
 41
0.5500001356005891
  7
FDASTYLE1
 72
     5
 11
-62.45915133796802
 21
-145.2055816975748
 31
0.0
  0
TEXT
  5
3D5
  8
0
 62
     6
 10
-73.01915409885564
 20
-138.8055878010904
 30
0.0
 40
3.200000047683716
  1
許容シリンダー力
 41
0.5541873218421348
  7
FDASTYLE1
 72
     5
 11
-55.99451931817843
 21
-138.8055878010904
 31
0.0
  0
TEXT
  5
3D6
  8
0
 62
     6
 10
-73.01915409885564
 20
-132.5791816591258
 30
0.0
 40
3.200000047683716
  1
ピストンストローク
 41
0.5549491825244866
  7
FDASTYLE1
 72
     5
 11
-53.84011006501936
 21
-132.5791816591258
 31
0.0
  0
TEXT
  5
3D7
  8
0
 62
     6
 10
-73.01915409885564
 20
-126.1791877626415
 30
0.0
 40
3.200000047683716
  1
爪ﾉｽﾄﾛｰｸ
 41
0.7565307131195341
  7
FDASTYLE1
 72
     5
 11
-55.58868620884736
 21
-126.1791877626415
 31
0.0
  0
TEXT
  5
3D8
  8
0
 62
     6
 10
12.78612849391782
 20
-126.3875007509227
 30
0.0
 40
3.200000047683716
  1
(直径ﾆﾃ)  8mm
 41
0.7399635797025127
  7
FDASTYLE1
 72
     5
 11
39.78000028370551
 21
-126.3875007509227
 31
0.0
  0
TEXT
  5
3D9
  8
0
 62
     6
 10
30.40822146265116
 20
-132.9358538078618
 30
0.0
 40
3.200000047683716
  1
26mm
 41
0.7647060989096488
  7
FDASTYLE1
 72
     5
 11
40.19645967455078
 21
-132.9358538078618
 31
0.0
  0
TEXT
  5
3DA
  8
0
 62
     6
 10
-1.804425436659372
 20
-138.8921134721082
 30
0.0
 40
3.200000047683716
  1
           ３5.4kN
 41
0.7688800722846912
  7
FDASTYLE1
 72
     5
 11
40.51473437249464
 21
-138.8921134721082
 31
0.0
  0
TEXT
  5
3DB
  8
0
 62
     6
 10
-4.887755373031773
 20
-145.2210811663844
 30
0.0
 40
3.200000047683716
  1
            １１９．６kN
 41
0.7152300534522916
  7
FDASTYLE1
 72
     5
 11
40.88696873001143
 21
-145.2210811663844
 31
0.0
  0
TEXT
  5
3DC
  8
0
 62
     6
 10
8.964414985412404
 20
-151.4516414691188
 30
0.0
 40
3.200000047683716
  1
      3300min
 41
0.7739132434186489
  7
FDASTYLE1
 72
     5
 11
41.15920639136797
 21
-151.4516414691188
 31
0.0
  0
TEXT
  5
3DD
  8
0
 62
     6
 10
40.70476058419101
 20
-148.9930183394937
 30
0.0
 40
1.600000023841858
  1
-1
 41
0.7500002444722055
  7
FDASTYLE1
 72
     5
 11
43.10476140226487
 21
-148.9930183394937
 31
0.0
  0
TEXT
  5
3DE
  8
0
 62
     6
 10
21.79248737869152
 20
-157.8714294758951
 30
0.0
 40
3.200000047683716
  1
0.55kg・m
 41
0.7591201612466938
  7
FDASTYLE1
 72
     5
 11
41.71180070662565
 21
-157.8714294758951
 31
0.0
  0
TEXT
  5
3DF
  8
0
 62
     6
 10
41.96618879449348
 20
-155.2599319995307
 30
0.0
 40
1.600000023841858
  1
2
 41
0.7142860335963065
  7
FDASTYLE1
 72
     5
 11
43.10904646527748
 21
-155.2599319995307
 31
0.0
  0
TEXT
  5
3E0
  8
0
 62
     6
 10
32.16563278911612
 20
-164.143615755192
 30
0.0
 40
3.200000047683716
  1
42kg
 41
0.7647060989096488
  7
FDASTYLE1
 72
     5
 11
41.95387100101574
 21
-164.143615755192
 31
0.0
  0
TEXT
  5
3E1
  8
0
 62
     6
 10
15.21848862048859
 20
-170.5258026448404
 30
0.0
 40
3.200000047683716
  1
外周ﾆﾃ   8g以内
 41
0.6949828061788612
  7
FDASTYLE1
 72
     5
 11
41.46103977284687
 21
-170.5258026448404
 31
0.0
  0
TEXT
  5
3E2
  8
0
 62
     6
 10
-73.01915409885564
 20
-119.779178607368
 30
0.0
 40
3.200000047683716
  1
仕 様
 41
0.6497949343786916
  7
FDASTYLE1
 72
     5
 11
-65.94938510746771
 21
-119.779178607368
 31
0.0
  0
TEXT
  5
3E3
  8
0
 62
     7
 10
253.8223800005989
 20
-146.9637506240703
 30
0.0
 40
3.0
  1
M112×P1.5
 41
0.765595463137997
  7
FDASTYLE1
 72
     5
 11
274.9528147832076
 21
-146.9637506240703
 31
0.0
  0
TEXT
  5
3E4
  8
0
 62
     7
 10
-245.9112154337855
 20
-163.1305501418517
 30
0.0
 40
4.0
  1
MIN15.7
 41
0.8000000000000002
  7
FDASTYLE1
 72
     5
 11
-223.5112154337855
 21
-163.1305501418517
 31
0.0
  0
TEXT
  5
3E5
  8
0
 62
     7
 10
-42.48227606543063
 20
51.58454080106264
 30
0.0
 40
4.0
  1
MIN 67
 50
90.0
 41
0.7999999999999998
  7
FDASTYLE1
 72
     5
 11
-42.48227606543063
 21
70.78454080106263
 31
0.0
  0
LINE
  5
3E6
  8
0
  6
CONTINUOUS
 62
     3
 10
-91.83536470910494
 20
93.58148545344736
 30
0.0
 11
-91.83536470910494
 21
-120.3456767169628
 31
0.0
  0
LINE
  5
3E7
  8
0
  6
CONTINUOUS
 62
     3
 10
-196.8353647091049
 20
176.6543309124317
 30
0.0
 11
-196.8353647091049
 21
86.84409684260751
 31
0.0
  0
LINE
  5
3E8
  8
0
  6
CONTINUOUS
 62
     3
 10
-196.8353647091049
 20
-123.3456767169628
 30
0.0
 11
-94.83536470910494
 21
-123.3456767169628
 31
0.0
  0
LINE
  5
3E9
  8
0
  6
CONTINUOUS
 62
     3
 10
-196.8353647091049
 20
176.6543309124317
 30
0.0
 11
-161.8353647091049
 21
176.6543309124317
 31
0.0
  0
LINE
  5
3EA
  8
0
  6
CONTINUOUS
 62
     3
 10
-196.8353647091049
 20
154.1543309124317
 30
0.0
 11
-191.1353525020737
 21
154.1543309124317
 31
0.0
  0
LINE
  5
3EB
  8
0
  6
CONTINUOUS
 62
     3
 10
-196.8353647091049
 20
-100.8456767169628
 30
0.0
 11
-191.1353525020737
 21
-100.8456767169628
 31
0.0
  0
LINE
  5
3EC
  8
0
  6
CONTINUOUS
 62
     3
 10
-191.1353525020737
 20
154.1543309124317
 30
0.0
 11
-191.1353525020737
 21
98.3817402752247
 31
0.0
  0
LINE
  5
3ED
  8
0
  6
CONTINUOUS
 62
     3
 10
-161.8353647091049
 20
176.6543309124317
 30
0.0
 11
-161.8353647091049
 21
157.1543309124317
 31
0.0
  0
LINE
  5
3EE
  8
0
  6
CONTINUOUS
 62
     3
 10
-193.8353647091049
 20
-43.3456767169628
 30
0.0
 11
-137.8354701973913
 21
-43.3456767169628
 31
0.0
  0
LINE
  5
3EF
  8
0
  6
CONTINUOUS
 62
     3
 10
-193.835395226683
 20
96.6543232830372
 30
0.0
 11
-137.835336207383
 21
96.6543232830372
 31
0.0
  0
LINE
  5
3F0
  8
0
  6
CONTINUOUS
 62
     3
 10
-105.8353647091049
 20
95.6543232830372
 30
0.0
 11
-105.8353647091049
 21
85.1543232830372
 31
0.0
  0
LINE
  5
3F1
  8
0
  6
CONTINUOUS
 62
     3
 10
-105.8353647091049
 20
-50.3456767169628
 30
0.0
 11
-91.83536470910494
 21
-50.3456767169628
 31
0.0
  0
LINE
  5
3F2
  8
0
  6
CONTINUOUS
 62
     3
 10
-91.83536523920563
 20
-120.3456726629048
 30
0.0
 11
-94.83536842397413
 21
-123.3456758476733
 31
0.0
  0
LINE
  5
3F3
  8
0
  6
CONTINUOUS
 62
     3
 10
-105.8353647091049
 20
95.6543232830372
 30
0.0
 11
-89.83536470910494
 21
95.6543232830372
 31
0.0
  0
LINE
  5
3F4
  8
0
  6
CONTINUOUS
 62
     3
 10
-120.8353647091049
 20
85.1543232830372
 30
0.0
 11
-120.8353647091049
 21
82.1543232830372
 31
0.0
  0
LINE
  5
3F5
  8
0
  6
CONTINUOUS
 62
     3
 10
-134.8353647091049
 20
82.1543232830372
 30
0.0
 11
-91.83536470910494
 21
82.1543232830372
 31
0.0
  0
LINE
  5
3F6
  8
0
  6
CONTINUOUS
 62
     3
 10
-134.8353647091049
 20
-28.84567480961417
 30
0.0
 11
-91.83536470910494
 21
-28.84567480961417
 31
0.0
  0
LINE
  5
3F7
  8
0
  6
CONTINUOUS
 62
     3
 10
-121.8353647091049
 20
-31.8456767169628
 30
0.0
 11
-105.8353647091049
 21
-31.8456767169628
 31
0.0
  0
LINE
  5
3F8
  8
0
  6
CONTINUOUS
 62
     3
 10
-120.8353647091049
 20
85.1543232830372
 30
0.0
 11
-105.8353647091049
 21
85.1543232830372
 31
0.0
  0
LINE
  5
3F9
  8
0
  6
CONTINUOUS
 62
     3
 10
-120.8353647091049
 20
-28.84567480961417
 30
0.0
 11
-120.8353647091049
 21
-31.8456767169628
 31
0.0
  0
LINE
  5
3FA
  8
0
  6
CONTINUOUS
 62
     3
 10
-105.8353647091049
 20
-31.8456767169628
 30
0.0
 11
-105.8353647091049
 21
-50.3456767169628
 31
0.0
  0
LINE
  5
3FB
  8
0
  6
CONTINUOUS
 62
     3
 10
-105.8353647091049
 20
92.1543232830372
 30
0.0
 11
-104.3353647091049
 21
92.1543232830372
 31
0.0
  0
LINE
  5
3FC
  8
0
  6
CONTINUOUS
 62
     3
 10
-104.3353691285281
 20
92.15433458628374
 30
0.0
 11
-91.83536427766902
 21
84.93745421810351
 31
0.0
  0
LINE
  5
3FD
  8
0
  6
CONTINUOUS
 62
     3
 10
-194.8353647091049
 20
95.6543232830372
 30
0.0
 11
-194.8353647091049
 21
85.6543232830372
 31
0.0
  0
LINE
  5
3FE
  8
0
  6
CONTINUOUS
 62
     3
 10
-105.3353647091049
 20
82.1543232830372
 30
0.0
 11
-105.3353647091049
 21
-28.84567480961417
 31
0.0
  0
LINE
  5
3FF
  8
0
  6
CONTINUOUS
 62
     3
 10
-134.8353647091049
 20
93.65433091243173
 30
0.0
 11
-134.8353647091049
 21
82.1543232830372
 31
0.0
  0
LINE
  5
400
  8
0
  6
CONTINUOUS
 62
     3
 10
-191.1353525020737
 20
-44.95731383244132
 30
0.0
 11
-191.1353525020737
 21
-51.04567366520499
 31
0.0
  0
LINE
  5
401
  8
0
  6
CONTINUOUS
 62
     3
 10
-134.8353647091049
 20
-28.84567480961417
 30
0.0
 11
-134.8353647091049
 21
-40.3456767169628
 31
0.0
  0
LINE
  5
402
  8
0
  6
CONTINUOUS
 62
     3
 10
-194.8353647091049
 20
-32.3456767169628
 30
0.0
 11
-194.8353647091049
 21
-42.3456767169628
 31
0.0
  0
LINE
  5
403
  8
0
  6
CONTINUOUS
 62
     3
 10
-173.8353647091049
 20
92.9043232830372
 30
0.0
 11
-173.8353647091049
 21
89.6543232830372
 31
0.0
  0
LINE
  5
404
  8
0
  6
CONTINUOUS
 62
     3
 10
-176.8353647091049
 20
92.9043232830372
 30
0.0
 11
-176.8353647091049
 21
91.85432023127939
 31
0.0
  0
LINE
  5
405
  8
0
  6
CONTINUOUS
 62
     3
 10
-166.8353647091049
 20
89.6543232830372
 30
0.0
 11
-166.8353647091049
 21
79.1543232830372
 31
0.0
  0
LINE
  5
406
  8
0
  6
CONTINUOUS
 62
     3
 10
-175.8353647091049
 20
89.6543232830372
 30
0.0
 11
-166.8353647091049
 21
89.6543232830372
 31
0.0
  0
LINE
  5
407
  8
0
  6
CONTINUOUS
 62
     3
 10
-175.8353647091049
 20
-36.3456767169628
 30
0.0
 11
-166.8353647091049
 21
-36.3456767169628
 31
0.0
  0
LINE
  5
408
  8
0
  6
CONTINUOUS
 62
     3
 10
-194.8353647091049
 20
-39.3456767169628
 30
0.0
 11
-186.8353647091049
 21
-39.3456767169628
 31
0.0
  0
LINE
  5
409
  8
0
  6
CONTINUOUS
 62
     3
 10
-194.8353647091049
 20
92.6543232830372
 30
0.0
 11
-175.8353647091049
 21
92.6543232830372
 31
0.0
  0
LINE
  5
40A
  8
0
  6
CONTINUOUS
 62
     3
 10
-176.8353647091049
 20
92.9043232830372
 30
0.0
 11
-173.8353647091049
 21
92.9043232830372
 31
0.0
  0
LINE
  5
40B
  8
0
  6
CONTINUOUS
 62
     3
 10
-176.8353647091049
 20
-39.5956767169628
 30
0.0
 11
-173.8353647091049
 21
-39.5956767169628
 31
0.0
  0
LINE
  5
40C
  8
0
  6
CONTINUOUS
 62
     3
 10
-137.835336207383
 20
96.6543232830372
 30
0.0
 11
-134.8353352058098
 21
93.6543298678898
 31
0.0
  0
LINE
  5
40D
  8
0
  6
CONTINUOUS
 62
     3
 10
-134.8354230258463
 20
-40.34562954541778
 30
0.0
 11
-137.8354701973913
 21
-43.3456767169628
 31
0.0
  0
LINE
  5
40E
  8
0
  6
CONTINUOUS
 62
     3
 10
-194.835305995533
 20
95.65425857791976
 30
0.0
 11
-193.8353049339435
 21
96.65425963950926
 31
0.0
  0
LINE
  5
40F
  8
0
  6
CONTINUOUS
 62
     3
 10
-194.8353167851261
 20
-42.34561818160549
 30
0.0
 11
-193.8353157235366
 21
-43.34561924319499
 31
0.0
  0
LINE
  5
410
  8
0
  6
CONTINUOUS
 62
     3
 10
-194.835305995533
 20
95.65425857791976
 30
0.0
 11
-193.8353049339435
 21
96.65425963950926
 31
0.0
  0
LINE
  5
411
  8
0
  6
CONTINUOUS
 62
     3
 10
-121.8353647091049
 20
-30.1194804279003
 30
0.0
 11
-121.8353647091049
 21
-43.3456767169628
 31
0.0
  0
LINE
  5
412
  8
0
  6
CONTINUOUS
 62
     3
 10
-176.8353647091049
 20
-38.54567366520499
 30
0.0
 11
-176.8353647091049
 21
-39.5956767169628
 31
0.0
  0
LINE
  5
413
  8
0
  6
CONTINUOUS
 62
     3
 10
-173.8353647091049
 20
-36.3456767169628
 30
0.0
 11
-173.8353647091049
 21
-39.5956767169628
 31
0.0
  0
LINE
  5
414
  8
0
  6
CONTINUOUS
 62
     3
 10
-182.8353647091049
 20
-32.3456767169628
 30
0.0
 11
-182.8353647091049
 21
-43.3456767169628
 31
0.0
  0
LINE
  5
415
  8
0
  6
CONTINUOUS
 62
     3
 10
-186.8353647091049
 20
-32.3456767169628
 30
0.0
 11
-186.8353647091049
 21
-43.3456767169628
 31
0.0
  0
LINE
  5
416
  8
0
  6
CONTINUOUS
 62
     3
 10
-175.8353647091049
 20
92.6543232830372
 30
0.0
 11
-175.8353647091049
 21
85.6543232830372
 31
0.0
  0
LINE
  5
417
  8
0
  6
CONTINUOUS
 62
     3
 10
-175.8353647091049
 20
-32.3456767169628
 30
0.0
 11
-175.8353647091049
 21
-39.3456767169628
 31
0.0
  0
LINE
  5
418
  8
0
  6
CONTINUOUS
 62
     3
 10
-218.8353647091049
 20
85.6543232830372
 30
0.0
 11
-175.8353647091049
 21
85.6543232830372
 31
0.0
  0
LINE
  5
419
  8
0
  6
CONTINUOUS
 62
     3
 10
-218.8353647091049
 20
-32.3456767169628
 30
0.0
 11
-175.8353647091049
 21
-32.3456767169628
 31
0.0
  0
LINE
  5
41A
  8
0
  6
CONTINUOUS
 62
     3
 10
-182.8353647091049
 20
-39.3456767169628
 30
0.0
 11
-175.8353647091049
 21
-39.3456767169628
 31
0.0
  0
LINE
  5
41B
  8
0
  6
CONTINUOUS
 62
     3
 10
-186.8353647091049
 20
-35.3456767169628
 30
0.0
 11
-182.8353647091049
 21
-35.3456767169628
 31
0.0
  0
LINE
  5
41C
  8
0
  6
CONTINUOUS
 62
     3
 10
-175.8353505628907
 20
-35.34566469844415
 30
0.0
 11
-174.8353495013012
 21
-36.34566576003365
 31
0.0
  0
LINE
  5
41D
  8
0
  6
CONTINUOUS
 62
     3
 10
-166.8353464033817
 20
-35.34570246201977
 30
0.0
 11
-167.8353474649712
 21
-36.34570352360927
 31
0.0
  0
LINE
  5
41E
  8
0
  6
CONTINUOUS
 62
     3
 10
-175.8353586550855
 20
88.65432937134275
 30
0.0
 11
-174.835357593496
 21
89.65433043293226
 31
0.0
  0
LINE
  5
41F
  8
0
  6
CONTINUOUS
 62
     3
 10
-167.8353636493608
 20
89.65433852512703
 30
0.0
 11
-166.8353625877713
 21
88.65433746353753
 31
0.0
  0
LINE
  5
420
  8
0
  6
CONTINUOUS
 62
     3
 10
-191.1353525020737
 20
-68.04567366520499
 30
0.0
 11
-109.8353647091049
 21
-68.04567366520499
 31
0.0
  0
LINE
  5
421
  8
0
  6
CONTINUOUS
 62
     3
 10
-191.1353525020737
 20
-50.04567366520499
 30
0.0
 11
-117.2786554195541
 21
-50.04567366520499
 31
0.0
  0
LINE
  5
422
  8
0
  6
CONTINUOUS
 62
     3
 10
-109.8353647091049
 20
-72.04567366520499
 30
0.0
 11
-91.83536470910494
 21
-72.04567366520499
 31
0.0
  0
LINE
  5
423
  8
0
  6
CONTINUOUS
 62
     3
 10
-109.8353647091049
 20
-54.77059584538077
 30
0.0
 11
-109.8353647091049
 21
-72.04567366520499
 31
0.0
  0
LINE
  5
424
  8
0
  6
CONTINUOUS
 62
     3
 10
-191.1353525020737
 20
-67.04567366520499
 30
0.0
 11
-191.1353525020737
 21
-100.8456767169628
 31
0.0
  0
LINE
  5
425
  8
0
  6
CONTINUOUS
 62
     3
 10
-214.8353647091049
 20
-52.04567366520499
 30
0.0
 11
-214.8353647091049
 21
-66.04567366520499
 31
0.0
  0
LINE
  5
426
  8
0
  6
CONTINUOUS
 62
     3
 10
-170.8353647091049
 20
-51.04567366520499
 30
0.0
 11
-170.8353647091049
 21
-67.04567366520499
 31
0.0
  0
LINE
  5
427
  8
0
  6
CONTINUOUS
 62
     3
 10
-213.8353647091049
 20
-51.04567366520499
 30
0.0
 11
-213.8353647091049
 21
-67.04567366520499
 31
0.0
  0
LINE
  5
428
  8
0
  6
CONTINUOUS
 62
     3
 10
-214.8353542013056
 20
-52.04568350594812
 30
0.0
 11
-213.8353531397161
 21
-51.04568244435862
 31
0.0
  0
LINE
  5
429
  8
0
  6
CONTINUOUS
 62
     3
 10
-214.8353380169161
 20
-66.04564981503248
 30
0.0
 11
-213.8353369553266
 21
-67.04565087662198
 31
0.0
  0
LINE
  5
42A
  8
0
  6
CONTINUOUS
 62
     3
 10
-109.8353647091049
 20
-71.04567366520499
 30
0.0
 11
-93.83536470910494
 21
-71.04567366520499
 31
0.0
  0
LINE
  5
42B
  8
0
  6
CONTINUOUS
 62
     3
 10
-93.83536470910494
 20
-57.61605864445303
 30
0.0
 11
-93.83536470910494
 21
-71.04567366520499
 31
0.0
  0
LINE
  5
42C
  8
0
  6
CONTINUOUS
 62
     3
 10
-120.8353647091049
 20
88.6543232830372
 30
0.0
 11
-105.8353647091049
 21
88.6543232830372
 31
0.0
  0
LINE
  5
42D
  8
0
  6
CONTINUOUS
 62
     3
 10
-120.8353647091049
 20
98.66126603206064
 30
0.0
 11
-120.8353647091049
 21
88.6543232830372
 31
0.0
  0
LINE
  5
42E
  8
0
  6
CONTINUOUS
 62
     3
 10
-109.8353647091049
 20
90.1543232830372
 30
0.0
 11
-105.8353647091049
 21
90.1543232830372
 31
0.0
  0
LINE
  5
42F
  8
0
  6
CONTINUOUS
 62
     3
 10
-109.8353647091049
 20
176.6543309124317
 30
0.0
 11
-109.8353647091049
 21
90.1543232830372
 31
0.0
  0
LINE
  5
430
  8
0
  6
CONTINUOUS
 62
     3
 10
-100.8353647091049
 20
176.6543309124317
 30
0.0
 11
-100.8353647091049
 21
153.6543309124317
 31
0.0
  0
LINE
  5
431
  8
0
  6
CONTINUOUS
 62
     3
 10
-100.8353647091049
 20
96.6543232830372
 30
0.0
 11
-100.8353647091049
 21
95.6543232830372
 31
0.0
  0
LINE
  5
432
  8
0
  6
CONTINUOUS
 62
     3
 10
-108.8353647091049
 20
153.6543309124317
 30
0.0
 11
-108.8353647091049
 21
96.6543232830372
 31
0.0
  0
LINE
  5
433
  8
0
  6
CONTINUOUS
 62
     3
 10
-213.8353647091049
 20
-51.04567366520499
 30
0.0
 11
-115.8716272213119
 21
-51.04567366520499
 31
0.0
  0
LINE
  5
434
  8
0
  6
CONTINUOUS
 62
     3
 10
-213.8353647091049
 20
-67.04567366520499
 30
0.0
 11
-109.8353647091049
 21
-67.04567366520499
 31
0.0
  0
LINE
  5
435
  8
0
  6
CONTINUOUS
 62
     3
 10
-196.8353647091049
 20
-68.04567366520499
 30
0.0
 11
-196.8353647091049
 21
-123.3456767169628
 31
0.0
  0
LINE
  5
436
  8
0
  6
CONTINUOUS
 62
     3
 10
-196.8353647091049
 20
-33.76061659733389
 30
0.0
 11
-196.8353647091049
 21
-50.04567366520499
 31
0.0
  0
LINE
  5
437
  8
0
  6
CONTINUOUS
 62
     3
 10
-219.8353647091049
 20
84.6543232830372
 30
0.0
 11
-219.8353647091049
 21
-31.34568434635733
 31
0.0
  0
LINE
  5
438
  8
0
  6
CONTINUOUS
 62
     3
 10
-201.8353647091049
 20
81.9043232830372
 30
0.0
 11
-201.8353647091049
 21
-28.59567480961417
 31
0.0
  0
LINE
  5
439
  8
0
  6
CONTINUOUS
 62
     3
 10
-197.8353647091049
 20
81.9043232830372
 30
0.0
 11
-197.8353647091049
 21
-28.59567480961417
 31
0.0
  0
LINE
  5
43A
  8
0
  6
CONTINUOUS
 62
     3
 10
-102.8353647091049
 20
148.6543309124317
 30
0.0
 11
-102.8353647091049
 21
136.6543309124317
 31
0.0
  0
LINE
  5
43B
  8
0
  6
CONTINUOUS
 62
     3
 10
-102.8353647091049
 20
113.6543232830372
 30
0.0
 11
-102.8353647091049
 21
101.6543232830372
 31
0.0
  0
LINE
  5
43C
  8
0
  6
CONTINUOUS
 62
     3
 10
-200.8353647091049
 20
82.9043232830372
 30
0.0
 11
-198.8353647091049
 21
82.9043232830372
 31
0.0
  0
LINE
  5
43D
  8
0
  6
CONTINUOUS
 62
     3
 10
-200.8353647091049
 20
-29.5956767169628
 30
0.0
 11
-198.8353647091049
 21
-29.5956767169628
 31
0.0
  0
LINE
  5
43E
  8
0
  6
CONTINUOUS
 62
     3
 10
-218.8353372500993
 20
-32.34566279902359
 30
0.0
 11
-219.8353313152753
 21
-31.34567632020665
 31
0.0
  0
LINE
  5
43F
  8
0
  6
CONTINUOUS
 62
     3
 10
-219.8353595092531
 20
84.65432782238301
 30
0.0
 11
-218.8353584476636
 21
85.65432888397251
 31
0.0
  0
LINE
  5
440
  8
0
  6
CONTINUOUS
 62
     3
 10
-218.8353550360567
 20
81.85433003991599
 30
0.0
 11
-219.8353598908667
 21
82.85432730828504
 31
0.0
  0
LINE
  5
441
  8
0
  6
CONTINUOUS
 62
     3
 10
-218.835345628821
 20
-28.54568978593855
 30
0.0
 11
-219.8353447516534
 21
-29.54569278628517
 31
0.0
  0
LINE
  5
442
  8
0
  6
CONTINUOUS
 62
     3
 10
-218.8353647091049
 20
81.85432023127939
 30
0.0
 11
-218.8353647091049
 21
67.28657120784189
 31
0.0
  0
LINE
  5
443
  8
0
  6
CONTINUOUS
 62
     3
 10
-218.8353647091049
 20
-13.20014410893058
 30
0.0
 11
-218.8353647091049
 21
-28.54567557255362
 31
0.0
  0
LINE
  5
444
  8
0
  6
CONTINUOUS
 62
     3
 10
-166.8353647091049
 20
79.1543232830372
 30
0.0
 11
-105.3353647091049
 21
79.1543232830372
 31
0.0
  0
LINE
  5
445
  8
0
  6
CONTINUOUS
 62
     3
 10
-166.8353647091049
 20
-25.84567480961417
 30
0.0
 11
-105.3353647091049
 21
-25.84567480961417
 31
0.0
  0
LINE
  5
446
  8
0
  6
CONTINUOUS
 62
     3
 10
-161.8353647091049
 20
176.6543309124317
 30
0.0
 11
-89.83536470910494
 21
176.6543309124317
 31
0.0
  0
LINE
  5
447
  8
0
  6
CONTINUOUS
 62
     3
 10
-131.6179498531479
 20
92.02059525569345
 30
0.0
 11
-120.8353647091049
 21
92.02059525569345
 31
0.0
  0
LINE
  5
448
  8
0
  6
CONTINUOUS
 62
     3
 10
-132.1710699074361
 20
98.66126603206064
 30
0.0
 11
-120.8353647091049
 21
98.66126603206064
 31
0.0
  0
LINE
  5
449
  8
0
  6
CONTINUOUS
 62
     3
 10
-197.8353647091049
 20
76.6543232830372
 30
0.0
 11
-159.8353647091049
 21
76.6543232830372
 31
0.0
  0
LINE
  5
44A
  8
0
  6
CONTINUOUS
 62
     3
 10
-197.8353647091049
 20
-23.34567480961417
 30
0.0
 11
-159.8353647091049
 21
-23.34567480961417
 31
0.0
  0
LINE
  5
44B
  8
0
  6
CONTINUOUS
 62
     3
 10
-165.8353647091049
 20
21.15432519038583
 30
0.0
 11
-159.8353647091049
 21
21.15432519038583
 31
0.0
  0
LINE
  5
44C
  8
0
  6
CONTINUOUS
 62
     3
 10
-165.8353647091049
 20
32.15432519038583
 30
0.0
 11
-159.8353647091049
 21
32.15432519038583
 31
0.0
  0
LINE
  5
44D
  8
0
  6
CONTINUOUS
 62
     3
 10
-159.8353647091049
 20
79.1543232830372
 30
0.0
 11
-159.8353647091049
 21
32.15432519038583
 31
0.0
  0
LINE
  5
44E
  8
0
  6
CONTINUOUS
 62
     3
 10
-165.8353647091049
 20
32.15432519038583
 30
0.0
 11
-165.8353647091049
 21
21.15432519038583
 31
0.0
  0
LINE
  5
44F
  8
0
  6
CONTINUOUS
 62
     3
 10
-166.8353647091049
 20
-25.84567480961417
 30
0.0
 11
-166.8353647091049
 21
-36.3456767169628
 31
0.0
  0
LINE
  5
450
  8
0
  6
CONTINUOUS
 62
     3
 10
-159.8353647091049
 20
21.15432519038583
 30
0.0
 11
-159.8353647091049
 21
-25.84567480961417
 31
0.0
  0
LINE
  5
451
  8
0
  6
CONTINUOUS
 62
     3
 10
-105.8353647091049
 20
-43.3456767169628
 30
0.0
 11
-91.83536470910494
 21
-43.3456767169628
 31
0.0
  0
LINE
  5
452
  8
0
  6
CONTINUOUS
 62
     3
 10
-105.8353647091049
 20
-38.3456767169628
 30
0.0
 11
-91.83536470910494
 21
-38.3456767169628
 31
0.0
  0
ARC
  5
453
  8
0
  6
CONTINUOUS
 62
     3
 10
-200.8353647091049
 20
81.9043232830372
 30
0.0
 40
1.0
 50
89.99998201391097
 51
179.9999640278211
  0
ARC
  5
454
  8
0
  6
CONTINUOUS
 62
     3
 10
-198.8353647091049
 20
81.9043232830372
 30
0.0
 40
1.0
 50
0.0
 51
89.99998201391097
  0
ARC
  5
455
  8
0
  6
CONTINUOUS
 62
     3
 10
-198.8353647091049
 20
-28.59567480961417
 30
0.0
 40
1.0
 50
270.0000179860891
 51
360.0
  0
ARC
  5
456
  8
0
  6
CONTINUOUS
 62
     3
 10
-200.8353647091049
 20
-28.59567480961417
 30
0.0
 40
1.0
 50
179.9999776881997
 51
270.0000280040013
  0
LINE
  5
457
  8
0
  6
CONTINUOUS
 62
     3
 10
-77.83536470910494
 20
151.6543309124317
 30
0.0
 11
-77.83536470910494
 21
133.6543309124317
 31
0.0
  0
LINE
  5
458
  8
0
  6
CONTINUOUS
 62
     3
 10
-77.83536470910494
 20
116.6543232830372
 30
0.0
 11
-77.83536470910494
 21
98.6543232830372
 31
0.0
  0
LINE
  5
459
  8
0
  6
CONTINUOUS
 62
     3
 10
-88.33536470910494
 20
153.6543309124317
 30
0.0
 11
-88.33536470910494
 21
148.6543309124317
 31
0.0
  0
LINE
  5
45A
  8
0
  6
CONTINUOUS
 62
     3
 10
-88.33536470910494
 20
136.6543309124317
 30
0.0
 11
-88.33536470910494
 21
113.6543232830372
 31
0.0
  0
LINE
  5
45B
  8
0
  6
CONTINUOUS
 62
     3
 10
-88.33536470910494
 20
101.6543232830372
 30
0.0
 11
-88.33536470910494
 21
96.6543232830372
 31
0.0
  0
LINE
  5
45C
  8
0
  6
CONTINUOUS
 62
     3
 10
-65.83536089440767
 20
116.6543232830372
 30
0.0
 11
-65.83536089440767
 21
98.6543232830372
 31
0.0
  0
LINE
  5
45D
  8
0
  6
CONTINUOUS
 62
     3
 10
-65.83536089440767
 20
151.6543309124317
 30
0.0
 11
-65.83536089440767
 21
133.6543309124317
 31
0.0
  0
LINE
  5
45E
  8
0
  6
CONTINUOUS
 62
     3
 10
-77.83536470910494
 20
133.6543309124317
 30
0.0
 11
-65.83536089440767
 21
133.6543309124317
 31
0.0
  0
LINE
  5
45F
  8
0
  6
CONTINUOUS
 62
     3
 10
-77.83536470910494
 20
151.6543309124317
 30
0.0
 11
-65.83536089440767
 21
151.6543309124317
 31
0.0
  0
LINE
  5
460
  8
0
  6
CONTINUOUS
 62
     3
 10
-77.83536470910494
 20
98.6543232830372
 30
0.0
 11
-65.83536089440767
 21
98.6543232830372
 31
0.0
  0
LINE
  5
461
  8
0
  6
CONTINUOUS
 62
     3
 10
-77.83536470910494
 20
116.6543232830372
 30
0.0
 11
-65.83536089440767
 21
116.6543232830372
 31
0.0
  0
LINE
  5
462
  8
0
  6
CONTINUOUS
 62
     3
 10
97.77376615027006
 20
92.1543232830372
 30
0.0
 11
142.7737661502701
 21
92.1543232830372
 31
0.0
  0
LINE
  5
463
  8
0
  6
CONTINUOUS
 62
     3
 10
97.77376615027006
 20
84.95432633479501
 30
0.0
 11
142.7737661502701
 21
84.95432633479501
 31
0.0
  0
LINE
  5
464
  8
0
  6
CONTINUOUS
 62
     3
 10
97.77376615027006
 20
95.6543232830372
 30
0.0
 11
110.2737661502701
 21
95.6543232830372
 31
0.0
  0
LINE
  5
465
  8
0
  6
CONTINUOUS
 62
     3
 10
130.2737661502701
 20
95.6543232830372
 30
0.0
 11
142.7737661502701
 21
95.6543232830372
 31
0.0
  0
LINE
  5
466
  8
0
  6
CONTINUOUS
 62
     3
 10
110.2737661502701
 20
96.6543232830372
 30
0.0
 11
130.2737661502701
 21
96.6543232830372
 31
0.0
  0
LINE
  5
467
  8
0
  6
CONTINUOUS
 62
     3
 10
68.06266080359038
 20
32.15432519038583
 30
0.0
 11
70.57718717077788
 21
32.15432519038583
 31
0.0
  0
LINE
  5
468
  8
0
  6
CONTINUOUS
 62
     3
 10
68.06266080359038
 20
21.15432519038583
 30
0.0
 11
70.57718717077788
 21
21.15432519038583
 31
0.0
  0
LINE
  5
469
  8
0
  6
CONTINUOUS
 62
     3
 10
169.9703451297623
 20
32.15432519038583
 30
0.0
 11
172.4848714969498
 21
32.15432519038583
 31
0.0
  0
LINE
  5
46A
  8
0
  6
CONTINUOUS
 62
     3
 10
169.9703451297623
 20
21.15432519038583
 30
0.0
 11
172.4848714969498
 21
21.15432519038583
 31
0.0
  0
LINE
  5
46B
  8
0
  6
CONTINUOUS
 62
     3
 10
49.26801697956254
 20
11.63991010660172
 30
0.0
 11
55.51802344666718
 21
0.8145828427174973
 31
0.0
  0
LINE
  5
46C
  8
0
  6
CONTINUOUS
 62
     3
 10
185.0295509425181
 20
0.8145680342267649
 30
0.0
 11
191.2795555022739
 21
11.6398919944863
 31
0.0
  0
CIRCLE
  5
46D
  8
0
  6
CONTINUOUS
 62
     3
 10
61.81704007605131
 20
60.4043232830372
 30
0.0
 40
2.549999952316284
  0
CIRCLE
  5
46E
  8
0
  6
CONTINUOUS
 62
     3
 10
178.7304922244888
 20
60.4043232830372
 30
0.0
 40
2.549999952316284
  0
ARC
  5
46F
  8
0
  6
CONTINUOUS
 62
     3
 10
59.67470609167631
 20
87.25336808284189
 30
0.0
 40
14.0
 50
0.0
 51
2.811981837661666
  0
ARC
  5
470
  8
0
  6
CONTINUOUS
 62
     3
 10
120.2737661502701
 20
103.6543232830372
 30
0.0
 40
13.5
 50
301.58633708584
 51
323.6588003133153
  0
ARC
  5
471
  8
0
  6
CONTINUOUS
 62
     3
 10
120.2737661502701
 20
103.6543232830372
 30
0.0
 40
13.5
 50
216.3411776022554
 51
238.4136442448253
  0
ARC
  5
472
  8
0
  6
CONTINUOUS
 62
     3
 10
59.67470609167631
 20
87.25336808284189
 30
0.0
 40
14.0
 50
267.1880905764976
 51
362.8119201525157
  0
ARC
  5
473
  8
0
  6
CONTINUOUS
 62
     3
 10
180.8728262088638
 20
87.25337571223642
 30
0.0
 40
14.0
 50
177.1880980899321
 51
272.811880281513
  0
CIRCLE
  5
474
  8
0
  6
CONTINUOUS
 62
     3
 10
81.55735074499663
 20
81.94708603938486
 30
0.0
 40
7.0
  0
CIRCLE
  5
475
  8
0
  6
CONTINUOUS
 62
     3
 10
158.9901815555435
 20
81.94708603938486
 30
0.0
 40
7.0
  0
ARC
  5
476
  8
0
  6
CONTINUOUS
 62
     3
 10
120.2737661502701
 20
26.65432519038583
 30
0.0
 40
77.0
 50
346.9901792491717
 51
367.2577333988461
  0
ARC
  5
477
  8
0
  6
CONTINUOUS
 62
     3
 10
120.2737661502701
 20
26.65432519038583
 30
0.0
 40
77.0
 50
142.7422929733989
 51
157.2577563559967
  0
ARC
  5
478
  8
0
  6
CONTINUOUS
 62
     3
 10
120.2737661502701
 20
26.65432519038583
 30
0.0
 40
77.0
 50
52.7422563179749
 51
73.00981815161225
  0
ARC
  5
479
  8
0
  6
CONTINUOUS
 62
     3
 10
120.2737661502701
 20
26.65432519038583
 30
0.0
 40
77.0
 50
106.9902005177224
 51
127.2577623513598
  0
CIRCLE
  5
47A
  8
0
  6
CONTINUOUS
 62
     3
 10
59.67470609167631
 20
87.25336808284189
 30
0.0
 40
13.0
  0
CIRCLE
  5
47B
  8
0
  6
CONTINUOUS
 62
     3
 10
180.8728262088638
 20
87.25337571223642
 30
0.0
 40
13.0
  0
CIRCLE
  5
47C
  8
0
  6
CONTINUOUS
 62
     3
 10
53.03062879065092
 20
32.53733605464365
 30
0.0
 40
7.0
  0
CIRCLE
  5
47D
  8
0
  6
CONTINUOUS
 62
     3
 10
187.516914953981
 20
32.53733796199228
 30
0.0
 40
7.0
  0
CIRCLE
  5
47E
  8
0
  6
CONTINUOUS
 62
     3
 10
203.0536123416763
 20
48.83511323054697
 30
0.0
 40
9.0
  0
CIRCLE
  5
47F
  8
0
  6
CONTINUOUS
 62
     3
 10
37.4939314029556
 20
48.8351094158497
 30
0.0
 40
9.0
  0
CIRCLE
  5
480
  8
0
  6
CONTINUOUS
 62
     3
 10
59.67470609167631
 20
87.25336808284189
 30
0.0
 40
9.0
  0
CIRCLE
  5
481
  8
0
  6
CONTINUOUS
 62
     3
 10
180.8728262088638
 20
87.25337571223642
 30
0.0
 40
9.0
  0
CIRCLE
  5
482
  8
0
  6
CONTINUOUS
 62
     3
 10
203.0536123416763
 20
48.83511323054697
 30
0.0
 40
13.0
  0
CIRCLE
  5
483
  8
0
  6
CONTINUOUS
 62
     3
 10
37.4939314029556
 20
48.8351094158497
 30
0.0
 40
13.0
  0
ARC
  5
484
  8
0
  6
CONTINUOUS
 62
     3
 10
120.2737661502701
 20
26.65432519038583
 30
0.0
 40
77.0
 50
172.7422869780358
 51
193.0097805097814
  0
ARC
  5
485
  8
0
  6
CONTINUOUS
 62
     3
 10
120.2737661502701
 20
26.65432519038583
 30
0.0
 40
77.0
 50
22.74226402088532
 51
37.25773252612493
  0
ARC
  5
486
  8
0
  6
CONTINUOUS
 62
     3
 10
37.4939314029556
 20
48.8351094158497
 30
0.0
 40
14.0
 50
297.1880504301886
 51
392.8119623953637
  0
ARC
  5
487
  8
0
  6
CONTINUOUS
 62
     3
 10
203.0536123416763
 20
48.83511323054697
 30
0.0
 40
14.0
 50
147.1881040852952
 51
242.8119135976327
  0
ARC
  5
488
  8
0
  6
CONTINUOUS
 62
     3
 10
186.9577566287857
 20
-11.84568339268302
 30
0.0
 40
13.5
 50
96.34127307332302
 51
118.4139377913789
  0
ARC
  5
489
  8
0
  6
CONTINUOUS
 62
     3
 10
53.58981763342435
 20
-11.84567004124259
 30
0.0
 40
13.5
 50
61.58636774590093
 51
83.65881389790333
  0
LINE
  5
48A
  8
0
  6
CONTINUOUS
 62
     3
 10
69.57381259597369
 20
136.6543429307648
 30
0.0
 11
72.42380971110961
 21
131.7180001811994
 31
0.0
  0
LINE
  5
48B
  8
0
  6
CONTINUOUS
 62
     3
 10
72.42376004675444
 20
131.7179905804005
 30
0.0
 11
78.12377225378569
 21
131.7179905804005
 31
0.0
  0
LINE
  5
48C
  8
0
  6
CONTINUOUS
 62
     3
 10
78.1237495742414
 20
131.7179802570468
 30
0.0
 11
80.97375907522905
 21
136.6543335031352
 31
0.0
  0
LINE
  5
48D
  8
0
  6
CONTINUOUS
 62
     3
 10
80.97380549123855
 20
136.6543397578484
 30
0.0
 11
78.12380507102731
 21
141.5906897941577
 31
0.0
  0
LINE
  5
48E
  8
0
  6
CONTINUOUS
 62
     3
 10
78.12377225378569
 20
141.590671244463
 30
0.0
 11
72.42376004675444
 21
141.590671244463
 31
0.0
  0
LINE
  5
48F
  8
0
  6
CONTINUOUS
 62
     3
 10
72.42378419272521
 20
141.5906796762103
 30
0.0
 11
69.57377706996797
 21
136.6543247313859
 31
0.0
  0
CIRCLE
  5
490
  8
0
  6
CONTINUOUS
 62
     3
 10
75.27376615027006
 20
136.6543309124317
 30
0.0
 40
9.0
  0
CIRCLE
  5
491
  8
0
  6
CONTINUOUS
 62
     3
 10
75.27376615027006
 20
136.6543309124317
 30
0.0
 40
0.75
  0
CIRCLE
  5
492
  8
0
  6
CONTINUOUS
 62
     3
 10
75.27376615027006
 20
136.6543309124317
 30
0.0
 40
2.400000095367432
  0
CIRCLE
  5
493
  8
0
  6
CONTINUOUS
 62
     3
 10
75.27376615027006
 20
136.6543309124317
 30
0.0
 40
3.299999952316284
  0
LINE
  5
494
  8
0
  6
CONTINUOUS
 62
     3
 10
230.84181032073
 20
-74.70991833384963
 30
0.0
 11
231.6071412813839
 21
-75.15178232118436
 31
0.0
  0
LINE
  5
495
  8
0
  6
CONTINUOUS
 62
     3
 10
263.341804568882
 20
-18.41827083114461
 30
0.0
 11
264.1071091005367
 21
-18.86011955969119
 31
0.0
  0
LINE
  5
496
  8
0
  6
CONTINUOUS
 62
     3
 10
238.9276111749197
 20
-67.83125200070188
 30
0.0
 11
261.4276119497799
 21
-28.86011283348992
 31
0.0
  0
LINE
  5
497
  8
0
  6
CONTINUOUS
 62
     3
 10
261.42759944299
 20
-28.86010895456596
 30
0.0
 11
264.1070893006026
 21
-18.86011790287697
 31
0.0
  0
LINE
  5
498
  8
0
  6
CONTINUOUS
 62
     3
 10
231.6071162320945
 20
-75.15176671525936
 30
0.0
 11
238.9275644038093
 21
-67.83131916061214
 31
0.0
  0
LINE
  5
499
  8
0
  6
CONTINUOUS
 62
     3
 10
225.2590260830902
 20
-45.50593658040955
 30
0.0
 11
235.2590272751831
 21
-28.18542881559327
 31
0.0
  0
LINE
  5
49A
  8
0
  6
CONTINUOUS
 62
     3
 10
232.3365966201304
 20
10.62547195713748
 30
0.0
 11
235.1866013646572
 21
5.689115993071452
 31
0.0
  0
LINE
  5
49B
  8
0
  6
CONTINUOUS
 62
     3
 10
235.186577429567
 20
5.689116183122648
 30
0.0
 11
240.8865896365982
 21
5.689116183122648
 31
0.0
  0
LINE
  5
49C
  8
0
  6
CONTINUOUS
 62
     3
 10
240.8865676048676
 20
5.689112371097478
 30
0.0
 11
243.7365771058552
 21
10.62546561718588
 31
0.0
  0
LINE
  5
49D
  8
0
  6
CONTINUOUS
 62
     3
 10
243.7366043868396
 20
10.62546096924549
 30
0.0
 11
240.8866001519336
 21
15.56181761280592
 31
0.0
  0
LINE
  5
49E
  8
0
  6
CONTINUOUS
 62
     3
 10
240.8865896365982
 20
15.561805430254
 30
0.0
 11
235.186577429567
 21
15.561805430254
 31
0.0
  0
LINE
  5
49F
  8
0
  6
CONTINUOUS
 62
     3
 10
235.1866143652437
 20
15.56181767742689
 30
0.0
 11
232.3366072424864
 21
10.62546273260247
 31
0.0
  0
CIRCLE
  5
4A0
  8
0
  6
CONTINUOUS
 62
     3
 10
238.0365835330826
 20
10.62546128352548
 30
0.0
 40
9.0
  0
CIRCLE
  5
4A1
  8
0
  6
CONTINUOUS
 62
     3
 10
238.0365835330826
 20
10.62546128352548
 30
0.0
 40
0.75
  0
CIRCLE
  5
4A2
  8
0
  6
CONTINUOUS
 62
     3
 10
238.0365835330826
 20
10.62546128352548
 30
0.0
 40
2.400000095367432
  0
CIRCLE
  5
4A3
  8
0
  6
CONTINUOUS
 62
     3
 10
238.0365835330826
 20
10.62546128352548
 30
0.0
 40
3.299999952316284
  0
ARC
  5
4A4
  8
0
  6
CONTINUOUS
 62
     3
 10
120.2737661502701
 20
26.65432519038583
 30
0.0
 40
77.0
 50
262.7422453136555
 51
277.2577360170099
  0
CIRCLE
  5
4A5
  8
0
  6
CONTINUOUS
 62
     3
 10
120.2737661502701
 20
-40.8456767169628
 30
0.0
 40
2.5
  0
CIRCLE
  5
4A6
  8
0
  6
CONTINUOUS
 62
     3
 10
142.4545675418717
 20
-56.12551527897452
 30
0.0
 40
9.0
  0
CIRCLE
  5
4A7
  8
0
  6
CONTINUOUS
 62
     3
 10
142.4545675418717
 20
-56.12551527897452
 30
0.0
 40
13.0
  0
CIRCLE
  5
4A8
  8
0
  6
CONTINUOUS
 62
     3
 10
98.0929647586685
 20
-56.12551527897452
 30
0.0
 40
13.0
  0
ARC
  5
4A9
  8
0
  6
CONTINUOUS
 62
     3
 10
142.4545675418717
 20
-56.12551527897452
 30
0.0
 40
14.0
 50
57.18806401477661
 51
152.8119998856137
  0
ARC
  5
4AA
  8
0
  6
CONTINUOUS
 62
     3
 10
98.0929647586685
 20
-56.12551527897452
 30
0.0
 40
14.0
 50
27.18802390636283
 51
122.8119512394635
  0
LINE
  5
4AB
  8
0
  6
CONTINUOUS
 62
     3
 10
168.7795547274138
 20
-27.33124717272565
 30
0.0
 11
175.0295497504252
 21
-16.50593973058952
 31
0.0
  0
ARC
  5
4AC
  8
0
  6
CONTINUOUS
 62
     3
 10
186.9577566287857
 20
-11.84568339268302
 30
0.0
 40
13.5
 50
181.5860741993473
 51
203.658691106079
  0
LINE
  5
4AD
  8
0
  6
CONTINUOUS
 62
     3
 10
65.51802463876007
 20
-16.50592492209879
 30
0.0
 11
71.76802729116699
 21
-27.33124557873364
 31
0.0
  0
LINE
  5
4AE
  8
0
  6
CONTINUOUS
 62
     3
 10
41.81098373715977
 20
-67.3168123318824
 30
0.0
 11
44.66098085229569
 21
-72.25315508144789
 31
0.0
  0
LINE
  5
4AF
  8
0
  6
CONTINUOUS
 62
     3
 10
44.66098462561185
 20
-72.25316267887686
 30
0.0
 11
50.36098157385405
 21
-72.25316267887686
 31
0.0
  0
LINE
  5
4B0
  8
0
  6
CONTINUOUS
 62
     3
 10
50.36097862656052
 20
-72.25315507324243
 30
0.0
 11
53.21098049814456
 21
-67.31681504164729
 31
0.0
  0
LINE
  5
4B1
  8
0
  6
CONTINUOUS
 62
     3
 10
53.21098524441013
 20
-67.31681921132099
 30
0.0
 11
50.36098863889365
 21
-62.38047578226292
 31
0.0
  0
LINE
  5
4B2
  8
0
  6
CONTINUOUS
 62
     3
 10
50.36098157385405
 20
-62.3804667560253
 30
0.0
 11
44.66098462561185
 21
-62.3804667560253
 31
0.0
  0
LINE
  5
4B3
  8
0
  6
CONTINUOUS
 62
     3
 10
44.66098510196107
 20
-62.38047483724498
 30
0.0
 11
41.81098560860111
 21
-67.31681656757158
 31
0.0
  0
CIRCLE
  5
4B4
  8
0
  6
CONTINUOUS
 62
     3
 10
47.51098309973295
 20
-67.31681471745108
 30
0.0
 40
9.0
  0
CIRCLE
  5
4B5
  8
0
  6
CONTINUOUS
 62
     3
 10
47.51098309973295
 20
-67.31681471745108
 30
0.0
 40
0.75
  0
CIRCLE
  5
4B6
  8
0
  6
CONTINUOUS
 62
     3
 10
47.51098309973295
 20
-67.31681471745108
 30
0.0
 40
2.400000095367432
  0
CIRCLE
  5
4B7
  8
0
  6
CONTINUOUS
 62
     3
 10
47.51098309973295
 20
-67.31681471745108
 30
0.0
 40
3.299999952316284
  0
LINE
  5
4B8
  8
0
  6
CONTINUOUS
 62
     3
 10
87.77375633627335
 20
173.974794763189
 30
0.0
 11
97.77374738796235
 21
176.6542840037295
 31
0.0
  0
LINE
  5
4B9
  8
0
  6
CONTINUOUS
 62
     3
 10
142.7737611786569
 20
176.6542965383712
 30
0.0
 11
152.7737522303459
 21
173.9748072978307
 31
0.0
  0
LINE
  5
4BA
  8
0
  6
CONTINUOUS
 62
     3
 10
152.7737661502701
 20
173.9748417766895
 30
0.0
 11
152.7737661502701
 21
173.091174784502
 31
0.0
  0
LINE
  5
4BB
  8
0
  6
CONTINUOUS
 62
     3
 10
87.77376615027006
 20
173.9748417766895
 30
0.0
 11
87.77376615027006
 21
173.091174784502
 31
0.0
  0
LINE
  5
4BC
  8
0
  6
CONTINUOUS
 62
     3
 10
110.2737661502701
 20
153.6543309124317
 30
0.0
 11
130.2737661502701
 21
153.6543309124317
 31
0.0
  0
LINE
  5
4BD
  8
0
  6
CONTINUOUS
 62
     3
 10
97.77376615027006
 20
176.6543309124317
 30
0.0
 11
142.7737661502701
 21
176.6543309124317
 31
0.0
  0
LINE
  5
4BE
  8
0
  6
CONTINUOUS
 62
     3
 10
-108.8353647091049
 20
96.6543232830372
 30
0.0
 11
-88.33536470910494
 21
96.6543232830372
 31
0.0
  0
LINE
  5
4BF
  8
0
  6
CONTINUOUS
 62
     3
 10
-108.8353647091049
 20
153.6543309124317
 30
0.0
 11
-88.33536470910494
 21
153.6543309124317
 31
0.0
  0
LINE
  5
4C0
  8
0
  6
CONTINUOUS
 62
     3
 10
-108.8353647091049
 20
148.6543309124317
 30
0.0
 11
-77.83536470910494
 21
148.6543309124317
 31
0.0
  0
LINE
  5
4C1
  8
0
  6
CONTINUOUS
 62
     3
 10
-108.8353647091049
 20
136.6543309124317
 30
0.0
 11
-77.83536470910494
 21
136.6543309124317
 31
0.0
  0
LINE
  5
4C2
  8
0
  6
CONTINUOUS
 62
     3
 10
-108.8353647091049
 20
101.6543232830372
 30
0.0
 11
-77.83536470910494
 21
101.6543232830372
 31
0.0
  0
LINE
  5
4C3
  8
0
  6
CONTINUOUS
 62
     3
 10
-108.8353647091049
 20
113.6543232830372
 30
0.0
 11
-77.83536470910494
 21
113.6543232830372
 31
0.0
  0
LINE
  5
4C4
  8
0
  6
CONTINUOUS
 62
     3
 10
142.7737661502701
 20
176.6543309124317
 30
0.0
 11
142.7737661502701
 21
84.95432633479501
 31
0.0
  0
LINE
  5
4C5
  8
0
  6
CONTINUOUS
 62
     3
 10
97.77376615027006
 20
176.6543309124317
 30
0.0
 11
97.77376615027006
 21
84.95432633479501
 31
0.0
  0
LINE
  5
4C6
  8
0
  6
CONTINUOUS
 62
     3
 10
130.2737661502701
 20
176.6543309124317
 30
0.0
 11
130.2737661502701
 21
95.6543232830372
 31
0.0
  0
LINE
  5
4C7
  8
0
  6
CONTINUOUS
 62
     3
 10
110.2737661502701
 20
176.6543309124317
 30
0.0
 11
110.2737661502701
 21
95.6543232830372
 31
0.0
  0
LINE
  5
4C8
  8
0
  6
CONTINUOUS
 62
     3
 10
-20.8800410974827
 20
-28.86009656077093
 30
0.0
 11
58.53449313067089
 21
16.98990108782581
 31
0.0
  0
LINE
  5
4C9
  8
0
  6
CONTINUOUS
 62
     3
 10
182.0130880675064
 20
16.98988382233617
 30
0.0
 11
261.4276322065347
 21
-28.86011954830613
 31
0.0
  0
LINE
  5
4CA
  8
0
  6
CONTINUOUS
 62
     3
 10
58.53449171288607
 20
16.98989930761829
 30
0.0
 11
81.03450011714168
 21
-21.98125307409239
 31
0.0
  0
LINE
  5
4CB
  8
0
  6
CONTINUOUS
 62
     3
 10
159.5130648722426
 20
-21.98125364593832
 30
0.0
 11
182.0130732764982
 21
16.98989873577236
 31
0.0
  0
LINE
  5
4CC
  8
0
  6
CONTINUOUS
 62
     3
 10
165.7484488393745
 20
-25.58124594196332
 30
0.0
 11
188.2484534289324
 21
13.389899832498
 31
0.0
  0
LINE
  5
4CD
  8
0
  6
CONTINUOUS
 62
     3
 10
52.29910965310311
 20
13.38990370796861
 30
0.0
 11
74.79911996470756
 21
-25.58125197736675
 31
0.0
  0
LINE
  5
4CE
  8
0
  6
CONTINUOUS
 62
     3
 10
-14.63003981819927
 20
-39.68541370516491
 30
0.0
 11
55.51802971634518
 21
0.8145886492182779
 31
0.0
  0
LINE
  5
4CF
  8
0
  6
CONTINUOUS
 62
     3
 10
185.0295713035816
 20
0.8145599396375172
 30
0.0
 11
255.1776325790638
 21
-39.68543764637437
 31
0.0
  0
LINE
  5
4D0
  8
0
  6
CONTINUOUS
 62
     3
 10
54.65199805842636
 20
0.3145827831128525
 30
0.0
 11
64.65199925051925
 21
-17.00592498170343
 31
0.0
  0
LINE
  5
4D1
  8
0
  6
CONTINUOUS
 62
     3
 10
175.8955789533638
 20
-17.0059331829448
 30
0.0
 11
185.8955801454567
 21
0.3145745818714811
 31
0.0
  0
CIRCLE
  5
4D2
  8
0
  6
CONTINUOUS
 62
     3
 10
120.2737661502701
 20
26.65432519038583
 30
0.0
 40
55.5
  0
ARC
  5
4D3
  8
0
  6
CONTINUOUS
 62
     3
 10
120.2737661502701
 20
26.65432519038583
 30
0.0
 40
150.0
 50
98.62694806774364
 51
201.3730329597602
  0
CIRCLE
  5
4D4
  8
0
  6
CONTINUOUS
 62
     3
 10
120.2737661502701
 20
26.65432519038583
 30
0.0
 40
52.5
  0
ARC
  5
4D5
  8
0
  6
CONTINUOUS
 62
     3
 10
120.2737661502701
 20
26.65432519038583
 30
0.0
 40
147.0
 50
98.80438955219141
 51
201.1955846451233
  0
CIRCLE
  5
4D6
  8
0
  6
CONTINUOUS
 62
     3
 10
120.2737661502701
 20
26.65432519038583
 30
0.0
 40
50.0
  0
ARC
  5
4D7
  8
0
  6
CONTINUOUS
 62
     3
 10
120.2737661502701
 20
26.65432519038583
 30
0.0
 40
150.0
 50
338.6269276529666
 51
441.3730706015911
  0
ARC
  5
4D8
  8
0
  6
CONTINUOUS
 62
     3
 10
120.2737661502701
 20
26.65432519038583
 30
0.0
 40
147.0
 50
338.8043725525088
 51
441.1956291171433
  0
LINE
  5
4D9
  8
0
  6
CONTINUOUS
 62
     3
 10
159.5130761941113
 20
-21.98125370131541
 30
0.0
 11
238.9276335476392
 21
-67.83126470135179
 31
0.0
  0
LINE
  5
4DA
  8
0
  6
CONTINUOUS
 62
     3
 10
175.0295586851284
 20
-16.50594138787758
 30
0.0
 11
245.1776331751102
 21
-57.00594660328355
 31
0.0
  0
ARC
  5
4DB
  8
0
  6
CONTINUOUS
 62
     3
 10
120.2737661502701
 20
26.65432519038583
 30
0.0
 40
147.0
 50
218.804366039236
 51
321.1956326080282
  0
ARC
  5
4DC
  8
0
  6
CONTINUOUS
 62
     3
 10
120.2737661502701
 20
26.65432519038583
 30
0.0
 40
150.0
 50
218.6269217372386
 51
321.373074092476
  0
ARC
  5
4DD
  8
0
  6
CONTINUOUS
 62
     3
 10
120.2737661502701
 20
26.65432519038583
 30
0.0
 40
77.0
 50
226.9901665183573
 51
247.2577078614271
  0
ARC
  5
4DE
  8
0
  6
CONTINUOUS
 62
     3
 10
120.2737661502701
 20
26.65432519038583
 30
0.0
 40
77.0
 50
292.7422734692382
 51
313.0098216424972
  0
CIRCLE
  5
4DF
  8
0
  6
CONTINUOUS
 62
     3
 10
148.8004995487076
 20
-34.52145033756827
 30
0.0
 40
7.0
  0
CIRCLE
  5
4E0
  8
0
  6
CONTINUOUS
 62
     3
 10
91.7470174930435
 20
-34.521446522871
 30
0.0
 40
7.0
  0
ARC
  5
4E1
  8
0
  6
CONTINUOUS
 62
     3
 10
53.58981763342435
 20
-11.84567004124259
 30
0.0
 40
13.5
 50
336.341194601938
 51
358.4136474774078
  0
LINE
  5
4E2
  8
0
  6
CONTINUOUS
 62
     3
 10
5.288545462189887
 20
-28.18541496077697
 30
0.0
 11
15.28855046898051
 21
-45.50592933284261
 31
0.0
  0
LINE
  5
4E3
  8
0
  6
CONTINUOUS
 62
     3
 10
-23.55953336886885
 20
-18.86009664062598
 30
0.0
 11
-22.79426187346322
 21
-18.4182669855646
 31
0.0
  0
LINE
  5
4E4
  8
0
  6
CONTINUOUS
 62
     3
 10
-23.55953277949513
 20
-18.86009628289307
 30
0.0
 11
-20.88004094724963
 21
-28.86009470401118
 31
0.0
  0
LINE
  5
4E5
  8
0
  6
CONTINUOUS
 62
     3
 10
81.03445610642885
 20
-21.98125370131541
 30
0.0
 11
1.619898752900923
 21
-67.83126470135179
 31
0.0
  0
LINE
  5
4E6
  8
0
  6
CONTINUOUS
 62
     3
 10
8.940416068445675
 20
-75.15176671525936
 30
0.0
 11
1.619967896730856
 21
-67.83131916061214
 31
0.0
  0
LINE
  5
4E7
  8
0
  6
CONTINUOUS
 62
     3
 10
9.705721979810196
 20
-74.70991833384963
 30
0.0
 11
8.940391019156236
 21
-75.15178232118436
 31
0.0
  0
LINE
  5
4E8
  8
0
  6
CONTINUOUS
 62
     3
 10
1.619921125620436
 20
-67.83125200070188
 30
0.0
 11
-20.88007964923972
 21
-28.86011283348992
 31
0.0
  0
LINE
  5
4E9
  8
0
  6
CONTINUOUS
 62
     3
 10
65.51797361541176
 20
-16.50594138787758
 30
0.0
 11
-4.630100874570047
 21
-57.00594660328355
 31
0.0
  0
LINE
  5
4EA
  8
0
  6
CENTER
 62
     7
 10
-227.6620248653549
 20
26.65432519038583
 30
0.0
 11
-214.1455606319565
 21
26.65432519038583
 31
0.0
  0
LINE
  5
4EB
  8
0
  6
CENTER
 62
     7
 10
-184.8353647091049
 20
-29.83952361027335
 30
0.0
 11
-184.8353647091049
 21
-45.63105045053295
 31
0.0
  0
LINE
  5
4EC
  8
0
  6
CENTER
 62
     7
 10
55.57113575993632
 20
64.01043538748641
 30
0.0
 11
67.6930159629043
 21
57.01186536243401
 31
0.0
  0
LINE
  5
4ED
  8
0
  6
CENTER
 62
     7
 10
75.31975166641351
 20
90.85531153404369
 30
0.0
 11
87.69743916954221
 21
73.17814507498278
 31
0.0
  0
LINE
  5
4EE
  8
0
  6
CENTER
 62
     7
 10
153.0462061804678
 20
73.45822782664797
 30
0.0
 11
165.4646329888369
 21
91.19357603249952
 31
0.0
  0
LINE
  5
4EF
  8
0
  6
CENTER
 62
     7
 10
172.8633317964421
 20
57.01690876515156
 30
0.0
 11
252.9486992404332
 21
103.2542121087032
 31
0.0
  0
LINE
  5
4F0
  8
0
  6
CENTER
 62
     7
 10
176.5587734843701
 20
31.57862498784695
 30
0.0
 11
198.4750725309967
 21
33.49605253136005
 31
0.0
  0
LINE
  5
4F1
  8
0
  6
CENTER
 62
     7
 10
42.07248489602711
 20
33.49605092429539
 30
0.0
 11
63.98877254210987
 21
31.57862437820054
 31
0.0
  0
LINE
  5
4F2
  8
0
  6
CENTER
 62
     7
 10
183.7350896478013
 20
43.65873323032164
 30
0.0
 11
222.3721074177932
 21
54.01148983441689
 31
0.0
  0
LINE
  5
4F3
  8
0
  6
CENTER
 62
     7
 10
18.17541550858019
 20
54.01148963552797
 30
0.0
 11
56.81244985978756
 21
43.65872858850989
 31
0.0
  0
ARC
  5
4F4
  8
0
  6
CENTER
 62
     7
 10
120.2737661502701
 20
26.65432519038583
 30
0.0
 40
85.69999694824219
 50
1.598223604813082
 51
58.40177155481498
  0
ARC
  5
4F5
  8
0
  6
CENTER
 62
     7
 10
120.2737661502701
 20
26.65432519038583
 30
0.0
 40
85.69999694824219
 50
121.5982539447089
 51
178.4017953846867
  0
ARC
  5
4F6
  8
0
  6
CENTER
 62
     7
 10
120.2737661502701
 20
26.65432519038583
 30
0.0
 40
67.5
 50
24.18315560554932
 51
36.04627211832352
  0
ARC
  5
4F7
  8
0
  6
CENTER
 62
     7
 10
120.2737661502701
 20
26.65432519038583
 30
0.0
 40
67.5
 50
46.33417283866895
 51
64.29728348785731
  0
ARC
  5
4F8
  8
0
  6
CENTER
 62
     7
 10
120.2737661502701
 20
26.65432519038583
 30
0.0
 40
67.5
 50
115.436767615197
 51
134.0645922744111
  0
ARC
  5
4F9
  8
0
  6
CENTER
 62
     7
 10
120.2737661502701
 20
26.65432519038583
 30
0.0
 40
67.5
 50
143.9479989468246
 51
155.8125566295137
  0
ARC
  5
4FA
  8
0
  6
CENTER
 62
     7
 10
120.2737661502701
 20
26.65432519038583
 30
0.0
 40
67.5
 50
165.6525642799409
 51
184.3474204156694
  0
ARC
  5
4FB
  8
0
  6
CENTER
 62
     7
 10
120.2737661502701
 20
26.65432519038583
 30
0.0
 40
67.5
 50
355.6525483079069
 51
374.3474509742992
  0
LINE
  5
4FC
  8
0
  6
CENTER
 62
     7
 10
75.27376615027006
 20
151.6543309124317
 30
0.0
 11
75.27376615027006
 21
121.6543232830372
 31
0.0
  0
LINE
  5
4FD
  8
0
  6
CENTER
 62
     7
 10
60.27376615027006
 20
136.6543309124317
 30
0.0
 11
90.27376615027006
 21
136.6543309124317
 31
0.0
  0
LINE
  5
4FE
  8
0
  6
CENTER
 62
     7
 10
107.1593710086685
 20
142.6543309124317
 30
0.0
 11
133.3710561893326
 21
142.6543309124317
 31
0.0
  0
LINE
  5
4FF
  8
0
  6
CENTER
 62
     7
 10
107.1593710086685
 20
107.6543232830372
 30
0.0
 11
133.1838308475357
 21
107.6543232830372
 31
0.0
  0
LINE
  5
500
  8
0
  6
CENTER
 62
     7
 10
212.7327464548134
 20
-45.20208825420335
 30
0.0
 11
228.7327521768597
 21
-17.48926922324793
 31
0.0
  0
LINE
  5
501
  8
0
  6
CENTER
 62
     7
 10
231.0365798975903
 20
-1.498893627111132
 30
0.0
 11
245.0365891959158
 21
22.74983045813039
 31
0.0
  0
LINE
  5
502
  8
0
  6
CENTER
 62
     7
 10
137.2781818358812
 20
-36.80699884225763
 30
0.0
 11
147.630944773427
 21
-75.44403135110773
 31
0.0
  0
LINE
  5
503
  8
0
  6
CENTER
 62
     7
 10
92.91658338955611
 20
-75.44403352475845
 30
0.0
 11
103.2693470675892
 21
-36.80699825237244
 31
0.0
  0
ARC
  5
504
  8
0
  6
CENTER
 62
     7
 10
120.2737661502701
 20
26.65432519038583
 30
0.0
 40
85.69999694824219
 50
241.5982062849654
 51
298.4017818758891
  0
ARC
  5
505
  8
0
  6
CENTER
 62
     7
 10
120.2737661502701
 20
26.65432519038583
 30
0.0
 40
67.5
 50
264.0555267665088
 51
275.9444545641565
  0
LINE
  5
506
  8
0
  6
CENTER
 62
     7
 10
35.38662539762836
 20
-74.31681550780192
 30
0.0
 11
59.63533958911366
 21
-60.31681538859269
 31
0.0
  0
LINE
  5
507
  8
0
  6
CENTER
 62
     7
 10
-126.087333092894
 20
-40.8456767169628
 30
0.0
 11
-88.92804659387056
 21
-40.8456767169628
 31
0.0
  0
LINE
  5
508
  8
0
  6
CENTER
 62
     7
 10
-222.2638162471909
 20
-59.04567366520499
 30
0.0
 11
-84.45051516076509
 21
-59.04567366520499
 31
0.0
  0
LINE
  5
509
  8
0
  6
CENTER
 62
     7
 10
-113.6141275264877
 20
142.6543309124317
 30
0.0
 11
-63.28079546472017
 21
142.6543309124317
 31
0.0
  0
LINE
  5
50A
  8
0
  6
CENTER
 62
     7
 10
-113.6141275264877
 20
107.6543232830372
 30
0.0
 11
-54.28079546472017
 21
107.6543232830372
 31
0.0
  0
LINE
  5
50B
  8
0
  6
CENTER
 62
     7
 10
120.2737661502701
 20
178.2551760175086
 30
0.0
 11
120.2737661502701
 21
-126.8245490572575
 31
0.0
  0
LINE
  5
50C
  8
0
  6
CENTER
 62
     7
 10
-37.36511037703706
 20
26.65432519038583
 30
0.0
 11
276.6289449832779
 21
26.65432519038583
 31
0.0
  0
LINE
  5
50D
  8
0
  6
CENTER
 62
     7
 10
45.53257788625198
 20
101.3955071142088
 30
0.0
 11
73.81685204535941
 21
73.11123533928725
 31
0.0
  0
LINE
  5
50E
  8
0
  6
CENTER
 62
     7
 10
166.7307102690233
 20
73.11124465904592
 30
0.0
 11
195.0149834166063
 21
101.3955154224431
 31
0.0
  0
LINE
  5
50F
  8
0
  6
CENTER
 62
     7
 10
-13.37232199115804
 20
-50.50627539278892
 30
0.0
 11
120.2737754087839
 21
26.65432639235789
 31
0.0
  0
LINE
  5
510
  8
0
  6
CENTER
 62
     7
 10
42.12571652280067
 20
0.0107377605313257
 30
0.0
 11
58.12572415219589
 21
-27.70208457404877
 31
0.0
  0
LINE
  5
511
  8
0
  6
CENTER
 62
     7
 10
182.4218540516871
 20
-27.70209277529014
 30
0.0
 11
198.4218559590358
 21
0.0107196484159129
 31
0.0
  0
LINE
  5
512
  8
0
  6
CENTER
 62
     7
 10
225.912236508434
 20
17.62544583378573
 30
0.0
 11
250.1609622626065
 21
3.625439038856682
 31
0.0
  0
LINE
  5
513
  8
0
  6
CENTER
 62
     7
 10
144.1517076522729
 20
-24.55205939950955
 30
0.0
 11
153.4493115574739
 21
-44.49083005132687
 31
0.0
  0
LINE
  5
514
  8
0
  6
CENTER
 62
     7
 10
87.09822461206882
 20
-44.49083547063958
 30
0.0
 11
96.39582912183019
 21
-24.55206352233861
 31
0.0
  0
ARC
  5
515
  8
0
  6
CENTER
 62
     7
 10
120.2737661502701
 20
26.65432519038583
 30
0.0
 40
67.5
 50
235.652512952091
 51
254.3474237293329
  0
ARC
  5
516
  8
0
  6
CENTER
 62
     7
 10
120.2737661502701
 20
26.65432519038583
 30
0.0
 40
67.5
 50
285.6525439409541
 51
304.3474581332906
  0
LINE
  5
517
  8
0
  6
CENTER
 62
     7
 10
11.81482628255984
 20
-17.48926527930567
 30
0.0
 11
27.81483009725733
 21
-45.20208100663641
 31
0.0
  0
LINE
  5
518
  8
0
  6
CENTER
 62
     7
 10
40.51098522812075
 20
-55.19246477624543
 30
0.0
 11
54.5109868970508
 21
-79.44117564698823
 31
0.0
  0
LINE
  5
519
  8
0
  6
CENTER
 62
     7
 10
-204.4126657344955
 20
26.65432519038583
 30
0.0
 11
-181.33836960644
 21
26.65432519038583
 31
0.0
  0
LINE
  5
51A
  8
0
  6
CENTER
 62
     7
 10
-173.2100504056495
 20
26.65432519038583
 30
0.0
 11
-156.9534120040685
 21
26.65432519038583
 31
0.0
  0
LINE
  5
51B
  8
0
  6
CENTER
 62
     7
 10
-147.8496944991832
 20
26.65432519038583
 30
0.0
 11
-86.242560380699
 21
26.65432519038583
 31
0.0
  0
LINE
  5
51C
  8
0
  6
CENTER
 62
     7
 10
120.2737694495194
 20
26.65433010770195
 30
0.0
 11
237.2447237803763
 21
-40.87887440138657
 31
0.0
  0
LINE
  5
51D
  8
0
  6
CENTER
 62
     7
 10
244.3718575157351
 20
-44.99372652742957
 30
0.0
 11
252.8729430959442
 21
-49.90183003331057
 31
0.0
  0
LINE
  5
51E
  8
0
  6
CENTER
 62
     7
 10
-142.1353525020737
 20
-84.38242838345892
 30
0.0
 11
-142.1353525020737
 21
-127.3911359649819
 31
0.0
  0
LINE
  5
51F
  8
0
  6
DASHED
 62
     7
 10
-121.8353647091049
 20
-37.74567824284171
 30
0.0
 11
-108.8374933101791
 21
-37.74567824284171
 31
0.0
  0
LINE
  5
520
  8
0
  6
DASHED
 62
     7
 10
-121.8353647091049
 20
-43.94567519108389
 30
0.0
 11
-109.0444864132065
 21
-43.94567519108389
 31
0.0
  0
LINE
  5
521
  8
0
  6
DASHED
 62
     7
 10
-121.8353647091049
 20
-44.8456767169628
 30
0.0
 11
-109.1134790279526
 21
-44.8456767169628
 31
0.0
  0
LINE
  5
522
  8
0
  6
DASHED
 62
     7
 10
-121.8353647091049
 20
-36.8456767169628
 30
0.0
 11
-108.8374933101791
 21
-36.8456767169628
 31
0.0
  0
LINE
  5
523
  8
0
  6
DASHED
 62
     7
 10
-121.8353647091049
 20
-43.3456767169628
 30
0.0
 11
-121.8353647091049
 21
-44.8456767169628
 31
0.0
  0
LINE
  5
524
  8
0
  6
DASHED2
 62
     7
 10
-148.1353525020737
 20
-98.3456767169628
 30
0.0
 11
-136.1353525020737
 21
-98.3456767169628
 31
0.0
  0
LINE
  5
525
  8
0
  6
DASHED2
 62
     7
 10
-136.1353525020737
 20
-98.3456767169628
 30
0.0
 11
-136.1353525020737
 21
-123.3456767169628
 31
0.0
  0
LINE
  5
526
  8
0
  6
DASHED2
 62
     7
 10
-148.1353525020737
 20
-98.3456767169628
 30
0.0
 11
-148.1353525020737
 21
-123.3456767169628
 31
0.0
  0
LINE
  5
527
  8
0
  6
DASHED2
 62
     7
 10
-136.9853525020737
 20
-91.3456767169628
 30
0.0
 11
-136.9853525020737
 21
-123.3456767169628
 31
0.0
  0
LINE
  5
528
  8
0
  6
DASHED2
 62
     7
 10
-147.2853525020737
 20
-91.3456767169628
 30
0.0
 11
-147.2853525020737
 21
-123.3456767169628
 31
0.0
  0
LINE
  5
529
  8
0
  6
DASHED2
 62
     7
 10
-147.2853525020737
 20
-91.3456767169628
 30
0.0
 11
-136.9853525020737
 21
-91.3456767169628
 31
0.0
  0
LINE
  5
52A
  8
0
  6
DASHED2
 62
     7
 10
-136.9853525020738
 20
-91.34567671696273
 30
0.0
 11
-142.1353525020738
 21
-88.37232283063617
 31
0.0
  0
LINE
  5
52B
  8
0
  6
DASHED2
 62
     7
 10
-147.2853525020736
 20
-91.34567671696273
 30
0.0
 11
-142.1353525020736
 21
-88.37232283063617
 31
0.0
  0
LINE
  5
52C
  8
0
  6
DASHED2
 62
     7
 10
-91.83536470910494
 20
173.6543309124317
 30
0.0
 11
-91.83536470910494
 21
165.2151826184064
 31
0.0
  0
LINE
  5
52D
  8
0
  6
DASHED2
 62
     7
 10
-91.83536470910518
 20
173.654330912432
 30
0.0
 11
-94.83536470910481
 21
176.6543309124316
 31
0.0
  0
LINE
  5
52E
  8
0
  6
DASHED2
 62
     7
 10
231.4830494399409
 20
84.03419625935332
 30
0.0
 11
225.4830494399409
 21
94.42650110476659
 31
0.0
  0
LINE
  5
52F
  8
0
  6
DASHED2
 62
     7
 10
224.9958716134498
 20
81.27031785257007
 30
0.0
 11
219.8458716134498
 21
90.19037951154978
 31
0.0
  0
LINE
  5
530
  8
0
  6
DASHED2
 62
     7
 10
219.8458716134498
 20
90.19037951154967
 30
0.0
 11
219.8458716134498
 21
84.24367173889657
 31
0.0
  0
LINE
  5
531
  8
0
  6
DASHED2
 62
     7
 10
224.9958716134497
 20
81.27031785257016
 30
0.0
 11
219.8458716134497
 21
84.24367173889671
 31
0.0
  0
LINE
  5
532
  8
0
  6
DASHED2
 62
     7
 10
225.4830494399409
 20
94.42650110476659
 30
0.0
 11
247.1336845345518
 21
106.9265011047666
 31
0.0
  0
LINE
  5
533
  8
0
  6
DASHED2
 62
     7
 10
231.4830494399409
 20
84.03419625935332
 30
0.0
 11
253.1336845345518
 21
96.53419625935329
 31
0.0
  0
LINE
  5
534
  8
0
  6
DASHED2
 62
     7
 10
219.8458716134498
 20
90.19037951154978
 30
0.0
 11
247.5586845345518
 21
106.1903795115498
 31
0.0
  0
LINE
  5
535
  8
0
  6
DASHED2
 62
     7
 10
224.9958716134498
 20
81.27031785257007
 30
0.0
 11
252.7086845345518
 21
97.27031785257007
 31
0.0
  0
LINE
  5
536
  8
0
  6
CONTINUOUS
 62
     4
 10
-89.83536470910494
 20
176.6543309124317
 30
0.0
 11
-89.83536470910494
 21
153.6543309124317
 31
0.0
  0
LINE
  5
537
  8
0
  6
CONTINUOUS
 62
     4
 10
-194.8353647091049
 20
-38.54567366520499
 30
0.0
 11
-186.8353647091049
 21
-38.54567366520499
 31
0.0
  0
LINE
  5
538
  8
0
  6
CONTINUOUS
 62
     4
 10
-194.8353647091049
 20
91.85432023127939
 30
0.0
 11
-175.8353647091049
 21
91.85432023127939
 31
0.0
  0
LINE
  5
539
  8
0
  6
CONTINUOUS
 62
     4
 10
-186.4853586055893
 20
-32.3456767169628
 30
0.0
 11
-186.4853586055893
 21
-43.3456767169628
 31
0.0
  0
LINE
  5
53A
  8
0
  6
CONTINUOUS
 62
     4
 10
-183.1853708126205
 20
-32.3456767169628
 30
0.0
 11
-183.1853708126205
 21
-43.3456767169628
 31
0.0
  0
LINE
  5
53B
  8
0
  6
CONTINUOUS
 62
     4
 10
-182.8353647091049
 20
-38.54567366520499
 30
0.0
 11
-175.8353647091049
 21
-38.54567366520499
 31
0.0
  0
LINE
  5
53C
  8
0
  6
CONTINUOUS
 62
     4
 10
-108.9045956223285
 20
-63.7703593474844
 30
0.0
 11
-102.1663636862663
 21
-59.88003975514678
 31
0.0
  0
LINE
  5
53D
  8
0
  6
CONTINUOUS
 62
     4
 10
-108.9045930582891
 20
-61.87708121464007
 30
0.0
 11
-94.87654275704912
 21
-69.97617893746261
 31
0.0
  0
LINE
  5
53E
  8
0
  6
CONTINUOUS
 62
     4
 10
-108.904591429377
 20
-60.14502254541608
 30
0.0
 11
-94.87654773538688
 21
-68.24411645354158
 31
0.0
  0
LINE
  5
53F
  8
0
  6
CONTINUOUS
 62
     4
 10
-106.4806061119144
 20
-59.81247778566777
 30
0.0
 11
-94.87656415781575
 21
-66.51207379137
 31
0.0
  0
LINE
  5
540
  8
0
  6
CONTINUOUS
 62
     4
 10
-103.7204947375381
 20
-59.67396023525603
 30
0.0
 11
-94.87653889245721
 21
-64.78001995898731
 31
0.0
  0
LINE
  5
541
  8
0
  6
CONTINUOUS
 62
     4
 10
-101.2649422619366
 20
-59.35962316141129
 30
0.0
 11
-94.87653777461728
 21
-63.04796980436166
 31
0.0
  0
LINE
  5
542
  8
0
  6
CONTINUOUS
 62
     4
 10
-108.9045974797539
 20
-63.60912946191721
 30
0.0
 11
-96.88451352288425
 21
-70.54892740337553
 31
0.0
  0
LINE
  5
543
  8
0
  6
CONTINUOUS
 62
     4
 10
-108.9045985975939
 20
-65.34117961654286
 30
0.0
 11
-100.1623151126772
 21
-70.38853878224953
 31
0.0
  0
LINE
  5
544
  8
0
  6
CONTINUOUS
 62
     4
 10
-108.904596922881
 20
-67.07324019311537
 30
0.0
 11
-104.054941630644
 21
-69.87318967222146
 31
0.0
  0
LINE
  5
545
  8
0
  6
CONTINUOUS
 62
     4
 10
-108.9045848262213
 20
-68.8052979771351
 30
0.0
 11
-106.3368225448394
 21
-70.28779605771663
 31
0.0
  0
LINE
  5
546
  8
0
  6
CONTINUOUS
 62
     4
 10
-108.9045978081135
 20
-65.50241140945857
 30
0.0
 11
-98.67307325098362
 21
-59.59523860481525
 31
0.0
  0
LINE
  5
547
  8
0
  6
CONTINUOUS
 62
     4
 10
-108.904567196068
 20
-67.23444398499444
 30
0.0
 11
-95.81573745613193
 21
-59.67760544615933
 31
0.0
  0
LINE
  5
548
  8
0
  6
CONTINUOUS
 62
     4
 10
-108.9045759891027
 20
-68.96649986166565
 30
0.0
 11
-94.74812039494415
 21
-60.79326731660174
 31
0.0
  0
LINE
  5
549
  8
0
  6
CONTINUOUS
 62
     4
 10
-108.9045781748877
 20
-70.69855192363983
 30
0.0
 11
-94.57147114965616
 21
-62.42332963856123
 31
0.0
  0
LINE
  5
54A
  8
0
  6
CONTINUOUS
 62
     4
 10
-105.3435096173212
 20
-70.37462126290237
 30
0.0
 11
-94.53145887688291
 21
-64.1322815470842
 31
0.0
  0
LINE
  5
54B
  8
0
  6
CONTINUOUS
 62
     4
 10
-101.9974164471073
 20
-70.17480228137654
 30
0.0
 11
-94.60977114115801
 21
-65.90954374654328
 31
0.0
  0
LINE
  5
54C
  8
0
  6
CONTINUOUS
 62
     4
 10
-98.55411646393029
 20
-69.91886312883642
 30
0.0
 11
-94.53032775515882
 21
-67.59572789132952
 31
0.0
  0
LINE
  5
54D
  8
0
  6
CONTINUOUS
 62
     4
 10
-96.13560092717077
 20
-70.25458348692908
 30
0.0
 11
-94.56918056986021
 21
-69.35021037188861
 31
0.0
  0
LINE
  5
54E
  8
0
  6
CONTINUOUS
 62
     4
 10
-90.83536470910494
 20
176.6543309124317
 30
0.0
 11
-90.83536470910494
 21
153.6543309124317
 31
0.0
  0
LINE
  5
54F
  8
0
  6
CONTINUOUS
 62
     4
 10
-90.83536470910494
 20
96.6543232830372
 30
0.0
 11
-90.83536470910494
 21
95.6543232830372
 31
0.0
  0
LINE
  5
550
  8
0
  6
CONTINUOUS
 62
     4
 10
-89.83536470910494
 20
96.6543232830372
 30
0.0
 11
-89.83536470910494
 21
95.6543232830372
 31
0.0
  0
LINE
  5
551
  8
0
  6
CONTINUOUS
 62
     4
 10
-214.8353647091049
 20
-52.04567366520499
 30
0.0
 11
-170.8353647091049
 21
-52.04567366520499
 31
0.0
  0
LINE
  5
552
  8
0
  6
CONTINUOUS
 62
     4
 10
-214.8353647091049
 20
-66.04567366520499
 30
0.0
 11
-170.8353647091049
 21
-66.04567366520499
 31
0.0
  0
LINE
  5
553
  8
0
  6
CONTINUOUS
 62
     4
 10
-219.6353525020737
 20
-29.3456767169628
 30
0.0
 11
-201.4968026973862
 21
-29.3456767169628
 31
0.0
  0
LINE
  5
554
  8
0
  6
CONTINUOUS
 62
     4
 10
-219.6353677608627
 20
82.6543232830372
 30
0.0
 11
-201.4968026973862
 21
82.6543232830372
 31
0.0
  0
LINE
  5
555
  8
0
  6
CONTINUOUS
 62
     4
 10
-218.8353647091049
 20
-28.54567557255362
 30
0.0
 11
-201.8353647091049
 21
-28.54567557255362
 31
0.0
  0
LINE
  5
556
  8
0
  6
CONTINUOUS
 62
     4
 10
-218.8353647091049
 20
81.85432023127939
 30
0.0
 11
-201.8353647091049
 21
81.85432023127939
 31
0.0
  0
LINE
  5
557
  8
0
  6
CONTINUOUS
 62
     4
 10
-105.8353647091049
 20
-37.8456767169628
 30
0.0
 11
-91.83536470910494
 21
-37.8456767169628
 31
0.0
  0
LINE
  5
558
  8
0
  6
CONTINUOUS
 62
     4
 10
-105.8353647091049
 20
-43.8456767169628
 30
0.0
 11
-91.83536470910494
 21
-43.8456767169628
 31
0.0
  0
LINE
  5
559
  8
0
  6
CONTINUOUS
 62
     4
 10
-77.10226593008437
 20
100.341196887832
 30
0.0
 11
-66.80227209492668
 21
106.2879004442085
 31
0.0
  0
LINE
  5
55A
  8
0
  6
CONTINUOUS
 62
     4
 10
-77.10227328184155
 20
135.5442124721215
 30
0.0
 11
-66.8022777948714
 21
141.4909169821723
 31
0.0
  0
LINE
  5
55B
  8
0
  6
CONTINUOUS
 62
     4
 10
-75.85032972441249
 20
99.33195171331718
 30
0.0
 11
-66.8022693252743
 21
104.5558512432571
 31
0.0
  0
LINE
  5
55C
  8
0
  6
CONTINUOUS
 62
     4
 10
-77.1022670479243
 20
102.0732470424577
 30
0.0
 11
-69.2573042496052
 21
106.602537925445
 31
0.0
  0
LINE
  5
55D
  8
0
  6
CONTINUOUS
 62
     4
 10
-77.10226816576423
 20
103.8052971970833
 30
0.0
 11
-72.25730402089639
 21
106.6025382412923
 31
0.0
  0
LINE
  5
55E
  8
0
  6
CONTINUOUS
 62
     4
 10
-72.85032830130885
 20
99.33195235114417
 30
0.0
 11
-66.80227316287173
 21
102.8237982276087
 31
0.0
  0
LINE
  5
55F
  8
0
  6
CONTINUOUS
 62
     4
 10
-77.10226649105138
 20
105.5373577736558
 30
0.0
 11
-75.25731091050952
 21
106.6025432570408
 31
0.0
  0
LINE
  5
560
  8
0
  6
CONTINUOUS
 62
     4
 10
-69.85032636713308
 20
99.33194447437282
 30
0.0
 11
-66.80226988214722
 21
101.0917405120589
 31
0.0
  0
LINE
  5
561
  8
0
  6
CONTINUOUS
 62
     4
 10
-77.10227668116212
 20
137.276243690202
 30
0.0
 11
-69.10362264487966
 21
141.8942682409961
 31
0.0
  0
LINE
  5
562
  8
0
  6
CONTINUOUS
 62
     4
 10
-75.69663820881223
 20
134.6236877509138
 30
0.0
 11
-66.80227565488721
 21
139.7588497983499
 31
0.0
  0
LINE
  5
563
  8
0
  6
CONTINUOUS
 62
     4
 10
-77.10227551752141
 20
139.0083127813728
 30
0.0
 11
-72.10362674194002
 21
141.8942836786915
 31
0.0
  0
LINE
  5
564
  8
0
  6
CONTINUOUS
 62
     4
 10
-72.69664174114595
 20
134.623685527718
 30
0.0
 11
-66.8022811442971
 21
138.0267958290272
 31
0.0
  0
LINE
  5
565
  8
0
  6
CONTINUOUS
 62
     4
 10
-77.10226900596726
 20
140.7403497214989
 30
0.0
 11
-75.10362218746204
 21
141.8942688726906
 31
0.0
  0
LINE
  5
566
  8
0
  6
CONTINUOUS
 62
     4
 10
-69.69665290287375
 20
134.6236965190219
 30
0.0
 11
-66.80228765585125
 21
136.2947588889012
 31
0.0
  0
LINE
  5
567
  8
0
  6
CONTINUOUS
 62
     4
 10
-77.10225014449142
 20
141.7007745971755
 30
0.0
 11
-66.80226126477109
 21
135.7540739018218
 31
0.0
  0
LINE
  5
568
  8
0
  6
CONTINUOUS
 62
     4
 10
-77.10225587903719
 20
106.078003926417
 30
0.0
 11
-66.80226699931686
 21
100.1313032310634
 31
0.0
  0
LINE
  5
569
  8
0
  6
CONTINUOUS
 62
     4
 10
-75.01077659385337
 20
106.6025299218652
 30
0.0
 11
-66.80227299979887
 21
101.8633486857877
 31
0.0
  0
LINE
  5
56A
  8
0
  6
CONTINUOUS
 62
     4
 10
-77.10227453714592
 20
104.3459462793373
 30
0.0
 11
-68.41775823736802
 21
99.33193900983608
 31
0.0
  0
LINE
  5
56B
  8
0
  6
CONTINUOUS
 62
     4
 10
-72.01077961511496
 20
106.6025406596593
 30
0.0
 11
-66.80227137088681
 21
103.5954073550117
 31
0.0
  0
LINE
  5
56C
  8
0
  6
CONTINUOUS
 62
     4
 10
-77.1022685366639
 20
102.613900824613
 30
0.0
 11
-71.41774758671235
 21
99.33194148654158
 31
0.0
  0
LINE
  5
56D
  8
0
  6
CONTINUOUS
 62
     4
 10
-69.01077705127099
 20
106.6025305535597
 30
0.0
 11
-66.80227737136883
 21
105.3274528097361
 31
0.0
  0
LINE
  5
56E
  8
0
  6
CONTINUOUS
 62
     4
 10
-77.10227016557596
 20
100.881842155389
 30
0.0
 11
-74.41775777995039
 21
99.33193837814153
 31
0.0
  0
LINE
  5
56F
  8
0
  6
CONTINUOUS
 62
     4
 10
-77.10224795870644
 20
139.9687225352013
 30
0.0
 11
-67.84436112717057
 21
134.6236796714177
 31
0.0
  0
LINE
  5
570
  8
0
  6
CONTINUOUS
 62
     4
 10
-74.43737669110314
 20
141.8942601614999
 30
0.0
 11
-66.80227005780589
 21
137.486129778493
 31
0.0
  0
LINE
  5
571
  8
0
  6
CONTINUOUS
 62
     4
 10
-71.43737031256214
 20
141.8942566626501
 30
0.0
 11
-66.80225242184142
 21
139.2181703963761
 31
0.0
  0
LINE
  5
572
  8
0
  6
CONTINUOUS
 62
     4
 10
-77.1022589874211
 20
138.2366781026212
 30
0.0
 11
-70.84434768396213
 21
134.6236717261763
 31
0.0
  0
LINE
  5
573
  8
0
  6
CONTINUOUS
 62
     4
 10
-68.43736393402114
 20
141.8942531638004
 30
0.0
 11
-66.8022546076264
 21
140.9502224583502
 31
0.0
  0
LINE
  5
574
  8
0
  6
CONTINUOUS
 62
     4
 10
-77.10225680163612
 20
136.504626040647
 30
0.0
 11
-73.84436066975295
 21
134.6236790397231
 31
0.0
  0
LINE
  5
575
  8
0
  6
CONTINUOUS
 62
     4
 10
98.77376615027008
 20
97.1543232830372
 30
0.0
 11
109.2737661502701
 21
97.1543232830372
 31
0.0
  0
LINE
  5
576
  8
0
  6
CONTINUOUS
 62
     4
 10
131.2737661502701
 20
97.1543232830372
 30
0.0
 11
141.7737661502701
 21
97.1543232830372
 31
0.0
  0
LINE
  5
577
  8
0
  6
CONTINUOUS
 62
     4
 10
98.77376615027008
 20
98.6543232830372
 30
0.0
 11
109.2737661502701
 21
98.6543232830372
 31
0.0
  0
LINE
  5
578
  8
0
  6
CONTINUOUS
 62
     4
 10
98.77376615027008
 20
100.1543232830372
 30
0.0
 11
109.2737661502701
 21
100.1543232830372
 31
0.0
  0
LINE
  5
579
  8
0
  6
CONTINUOUS
 62
     4
 10
131.2737661502701
 20
98.6543232830372
 30
0.0
 11
141.7737661502701
 21
98.6543232830372
 31
0.0
  0
LINE
  5
57A
  8
0
  6
CONTINUOUS
 62
     4
 10
131.2737661502701
 20
100.1543232830372
 30
0.0
 11
141.7737661502701
 21
100.1543232830372
 31
0.0
  0
CIRCLE
  5
57B
  8
0
  6
CONTINUOUS
 62
     4
 10
178.7304922244888
 20
60.4043232830372
 30
0.0
 40
3.0
  0
CIRCLE
  5
57C
  8
0
  6
CONTINUOUS
 62
     4
 10
61.81704007605131
 20
60.4043232830372
 30
0.0
 40
3.0
  0
ARC
  5
57D
  8
0
  6
CONTINUOUS
 62
     4
 10
120.2737661502701
 20
26.65432519038583
 30
0.0
 40
81.0
 50
24.44376147333116
 51
35.55623678122637
  0
ARC
  5
57E
  8
0
  6
CONTINUOUS
 62
     4
 10
120.2737661502701
 20
26.65432519038583
 30
0.0
 40
93.0
 50
23.04715342015092
 51
36.95283971176472
  0
ARC
  5
57F
  8
0
  6
CONTINUOUS
 62
     4
 10
120.2737661502701
 20
26.65432519038583
 30
0.0
 40
99.0
 50
18.5933492793784
 51
41.40664556008455
  0
ARC
  5
580
  8
0
  6
CONTINUOUS
 62
     4
 10
120.2737661502701
 20
26.65432519038583
 30
0.0
 40
81.0
 50
144.4437887182975
 51
155.5562606110981
  0
ARC
  5
581
  8
0
  6
CONTINUOUS
 62
     4
 10
120.2737661502701
 20
26.65432519038583
 30
0.0
 40
87.0
 50
178.2725818659684
 51
193.986565862985
  0
ARC
  5
582
  8
0
  6
CONTINUOUS
 62
     4
 10
120.2737661502701
 20
26.65432519038583
 30
0.0
 40
93.0
 50
143.0471789575699
 51
156.9528703718256
  0
ARC
  5
583
  8
0
  6
CONTINUOUS
 62
     4
 10
120.2737661502701
 20
26.65432519038583
 30
0.0
 40
99.0
 50
138.5933765243447
 51
161.4066864654292
  0
ARC
  5
584
  8
0
  6
CONTINUOUS
 62
     4
 10
120.2737661502701
 20
26.65432519038583
 30
0.0
 40
99.0
 50
344.0296653430546
 51
371.4066455790322
  0
ARC
  5
585
  8
0
  6
CONTINUOUS
 62
     4
 10
120.2737661502701
 20
26.65432519038583
 30
0.0
 40
93.0
 50
344.9552498906924
 51
366.9528439995805
  0
ARC
  5
586
  8
0
  6
CONTINUOUS
 62
     4
 10
120.2737661502701
 20
26.65432519038583
 30
0.0
 40
87.0
 50
346.0133956035154
 51
360.3830373821803
  0
ARC
  5
587
  8
0
  6
CONTINUOUS
 62
     4
 10
120.2737661502701
 20
26.65432519038583
 30
0.0
 40
81.0
 50
347.2352857101794
 51
365.5562376539476
  0
ARC
  5
588
  8
0
  6
CONTINUOUS
 62
     4
 10
120.2737661502701
 20
26.65432519038583
 30
0.0
 40
81.0
 50
174.4437827229344
 51
192.7646723412263
  0
ARC
  5
589
  8
0
  6
CONTINUOUS
 62
     4
 10
120.2737661502701
 20
26.65432519038583
 30
0.0
 40
93.0
 50
173.0471729622068
 51
195.0447124295817
  0
ARC
  5
58A
  8
0
  6
CONTINUOUS
 62
     4
 10
120.2737661502701
 20
26.65432519038583
 30
0.0
 40
99.0
 50
168.5933568686033
 51
195.9702986847668
  0
LINE
  5
58B
  8
0
  6
CONTINUOUS
 62
     4
 10
98.77376615027008
 20
101.6543232830372
 30
0.0
 11
109.2737661502701
 21
101.6543232830372
 31
0.0
  0
LINE
  5
58C
  8
0
  6
CONTINUOUS
 62
     4
 10
98.77376615027008
 20
103.1543232830372
 30
0.0
 11
109.2737661502701
 21
103.1543232830372
 31
0.0
  0
LINE
  5
58D
  8
0
  6
CONTINUOUS
 62
     4
 10
98.77376615027008
 20
104.6543232830372
 30
0.0
 11
109.2737661502701
 21
104.6543232830372
 31
0.0
  0
LINE
  5
58E
  8
0
  6
CONTINUOUS
 62
     4
 10
131.2737661502701
 20
101.6543232830372
 30
0.0
 11
141.7737661502701
 21
101.6543232830372
 31
0.0
  0
LINE
  5
58F
  8
0
  6
CONTINUOUS
 62
     4
 10
131.2737661502701
 20
103.1543232830372
 30
0.0
 11
141.7737661502701
 21
103.1543232830372
 31
0.0
  0
LINE
  5
590
  8
0
  6
CONTINUOUS
 62
     4
 10
131.2737661502701
 20
104.6543232830372
 30
0.0
 11
141.7737661502701
 21
104.6543232830372
 31
0.0
  0
ARC
  5
591
  8
0
  6
CONTINUOUS
 62
     4
 10
120.2737661502701
 20
26.65432519038583
 30
0.0
 40
87.0
 50
58.8712446074158
 51
73.98660350481576
  0
ARC
  5
592
  8
0
  6
CONTINUOUS
 62
     4
 10
120.2737661502701
 20
26.65432519038583
 30
0.0
 40
81.0
 50
264.4437342283649
 51
275.5562471023005
  0
ARC
  5
593
  8
0
  6
CONTINUOUS
 62
     4
 10
120.2737661502701
 20
26.65432519038583
 30
0.0
 40
87.0
 50
299.6606677021925
 51
313.9866069957007
  0
ARC
  5
594
  8
0
  6
CONTINUOUS
 62
     4
 10
120.2737661502701
 20
26.65432519038583
 30
0.0
 40
93.0
 50
263.0471312978265
 51
276.9528500328389
  0
ARC
  5
595
  8
0
  6
CONTINUOUS
 62
     4
 10
120.2737661502701
 20
26.65432519038583
 30
0.0
 40
99.0
 50
258.5933083740337
 51
281.4066729566316
  0
CIRCLE
  5
596
  8
0
  6
CONTINUOUS
 62
     4
 10
120.2737661502701
 20
-40.8456767169628
 30
0.0
 40
3.0
  0
ARC
  5
597
  8
0
  6
CONTINUOUS
 62
     4
 10
120.2737661502701
 20
26.65432519038583
 30
0.0
 40
99.0
 50
288.5933433598058
 51
316.8634416929751
  0
ARC
  5
598
  8
0
  6
CONTINUOUS
 62
     4
 10
120.2737661502701
 20
26.65432519038583
 30
0.0
 40
93.0
 50
293.0471594534092
 51
315.9991973667258
  0
ARC
  5
599
  8
0
  6
CONTINUOUS
 62
     4
 10
120.2737661502701
 20
26.65432519038583
 30
0.0
 40
81.0
 50
294.4437760443259
 51
312.7647168890367
  0
LINE
  5
59A
  8
0
  6
CONTINUOUS
 62
     4
 10
131.2737661502701
 20
175.1543309124317
 30
0.0
 11
141.7737661502701
 21
175.1543309124317
 31
0.0
  0
LINE
  5
59B
  8
0
  6
CONTINUOUS
 62
     4
 10
98.77376615027008
 20
175.1543309124317
 30
0.0
 11
109.2737661502701
 21
175.1543309124317
 31
0.0
  0
LINE
  5
59C
  8
0
  6
CONTINUOUS
 62
     4
 10
131.2737661502701
 20
173.6543309124317
 30
0.0
 11
141.7737661502701
 21
173.6543309124317
 31
0.0
  0
LINE
  5
59D
  8
0
  6
CONTINUOUS
 62
     4
 10
131.2737661502701
 20
172.1543309124317
 30
0.0
 11
141.7737661502701
 21
172.1543309124317
 31
0.0
  0
LINE
  5
59E
  8
0
  6
CONTINUOUS
 62
     4
 10
131.2737661502701
 20
170.6543309124317
 30
0.0
 11
141.7737661502701
 21
170.6543309124317
 31
0.0
  0
LINE
  5
59F
  8
0
  6
CONTINUOUS
 62
     4
 10
131.2737661502701
 20
169.1543309124317
 30
0.0
 11
141.7737661502701
 21
169.1543309124317
 31
0.0
  0
LINE
  5
5A0
  8
0
  6
CONTINUOUS
 62
     4
 10
131.2737661502701
 20
167.6543309124317
 30
0.0
 11
141.7737661502701
 21
167.6543309124317
 31
0.0
  0
LINE
  5
5A1
  8
0
  6
CONTINUOUS
 62
     4
 10
98.77376615027008
 20
173.6543309124317
 30
0.0
 11
109.2737661502701
 21
173.6543309124317
 31
0.0
  0
LINE
  5
5A2
  8
0
  6
CONTINUOUS
 62
     4
 10
98.77376615027008
 20
172.1543309124317
 30
0.0
 11
109.2737661502701
 21
172.1543309124317
 31
0.0
  0
LINE
  5
5A3
  8
0
  6
CONTINUOUS
 62
     4
 10
98.77376615027008
 20
170.6543309124317
 30
0.0
 11
109.2737661502701
 21
170.6543309124317
 31
0.0
  0
LINE
  5
5A4
  8
0
  6
CONTINUOUS
 62
     4
 10
98.77376615027008
 20
169.1543309124317
 30
0.0
 11
109.2737661502701
 21
169.1543309124317
 31
0.0
  0
LINE
  5
5A5
  8
0
  6
CONTINUOUS
 62
     4
 10
98.77376615027008
 20
167.6543309124317
 30
0.0
 11
109.2737661502701
 21
167.6543309124317
 31
0.0
  0
LINE
  5
5A6
  8
0
  6
CONTINUOUS
 62
     4
 10
-108.8353647091049
 20
102.5043217571583
 30
0.0
 11
-77.83536470910494
 21
102.5043217571583
 31
0.0
  0
LINE
  5
5A7
  8
0
  6
CONTINUOUS
 62
     4
 10
-108.8353647091049
 20
112.8043248089161
 30
0.0
 11
-77.83536470910494
 21
112.8043248089161
 31
0.0
  0
LINE
  5
5A8
  8
0
  6
CONTINUOUS
 62
     4
 10
-108.8353647091049
 20
147.8043248089161
 30
0.0
 11
-77.83536470910494
 21
147.8043248089161
 31
0.0
  0
LINE
  5
5A9
  8
0
  6
CONTINUOUS
 62
     4
 10
-108.8353647091049
 20
137.5043370159474
 30
0.0
 11
-77.83536470910494
 21
137.5043370159474
 31
0.0
  0
ARC
  5
5AA
  8
0
  6
CONTINUOUS
 62
     4
 10
120.2737661502701
 20
26.65432519038583
 30
0.0
 40
99.0
 50
104.0296823427371
 51
131.406678800414
  0
ARC
  5
5AB
  8
0
  6
CONTINUOUS
 62
     4
 10
120.2737661502701
 20
26.65432519038583
 30
0.0
 40
93.0
 50
104.9552685979222
 51
126.9528763671887
  0
ARC
  5
5AC
  8
0
  6
CONTINUOUS
 62
     4
 10
120.2737661502701
 20
26.65432519038583
 30
0.0
 40
87.0
 50
106.0134151645189
 51
121.2617441846807
  0
ARC
  5
5AD
  8
0
  6
CONTINUOUS
 62
     4
 10
120.2737661502701
 20
26.65432519038583
 30
0.0
 40
81.0
 50
107.2353018560883
 51
125.5562666064612
  0
ARC
  5
5AE
  8
0
  6
CONTINUOUS
 62
     4
 10
120.2737661502701
 20
26.65432519038583
 30
0.0
 40
81.0
 50
54.44375547796805
 51
72.76471681324634
  0
ARC
  5
5AF
  8
0
  6
CONTINUOUS
 62
     4
 10
120.2737661502701
 20
26.65432519038583
 30
0.0
 40
93.0
 50
53.04715254742969
 51
75.04475007141248
  0
ARC
  5
5B0
  8
0
  6
CONTINUOUS
 62
     4
 10
120.2737661502701
 20
26.65432519038583
 30
0.0
 40
99.0
 50
48.59334669910987
 51
75.97033632659759
  0
ARC
  5
5B1
  8
0
  6
CONTINUOUS
 62
     4
 10
120.2737661502701
 20
26.65432519038583
 30
0.0
 40
81.0
 50
227.2352746869124
 51
245.5562052863394
  0
ARC
  5
5B2
  8
0
  6
CONTINUOUS
 62
     4
 10
120.2737661502701
 20
26.65432519038583
 30
0.0
 40
87.0
 50
226.0133811651538
 51
240.9366614827146
  0
ARC
  5
5B3
  8
0
  6
CONTINUOUS
 62
     4
 10
120.2737661502701
 20
26.65432519038583
 30
0.0
 40
93.0
 50
224.9552345985571
 51
246.9528218772561
  0
ARC
  5
5B4
  8
0
  6
CONTINUOUS
 62
     4
 10
120.2737661502701
 20
26.65432519038583
 30
0.0
 40
99.0
 50
224.029648343372
 51
251.4066379708597
  0
LINE
  5
5B5
  8
0
  6
DIVIDE
 62
     9
 10
-181.8353647091049
 20
-33.2591403094921
 30
0.0
 11
-181.8353647091049
 21
-42.3456767169628
 31
0.0
  0
LINE
  5
5B6
  8
0
  6
DIVIDE
 62
     9
 10
-207.8353647091049
 20
-33.2591403094921
 30
0.0
 11
-207.8353647091049
 21
-42.3456767169628
 31
0.0
  0
LINE
  5
5B7
  8
0
  6
DIVIDE
 62
     9
 10
-181.8353569324277
 20
-42.34567212957066
 30
0.0
 11
-181.1312496702063
 21
-43.0497793917921
 31
0.0
  0
LINE
  5
5B8
  8
0
  6
DIVIDE
 62
     9
 10
-207.8353413753826
 20
-42.34565055038459
 30
0.0
 11
-207.1599991681902
 21
-43.02099275757703
 31
0.0
  0
INSERT
  5
5B9
  8
LAYER0014
  6
CONTINUOUS
  2
DC_GROUP_1
 10
0.0
 20
0.0
 30
0.0
  0
INSERT
  5
5BA
  8
LAYER0014
  6
CONTINUOUS
  2
DC_GROUP_4
 10
0.0
 20
0.0
 30
0.0
  0
INSERT
  5
5BB
  8
LAYER0014
  6
CONTINUOUS
  2
DC_GROUP_7
 10
0.0
 20
0.0
 30
0.0
  0
INSERT
  5
5BC
  8
LAYER0014
  6
CONTINUOUS
  2
DC_GROUP_10
 10
0.0
 20
0.0
 30
0.0
  0
INSERT
  5
5BD
  8
LAYER0014
  6
CONTINUOUS
  2
DC_GROUP_13
 10
0.0
 20
0.0
 30
0.0
  0
INSERT
  5
5BE
  8
LAYER0014
  6
CONTINUOUS
  2
DC_GROUP_16
 10
0.0
 20
0.0
 30
0.0
  0
INSERT
  5
5BF
  8
LAYER0014
  6
CONTINUOUS
  2
DC_GROUP_19
 10
0.0
 20
0.0
 30
0.0
  0
INSERT
  5
5C0
  8
LAYER0014
  6
CONTINUOUS
  2
DC_GROUP_22
 10
0.0
 20
0.0
 30
0.0
  0
INSERT
  5
5C1
  8
LAYER0014
  6
CONTINUOUS
  2
DC_GROUP_25
 10
0.0
 20
0.0
 30
0.0
  0
INSERT
  5
5C2
  8
LAYER0014
  6
CONTINUOUS
  2
DC_GROUP_28
 10
0.0
 20
0.0
 30
0.0
  0
INSERT
  5
5C3
  8
LAYER0014
  6
CONTINUOUS
  2
DC_GROUP_31
 10
0.0
 20
0.0
 30
0.0
  0
INSERT
  5
5C4
  8
LAYER0014
  6
CONTINUOUS
  2
DC_GROUP_32
 10
0.0
 20
0.0
 30
0.0
  0
INSERT
  5
5C5
  8
LAYER0014
  6
CONTINUOUS
  2
DC_GROUP_35
 10
0.0
 20
0.0
 30
0.0
  0
INSERT
  5
5C6
  8
LAYER0014
  6
CONTINUOUS
  2
DC_GROUP_38
 10
0.0
 20
0.0
 30
0.0
  0
INSERT
  5
5C7
  8
LAYER0014
  6
CONTINUOUS
  2
DC_GROUP_41
 10
0.0
 20
0.0
 30
0.0
  0
INSERT
  5
5C8
  8
LAYER0014
  6
CONTINUOUS
  2
DC_GROUP_44
 10
0.0
 20
0.0
 30
0.0
  0
INSERT
  5
5C9
  8
LAYER0014
  6
CONTINUOUS
  2
DC_GROUP_47
 10
0.0
 20
0.0
 30
0.0
  0
INSERT
  5
5CA
  8
LAYER0014
  6
CONTINUOUS
  2
DC_GROUP_50
 10
0.0
 20
0.0
 30
0.0
  0
INSERT
  5
5CB
  8
LAYER0014
  6
CONTINUOUS
  2
DC_GROUP_53
 10
0.0
 20
0.0
 30
0.0
  0
INSERT
  5
5CC
  8
LAYER0014
  6
CONTINUOUS
  2
DC_GROUP_56
 10
0.0
 20
0.0
 30
0.0
  0
INSERT
  5
5CD
  8
LAYER0014
  6
CONTINUOUS
  2
DC_GROUP_59
 10
0.0
 20
0.0
 30
0.0
  0
INSERT
  5
5CE
  8
LAYER0014
  6
CONTINUOUS
  2
DC_GROUP_62
 10
0.0
 20
0.0
 30
0.0
  0
INSERT
  5
5CF
  8
LAYER0014
  6
CONTINUOUS
  2
DC_GROUP_65
 10
0.0
 20
0.0
 30
0.0
  0
INSERT
  5
5D0
  8
LAYER0014
  6
CONTINUOUS
  2
DC_GROUP_67
 10
0.0
 20
0.0
 30
0.0
  0
INSERT
  5
5D1
  8
LAYER0014
  6
CONTINUOUS
  2
DC_GROUP_69
 10
0.0
 20
0.0
 30
0.0
  0
INSERT
  5
5D2
  8
LAYER0014
  6
CONTINUOUS
  2
DC_GROUP_72
 10
0.0
 20
0.0
 30
0.0
  0
INSERT
  5
5D3
  8
LAYER0014
  6
CONTINUOUS
  2
DC_GROUP_74
 10
0.0
 20
0.0
 30
0.0
  0
INSERT
  5
5D4
  8
LAYER0014
  6
CONTINUOUS
  2
DC_GROUP_76
 10
0.0
 20
0.0
 30
0.0
  0
INSERT
  5
5D5
  8
LAYER0014
  6
CONTINUOUS
  2
DC_GROUP_79
 10
0.0
 20
0.0
 30
0.0
  0
INSERT
  5
5D6
  8
LAYER0014
  6
CONTINUOUS
  2
DC_GROUP_82
 10
0.0
 20
0.0
 30
0.0
  0
INSERT
  5
5D7
  8
LAYER0014
  6
CONTINUOUS
  2
DC_GROUP_84
 10
0.0
 20
0.0
 30
0.0
  0
INSERT
  5
5D8
  8
LAYER0014
  6
CONTINUOUS
  2
DC_GROUP_87
 10
0.0
 20
0.0
 30
0.0
  0
INSERT
  5
5D9
  8
LAYER0014
  6
CONTINUOUS
  2
DC_GROUP_90
 10
0.0
 20
0.0
 30
0.0
  0
INSERT
  5
5DA
  8
LAYER0014
  6
CONTINUOUS
  2
DC_GROUP_92
 10
0.0
 20
0.0
 30
0.0
  0
INSERT
  5
5DB
  8
LAYER0014
  6
CONTINUOUS
  2
DC_GROUP_95
 10
0.0
 20
0.0
 30
0.0
  0
INSERT
  5
5DC
  8
LAYER0014
  6
CONTINUOUS
  2
DC_GROUP_98
 10
0.0
 20
0.0
 30
0.0
  0
INSERT
  5
5DD
  8
LAYER0014
  6
CONTINUOUS
  2
DC_GROUP_101
 10
0.0
 20
0.0
 30
0.0
  0
INSERT
  5
5DE
  8
LAYER0014
  6
CONTINUOUS
  2
DC_GROUP_104
 10
0.0
 20
0.0
 30
0.0
  0
INSERT
  5
5DF
  8
LAYER0014
  6
CONTINUOUS
  2
DC_GROUP_107
 10
0.0
 20
0.0
 30
0.0
  0
INSERT
  5
5E0
  8
LAYER0014
  6
CONTINUOUS
  2
DC_GROUP_110
 10
0.0
 20
0.0
 30
0.0
  0
LINE
  5
5E1
  8
0
  6
CONTINUOUS
 62
     2
 10
53.03063427457734
 20
36.03733562119442
 30
0.0
 11
49.99954127764388
 21
34.28733506985293
 31
0.0
  0
LINE
  5
5E2
  8
0
  6
CONTINUOUS
 62
     2
 10
56.06171719830709
 20
34.28733493197748
 30
0.0
 11
53.03062917392928
 21
36.03733639229128
 31
0.0
  0
LINE
  5
5E3
  8
0
  6
CONTINUOUS
 62
     2
 10
49.99953900793608
 20
34.28733605464365
 30
0.0
 11
49.99953900793608
 21
30.78733605464365
 31
0.0
  0
LINE
  5
5E4
  8
0
  6
CONTINUOUS
 62
     2
 10
49.99954166612216
 20
30.78733440194307
 30
0.0
 11
53.03063031634875
 21
29.03733398471056
 31
0.0
  0
LINE
  5
5E5
  8
0
  6
CONTINUOUS
 62
     2
 10
53.03062770635385
 20
29.03733783039283
 30
0.0
 11
56.06171347018804
 21
30.78733561012015
 31
0.0
  0
LINE
  5
5E6
  8
0
  6
CONTINUOUS
 62
     2
 10
56.06171857336577
 20
30.78733605464365
 30
0.0
 11
56.06171857336577
 21
34.28733605464365
 31
0.0
  0
LINE
  5
5E7
  8
0
  6
CONTINUOUS
 62
     2
 10
187.5169164530654
 20
36.03733548288616
 30
0.0
 11
184.4858267597576
 21
34.28733683889183
 31
0.0
  0
LINE
  5
5E8
  8
0
  6
CONTINUOUS
 62
     2
 10
190.5480001992573
 20
34.28734288680195
 30
0.0
 11
187.5169121748795
 21
36.03734434711575
 31
0.0
  0
LINE
  5
5E9
  8
0
  6
CONTINUOUS
 62
     2
 10
184.4858328006607
 20
34.28733986934091
 30
0.0
 11
184.4858328006607
 21
30.78733796199228
 31
0.0
  0
LINE
  5
5EA
  8
0
  6
CONTINUOUS
 62
     2
 10
184.4858242941331
 20
30.78734130714472
 30
0.0
 11
187.5169129443597
 21
29.0373408899122
 31
0.0
  0
LINE
  5
5EB
  8
0
  6
CONTINUOUS
 62
     2
 10
187.5169213606907
 20
29.03734029973927
 30
0.0
 11
190.5480104281498
 21
30.78733998681489
 31
0.0
  0
LINE
  5
5EC
  8
0
  6
CONTINUOUS
 62
     2
 10
190.5479971073013
 20
30.78733796199228
 30
0.0
 11
190.5479971073013
 21
34.28733605464365
 31
0.0
  0
LINE
  5
5ED
  8
0
  6
CONTINUOUS
 62
     2
 10
158.9901792066956
 20
85.44708373405709
 30
0.0
 11
155.9590895133877
 21
83.69708509006276
 31
0.0
  0
LINE
  5
5EE
  8
0
  6
CONTINUOUS
 62
     2
 10
162.0212653349803
 20
83.69707879198538
 30
0.0
 11
158.9901773106025
 21
85.44708025229917
 31
0.0
  0
LINE
  5
5EF
  8
0
  6
CONTINUOUS
 62
     2
 10
155.9590994022232
 20
83.69708603938486
 30
0.0
 11
155.9590994022232
 21
80.19708603938486
 31
0.0
  0
LINE
  5
5F0
  8
0
  6
CONTINUOUS
 62
     2
 10
155.9590901444284
 20
80.19708359509147
 30
0.0
 11
158.990178794655
 21
78.44708317785896
 31
0.0
  0
LINE
  5
5F1
  8
0
  6
CONTINUOUS
 62
     2
 10
158.9901808024051
 20
78.44708515243335
 30
0.0
 11
162.0212698698642
 21
80.19708483950896
 31
0.0
  0
LINE
  5
5F2
  8
0
  6
CONTINUOUS
 62
     2
 10
162.0212637088638
 20
80.19708603938486
 30
0.0
 11
162.0212637088638
 21
83.69708603938486
 31
0.0
  0
LINE
  5
5F3
  8
0
  6
CONTINUOUS
 62
     2
 10
81.55735560763301
 20
85.4470883383992
 30
0.0
 11
78.52625930707396
 21
83.69708587971056
 31
0.0
  0
LINE
  5
5F4
  8
0
  6
CONTINUOUS
 62
     2
 10
84.58843945771801
 20
83.69708783249754
 30
0.0
 11
81.55735473696396
 21
85.44708738546112
 31
0.0
  0
LINE
  5
5F5
  8
0
  6
CONTINUOUS
 62
     2
 10
78.52626096228178
 20
83.69708603938486
 30
0.0
 11
78.52626096228178
 21
80.19708603938486
 31
0.0
  0
LINE
  5
5F6
  8
0
  6
CONTINUOUS
 62
     2
 10
78.52626153304246
 20
80.19708466403606
 30
0.0
 11
81.55735018326905
 21
78.44708424680354
 31
0.0
  0
LINE
  5
5F7
  8
0
  6
CONTINUOUS
 62
     2
 10
81.55735234233262
 20
78.44708731101648
 30
0.0
 11
84.58844140979173
 21
80.19708699809209
 31
0.0
  0
LINE
  5
5F8
  8
0
  6
CONTINUOUS
 62
     2
 10
84.58844052771147
 20
80.19708603938486
 30
0.0
 11
84.58844052771147
 21
83.69708603938486
 31
0.0
  0
CIRCLE
  5
5F9
  8
0
  6
CONTINUOUS
 62
     2
 10
53.03062879065092
 20
32.53733605464365
 30
0.0
 40
6.5
  0
CIRCLE
  5
5FA
  8
0
  6
CONTINUOUS
 62
     2
 10
187.516914953981
 20
32.53733796199228
 30
0.0
 40
6.5
  0
CIRCLE
  5
5FB
  8
0
  6
CONTINUOUS
 62
     2
 10
158.9901815555435
 20
81.94708603938486
 30
0.0
 40
6.5
  0
CIRCLE
  5
5FC
  8
0
  6
CONTINUOUS
 62
     2
 10
81.55735074499663
 20
81.94708603938486
 30
0.0
 40
6.5
  0
LINE
  5
5FD
  8
0
  6
CONTINUOUS
 62
     2
 10
115.2075037569581
 20
110.5793211770788
 30
0.0
 11
120.2737607021542
 21
113.5043189985235
 31
0.0
  0
LINE
  5
5FE
  8
0
  6
CONTINUOUS
 62
     2
 10
120.2738466115947
 20
113.5044202061708
 30
0.0
 11
125.3400830198647
 21
110.5794174613884
 31
0.0
  0
LINE
  5
5FF
  8
0
  6
CONTINUOUS
 62
     2
 10
125.3400198123795
 20
110.5793187054005
 30
0.0
 11
125.3400198123795
 21
104.7293202312794
 31
0.0
  0
LINE
  5
600
  8
0
  6
CONTINUOUS
 62
     2
 10
125.3400033977509
 20
104.7293082773403
 30
0.0
 11
120.2737464525548
 21
101.8043104558956
 31
0.0
  0
LINE
  5
601
  8
0
  6
CONTINUOUS
 62
     2
 10
120.2737392779576
 20
101.8042896432152
 30
0.0
 11
115.2075011262545
 21
104.729289249818
 31
0.0
  0
LINE
  5
602
  8
0
  6
CONTINUOUS
 62
     2
 10
115.2075124881607
 20
104.7293278606739
 30
0.0
 11
115.2075124881607
 21
110.579326334795
 31
0.0
  0
LINE
  5
603
  8
0
  6
CONTINUOUS
 62
     2
 10
115.2075072890252
 20
145.579316894441
 30
0.0
 11
120.2737642342212
 21
148.5043147158858
 31
0.0
  0
LINE
  5
604
  8
0
  6
CONTINUOUS
 62
     2
 10
120.2738630667126
 20
148.5044674069536
 30
0.0
 11
125.3401126894705
 21
145.5794570327575
 31
0.0
  0
LINE
  5
605
  8
0
  6
CONTINUOUS
 62
     2
 10
125.3400198123795
 20
145.5793187054005
 30
0.0
 11
125.3400198123795
 21
139.7293278606739
 31
0.0
  0
LINE
  5
606
  8
0
  6
CONTINUOUS
 62
     2
 10
125.3399973930918
 20
139.7293205128362
 30
0.0
 11
120.2737404478957
 21
136.8043226913914
 31
0.0
  0
LINE
  5
607
  8
0
  6
CONTINUOUS
 62
     2
 10
120.2737322132938
 20
136.8043024312037
 30
0.0
 11
115.2074940615907
 21
139.7293020378065
 31
0.0
  0
LINE
  5
608
  8
0
  6
CONTINUOUS
 62
     2
 10
115.2075124881607
 20
139.7293278606739
 30
0.0
 11
115.2075124881607
 21
145.5793339641895
 31
0.0
  0
CIRCLE
  5
609
  8
0
  6
CONTINUOUS
 62
     2
 10
120.2737661502701
 20
142.6543309124317
 30
0.0
 40
9.0
  0
LINE
  5
60A
  8
0
  6
CONTINUOUS
 62
     2
 10
215.6665137878376
 20
-28.42068343463509
 30
0.0
 11
220.7327707330336
 21
-25.49568561319032
 31
0.0
  0
LINE
  5
60B
  8
0
  6
CONTINUOUS
 62
     2
 10
220.7327852946605
 20
-25.4956935468845
 30
0.0
 11
225.7990349174183
 21
-28.42070392108056
 31
0.0
  0
LINE
  5
60C
  8
0
  6
CONTINUOUS
 62
     2
 10
225.7990041873795
 20
-28.42068892399405
 30
0.0
 11
225.7990041873795
 21
-34.27069121281241
 31
0.0
  0
LINE
  5
60D
  8
0
  6
CONTINUOUS
 62
     2
 10
225.7989944920877
 20
-34.27069405287423
 30
0.0
 11
220.7327375468917
 21
-37.19569187431901
 31
0.0
  0
LINE
  5
60E
  8
0
  6
CONTINUOUS
 62
     2
 10
220.7327393805603
 20
-37.1956862013358
 30
0.0
 11
215.6664880143648
 21
-34.27067896532756
 31
0.0
  0
LINE
  5
60F
  8
0
  6
CONTINUOUS
 62
     2
 10
215.6664968631607
 20
-34.27067976872061
 30
0.0
 11
215.6664968631607
 21
-28.42067938725089
 31
0.0
  0
LINE
  5
610
  8
0
  6
CONTINUOUS
 62
     2
 10
195.488106360231
 20
-10.92069083134268
 30
0.0
 11
195.488106360231
 21
-16.77068930546378
 31
0.0
  0
CIRCLE
  5
611
  8
0
  6
CONTINUOUS
 62
     2
 10
220.7327505252701
 20
-31.34568434635733
 30
0.0
 40
9.0
  0
LINE
  5
612
  8
0
  6
CONTINUOUS
 62
     2
 10
148.8004975359128
 20
-31.02144809211316
 30
0.0
 11
145.7694078426049
 21
-32.77144673610749
 31
0.0
  0
LINE
  5
613
  8
0
  6
CONTINUOUS
 62
     2
 10
151.8315846375301
 20
-32.77144136499217
 30
0.0
 11
148.8004966131522
 21
-31.02143990467837
 31
0.0
  0
LINE
  5
614
  8
0
  6
CONTINUOUS
 62
     2
 10
145.7694173953873
 20
-32.77145033756827
 30
0.0
 11
145.7694173953873
 21
-36.27145033756827
 31
0.0
  0
LINE
  5
615
  8
0
  6
CONTINUOUS
 62
     2
 10
145.7694166873429
 20
-36.27145246493549
 30
0.0
 11
148.8005053375695
 21
-38.02145288216801
 31
0.0
  0
LINE
  5
616
  8
0
  6
CONTINUOUS
 62
     2
 10
148.8005013143879
 20
-38.02144414493935
 30
0.0
 11
151.831590381847
 21
-36.27144445786374
 31
0.0
  0
LINE
  5
617
  8
0
  6
CONTINUOUS
 62
     2
 10
151.8315817020279
 20
-36.27145033756827
 30
0.0
 11
151.8315817020279
 21
-32.77145033756827
 31
0.0
  0
LINE
  5
618
  8
0
  6
CONTINUOUS
 62
     2
 10
91.74701835101465
 20
-31.02144738598648
 30
0.0
 11
88.71592535408118
 21
-32.77144793732796
 31
0.0
  0
LINE
  5
619
  8
0
  6
CONTINUOUS
 62
     2
 10
94.77811620669732
 20
-32.77144742730414
 30
0.0
 11
91.7470281823195
 21
-31.02144596699034
 31
0.0
  0
LINE
  5
61A
  8
0
  6
CONTINUOUS
 62
     2
 10
88.71593533972319
 20
-32.771446522871
 30
0.0
 11
88.71593533972319
 21
-36.271446522871
 31
0.0
  0
LINE
  5
61B
  8
0
  6
CONTINUOUS
 62
     2
 10
88.71592442349984
 20
-36.27144276186621
 30
0.0
 11
91.74701307372644
 21
-38.02144317909873
 31
0.0
  0
LINE
  5
61C
  8
0
  6
CONTINUOUS
 62
     2
 10
91.74702474450297
 20
-38.02144432850324
 30
0.0
 11
94.77811050833716
 21
-36.27144654877591
 31
0.0
  0
LINE
  5
61D
  8
0
  6
CONTINUOUS
 62
     2
 10
94.77809964636381
 20
-36.271446522871
 30
0.0
 11
94.77809964636381
 21
-32.771446522871
 31
0.0
  0
LINE
  5
61E
  8
0
  6
CONTINUOUS
 62
     2
 10
91.03485201745676
 20
-52.05050974837357
 30
0.0
 11
98.09297123232423
 21
-47.97551270030206
 31
0.0
  0
LINE
  5
61F
  8
0
  6
CONTINUOUS
 62
     2
 10
98.09299077026495
 20
-47.97551474088587
 30
0.0
 11
105.1510865692982
 21
-52.05052237623286
 31
0.0
  0
LINE
  5
620
  8
0
  6
CONTINUOUS
 62
     2
 10
105.1510702274185
 20
-52.05052596012686
 30
0.0
 11
105.1510702274185
 21
-60.2005236713085
 31
0.0
  0
LINE
  5
621
  8
0
  6
CONTINUOUS
 62
     2
 10
105.151056515388
 20
-60.20051263413464
 30
0.0
 11
98.09295051502741
 21
-64.27550229571446
 31
0.0
  0
LINE
  5
622
  8
0
  6
CONTINUOUS
 62
     2
 10
98.09296865293166
 20
-64.27551321575314
 30
0.0
 11
91.03487042501095
 21
-60.20051043818106
 31
0.0
  0
LINE
  5
623
  8
0
  6
CONTINUOUS
 62
     2
 10
91.0348592899185
 20
-60.20050841251944
 30
0.0
 11
91.0348592899185
 21
-52.0505107013378
 31
0.0
  0
CIRCLE
  5
624
  8
0
  6
CONTINUOUS
 62
     2
 10
98.0929647586685
 20
-56.12551527897452
 30
0.0
 40
12.0
  0
LINE
  5
625
  8
0
  6
CONTINUOUS
 62
     2
 10
190.4218501364589
 20
-19.69568759636971
 30
0.0
 11
185.3555987702634
 21
-16.77068036036147
 31
0.0
  0
LINE
  5
626
  8
0
  6
CONTINUOUS
 62
     2
 10
185.3555990360123
 20
-16.77067976872061
 30
0.0
 11
185.3555990360123
 21
-10.92068129459952
 31
0.0
  0
LINE
  5
627
  8
0
  6
CONTINUOUS
 62
     2
 10
55.19196386869695
 20
-16.77067100295292
 30
0.0
 11
50.12570692350088
 21
-19.6956688243977
 31
0.0
  0
LINE
  5
628
  8
0
  6
CONTINUOUS
 62
     2
 10
50.12570983530785
 20
-19.69567101903388
 30
0.0
 11
45.05945846911234
 21
-16.77066378302564
 31
0.0
  0
LINE
  5
629
  8
0
  6
CONTINUOUS
 62
     2
 10
24.88107351349087
 20
-34.27067393887245
 30
0.0
 11
19.81482307230991
 21
-37.19566800523132
 31
0.0
  0
LINE
  5
62A
  8
0
  6
CONTINUOUS
 62
     2
 10
19.81482183236441
 20
-37.19566477111133
 30
0.0
 11
14.7485704661689
 21
-34.27065753510308
 31
0.0
  0
LINE
  5
62B
  8
0
  6
CONTINUOUS
 62
     2
 10
14.74858088777697
 20
-28.42066579864679
 30
0.0
 11
19.81483793621138
 21
-25.49566791759747
 31
0.0
  0
LINE
  5
62C
  8
0
  6
CONTINUOUS
 62
     2
 10
19.8148363166787
 20
-25.495668415133
 30
0.0
 11
24.88108593943653
 21
-28.42067878932906
 31
0.0
  0
LINE
  5
62D
  8
0
  6
CONTINUOUS
 62
     2
 10
45.05946994993989
 20
-10.92066801409468
 30
0.0
 11
50.12572689513596
 21
-7.995670192649898
 31
0.0
  0
LINE
  5
62E
  8
0
  6
CONTINUOUS
 62
     2
 10
50.12572293351823
 20
-7.99566883847095
 30
0.0
 11
55.19197255627606
 21
-10.92067921266701
 31
0.0
  0
LINE
  5
62F
  8
0
  6
CONTINUOUS
 62
     2
 10
185.3556194927391
 20
-10.92067294296797
 30
0.0
 11
190.4218764379352
 21
-7.995675121523194
 31
0.0
  0
LINE
  5
630
  8
0
  6
CONTINUOUS
 62
     2
 10
190.4218780080404
 20
-7.995694966008189
 30
0.0
 11
195.4881276307983
 21
-10.92070534020425
 31
0.0
  0
CIRCLE
  5
631
  8
0
  6
CONTINUOUS
 62
     2
 10
120.2737661502701
 20
107.6543232830372
 30
0.0
 40
9.0
  0
CIRCLE
  5
632
  8
0
  6
CONTINUOUS
 62
     2
 10
50.1257139346939
 20
-13.8456709949169
 30
0.0
 40
9.0
  0
CIRCLE
  5
633
  8
0
  6
CONTINUOUS
 62
     2
 10
190.4218526981217
 20
-13.84568434635733
 30
0.0
 40
9.0
  0
LINE
  5
634
  8
0
  6
CONTINUOUS
 62
     2
 10
195.488121040877
 20
-16.77068914633313
 30
0.0
 11
190.421864095681
 21
-19.6956869677779
 31
0.0
  0
CIRCLE
  5
635
  8
0
  6
CONTINUOUS
 62
     2
 10
148.8004995487076
 20
-34.52145033756827
 30
0.0
 40
6.5
  0
CIRCLE
  5
636
  8
0
  6
CONTINUOUS
 62
     2
 10
91.7470174930435
 20
-34.521446522871
 30
0.0
 40
6.5
  0
LINE
  5
637
  8
0
  6
CONTINUOUS
 62
     2
 10
55.19195996740874
 20
-10.92067747990225
 30
0.0
 11
55.19195996740874
 21
-16.77067595402335
 31
0.0
  0
LINE
  5
638
  8
0
  6
CONTINUOUS
 62
     2
 10
45.05946790197905
 20
-16.77066641728018
 30
0.0
 11
45.05946790197905
 21
-10.92066794315909
 31
0.0
  0
LINE
  5
639
  8
0
  6
CONTINUOUS
 62
     2
 10
24.88107739904936
 20
-28.42067366520499
 30
0.0
 11
24.88107739904936
 21
-34.27067595402335
 31
0.0
  0
LINE
  5
63A
  8
0
  6
CONTINUOUS
 62
     2
 10
14.74857770422515
 20
-34.27066450993155
 30
0.0
 11
14.74857770422515
 21
-28.42066412846182
 31
0.0
  0
CIRCLE
  5
63B
  8
0
  6
CONTINUOUS
 62
     2
 10
19.81482755163725
 20
-31.34566908756827
 30
0.0
 40
9.0
  0
LINE
  5
63C
  8
0
  6
CONTINUOUS
 62
     5
 10
147.3792501590592
 20
-110.3195231525097
 30
0.0
 11
157.3792501590592
 21
-110.3195231525097
 31
0.0
  0
LINE
  5
63D
  8
0
  6
CONTINUOUS
 62
     5
 10
146.3792501590592
 20
-100.3195231525097
 30
0.0
 11
140.3792349002701
 21
-100.3195231525097
 31
0.0
  0
LINE
  5
63E
  8
0
  6
CONTINUOUS
 62
     5
 10
140.3792850988372
 20
-100.319496108901
 30
0.0
 11
141.3792861604267
 21
-99.31949504731145
 31
0.0
  0
LINE
  5
63F
  8
0
  6
CONTINUOUS
 62
     5
 10
140.3791953622701
 20
-100.3195607164376
 30
0.0
 11
141.3791965081534
 21
-101.3195616937333
 31
0.0
  0
LINE
  5
640
  8
0
  6
CONTINUOUS
 62
     5
 10
145.3792100268169
 20
-99.31954979248442
 30
0.0
 11
146.3792111727002
 21
-100.3195507697801
 31
0.0
  0
LINE
  5
641
  8
0
  6
CONTINUOUS
 62
     5
 10
145.3792904067847
 20
-101.3194971704905
 30
0.0
 11
146.3792806787812
 21
-100.319506898494
 31
0.0
  0
LINE
  5
642
  8
0
  6
CONTINUOUS
 62
     5
 10
147.3792501590592
 20
-90.31949263493155
 30
0.0
 11
147.3792501590592
 21
-110.3194926349316
 31
0.0
  0
LINE
  5
643
  8
0
  6
CONTINUOUS
 62
     5
 10
147.3792501590592
 20
-90.31950789372061
 30
0.0
 11
162.3792501590592
 21
-90.31950789372061
 31
0.0
  0
LINE
  5
644
  8
0
  6
CONTINUOUS
 62
     5
 10
162.3792501590592
 20
-90.31950026432608
 30
0.0
 11
162.3792501590592
 21
-93.31950026432608
 31
0.0
  0
LINE
  5
645
  8
0
  6
CONTINUOUS
 62
     5
 10
160.5129090083505
 20
-99.3195269376229
 30
0.0
 11
161.5129209438277
 21
-100.3195387045107
 31
0.0
  0
LINE
  5
646
  8
0
  6
CONTINUOUS
 62
     5
 10
161.5129904499096
 20
-100.319517688087
 30
0.0
 11
162.5129915114991
 21
-99.31951662649752
 31
0.0
  0
LINE
  5
647
  8
0
  6
CONTINUOUS
 62
     5
 10
161.5129324100357
 20
-96.37332564274405
 30
0.0
 11
161.5129324100357
 21
-100.3194926349316
 31
0.0
  0
LINE
  5
648
  8
0
  6
CONTINUOUS
 62
     5
 10
160.8792501590592
 20
-93.31950789372061
 30
0.0
 11
162.3792349002701
 21
-93.31950789372061
 31
0.0
  0
LINE
  5
649
  8
0
  6
CONTINUOUS
 62
     5
 10
160.8792501590592
 20
-93.31949263493155
 30
0.0
 11
160.8792501590592
 21
-95.31949263493155
 31
0.0
  0
LINE
  5
64A
  8
0
  6
CONTINUOUS
 62
     5
 10
159.3792501590592
 20
-95.31950789372061
 30
0.0
 11
160.8792501590592
 21
-95.31950789372061
 31
0.0
  0
LINE
  5
64B
  8
0
  6
CONTINUOUS
 62
     5
 10
157.3792501590592
 20
-97.31950789372061
 30
0.0
 11
159.3792501590592
 21
-97.31950789372061
 31
0.0
  0
LINE
  5
64C
  8
0
  6
CONTINUOUS
 62
     5
 10
159.3792501590592
 20
-95.31948500553702
 30
0.0
 11
159.3792501590592
 21
-97.31950026432608
 31
0.0
  0
LINE
  5
64D
  8
0
  6
CONTINUOUS
 62
     5
 10
157.3792501590592
 20
-90.31950026432608
 30
0.0
 11
157.3792501590592
 21
-110.3194926349316
 31
0.0
  0
LINE
  5
64E
  8
0
  6
CONTINUOUS
 62
     5
 10
154.7486751848264
 20
-102.8205390720252
 30
0.0
 11
154.5428967676634
 21
-101.521304477865
 31
0.0
  0
LINE
  5
64F
  8
0
  6
CONTINUOUS
 62
     5
 10
154.748654519416
 20
-102.820572486352
 30
0.0
 11
156.0478740426478
 21
-102.6147962797773
 31
0.0
  0
ARC
  5
650
  8
0
  6
CONTINUOUS
 62
     5
 10
152.2737661502701
 20
-100.3456767169628
 30
0.0
 40
3.50000262260437
 50
315.0001080307875
 51
609.9999500386406
  0
TEXT
  5
651
  8
0
 62
     5
 10
80.21662484625395
 20
-84.14567976872061
 30
0.0
 40
8.0
  1
NIKKO
 41
0.7674421177096609
  7
FDASTYLE1
 72
     5
 11
110.9143095546404
 21
-84.14567976872061
 31
0.0
  0
TEXT
  5
652
  8
0
 62
     5
 10
131.6451817653519
 20
-82.14567976872061
 30
0.0
 40
4.0
  1
HWB3-300
 41
0.7714288207463405
  7
FDASTYLE1
 72
     5
 11
156.3309040292348
 21
-82.14567976872061
 31
0.0
  0
TEXT
  5
653
  8
0
 62
     5
 10
132.0023249290329
 20
-88.64567976872061
 30
0.0
 40
3.0
  1
0001
 41
0.7647060767727467
  7
FDASTYLE1
 72
     5
 11
141.1787978503058
 21
-88.64567976872061
 31
0.0
  0
TEXT
  5
654
  8
0
 62
     5
 10
164.0001451871735
 20
-99.91624098698233
 30
0.0
 40
3.0
  1
ΣS
 41
0.8264462974117471
  7
FDASTYLE1
 72
     5
 11
169.454690750091
 21
-99.91624098698233
 31
0.0
  0
TEXT
  5
655
  8
0
 62
     5
 10
142.2537597320419
 20
-97.64632826725577
 30
0.0
 40
3.0
  1
F
 41
0.8791213035583496
  7
FDASTYLE1
 72
     5
 11
144.8911236427169
 21
-97.64632826725577
 31
0.0
  0
TEXT
  5
656
  8
0
 62
     5
 10
152.6242144010407
 20
-107.6717951862011
 30
0.0
 40
3.0
  1
N min
 41
0.7983872414958758
  7
FDASTYLE1
 72
     5
 11
164.6000230234788
 21
-107.6717951862011
 31
0.0
  0
TEXT
  5
657
  8
0
 62
     5
 10
168.1492127678734
 20
-105.5371796456966
 30
0.0
 40
1.5
  1
-1
 41
0.7826088684192882
  7
FDASTYLE1
 72
     5
 11
170.4970393731312
 21
-105.5371796456966
 31
0.0
  0
TEXT
  5
658
  8
0
 62
     5
 10
61.37376867750701
 20
-94.14567976872061
 30
0.0
 40
3.0
  1
F MAX   35KN
 41
0.8453610551330626
  7
FDASTYLE1
 72
     5
 11
91.80676666229726
 21
-94.14567976872061
 31
0.0
  0
TEXT
  5
659
  8
0
 62
     5
 10
61.37376867750701
 20
-99.14567976872061
 30
0.0
 40
3.0
  1
ΣS MAX 119KN
 41
0.837981900659324
  7
FDASTYLE1
 72
     5
 11
92.04390624163827
 21
-99.14567976872061
 31
0.0
  0
TEXT
  5
65A
  8
0
 62
     5
 10
61.37376867750701
 20
-104.1456797687206
 30
0.0
 40
3.0
  1
N MAX 3300 AT ΣS MAX
 41
0.8421183255071212
  7
FDASTYLE1
 72
     5
 11
112.4061392032386
 21
-104.1456797687206
 31
0.0
  0
LINE
  5
65B
  8
0
  6
CONTINUOUS
 62
     6
 10
-75.07629337631383
 20
-165.7389129725611
 30
0.0
 11
48.65705547012173
 21
-165.7389129725611
 31
0.0
  0
LINE
  5
65C
  8
0
  6
CONTINUOUS
 62
     6
 10
-75.07629337631383
 20
-159.3389038172876
 30
0.0
 11
48.65705547012173
 21
-159.3389038172876
 31
0.0
  0
LINE
  5
65D
  8
0
  6
CONTINUOUS
 62
     6
 10
-75.07629337631383
 20
-152.9389099208033
 30
0.0
 11
48.65705547012173
 21
-152.9389099208033
 31
0.0
  0
LINE
  5
65E
  8
0
  6
CONTINUOUS
 62
     6
 10
-75.07629337631383
 20
-146.5389160243189
 30
0.0
 11
48.65705547012173
 21
-146.5389160243189
 31
0.0
  0
LINE
  5
65F
  8
0
  6
CONTINUOUS
 62
     6
 10
-75.07629337631383
 20
-140.1389068690455
 30
0.0
 11
48.65705547012173
 21
-140.1389068690455
 31
0.0
  0
LINE
  5
660
  8
0
  6
CONTINUOUS
 62
     6
 10
-75.07629337631383
 20
-133.9125007270808
 30
0.0
 11
48.65705547012173
 21
-133.9125007270808
 31
0.0
  0
LINE
  5
661
  8
0
  6
CONTINUOUS
 62
     6
 10
-75.07629337631383
 20
-127.5125068305965
 30
0.0
 11
48.65705547012173
 21
-127.5125068305965
 31
0.0
  0
LINE
  5
662
  8
0
  6
CONTINUOUS
 62
     6
 10
-75.07629337631383
 20
-121.1125129341121
 30
0.0
 11
-62.27629413925327
 21
-121.1125129341121
 31
0.0
  0
LINE
  5
663
  8
0
  6
CONTINUOUS
 62
     6
 10
-75.07629337631383
 20
-172.1389068690455
 30
0.0
 11
48.65705547012173
 21
-172.1389068690455
 31
0.0
  0
INSERT
  5
664
  8
0
  6
CONTINUOUS
  2
DC_GROUP_111
 10
0.0
 20
0.0
 30
0.0
  0
INSERT
  5
665
  8
0
  6
CONTINUOUS
  2
DC_GROUP_114
 10
0.0
 20
0.0
 30
0.0
  0
INSERT
  5
666
  8
0
  6
CONTINUOUS
  2
DC_GROUP_117
 10
0.0
 20
0.0
 30
0.0
  0
VIEWPORT
  5
48
 67
     1
  8
0
 10
-1.058852817770003
 20
0.0
 30
0.0
 40
1666.126786806287
 41
1140.0
 68
     1
 69
     1
1001
ACAD
1000
MVIEW
1002
{
1070
    16
1010
0.0
1020
0.0
1030
0.0
1020
0.0
1030
0.0
1010
0.0
1020
0.0
1030
1.0
1020
0.0
1030
1.0
1040
0.0
1040
1140.0
1040
-1.058852817770003
1040
0.0
1040
50.0
1040
0.0
1040
0.0
1070
     0
1070
   100
1070
     0
1070
     1
1070
     0
1070
     0
1070
     0
1070
     0
1040
0.0
1040
0.0
1040
0.0
1040
0.5
1040
0.5
1040
0.0
1040
0.0
1070
     0
1002
{
1002
}
1002
}
  0
ENDSEC
  0
EOF
