  0
SECTION
  2
HEADER
  9
$ACADVER
  1
AC1009
  9
$DWGCODEPAGE
  3
ansi_932
  9
$INSBASE
 10
0.0
 20
0.0
 30
0.0
  9
$EXTMIN
 10
-831.0
 20
-569.9999999999999
 30
0.0
  9
$EXTMAX
 10
831.0
 20
569.9999999999999
 30
0.0
  9
$LIMMIN
 10
-297.0
 20
-210.0
  9
$LIMMAX
 10
297.0
 20
210.0
  9
$ORTHOMODE
 70
     0
  9
$REGENMODE
 70
     1
  9
$FILLMODE
 70
     1
  9
$QTEXTMODE
 70
     0
  9
$MIRRTEXT
 70
     1
  9
$DRAGMODE
 70
     2
  9
$LTSCALE
 40
1.0
  9
$OSMODE
 70
    37
  9
$ATTMODE
 70
     1
  9
$TEXTSIZE
 40
0.2
  9
$TRACEWID
 40
0.05
  9
$TEXTSTYLE
  7
STANDARD
  9
$CLAYER
  8
0
  9
$CELTYPE
  6
BYLAYER
  9
$CECOLOR
 62
   256
  9
$DIMSCALE
 40
1.0
  9
$DIMASZ
 40
2.5
  9
$DIMEXO
 40
0.0625
  9
$DIMDLI
 40
0.38
  9
$DIMRND
 40
0.0
  9
$DIMDLE
 40
0.0
  9
$DIMEXE
 40
0.18
  9
$DIMTP
 40
0.0
  9
$DIMTM
 40
0.0
  9
$DIMTXT
 40
0.18
  9
$DIMCEN
 40
0.09
  9
$DIMTSZ
 40
0.0
  9
$DIMTOL
 70
     0
  9
$DIMLIM
 70
     0
  9
$DIMTIH
 70
     1
  9
$DIMTOH
 70
     1
  9
$DIMSE1
 70
     0
  9
$DIMSE2
 70
     0
  9
$DIMTAD
 70
     3
  9
$DIMZIN
 70
     0
  9
$DIMBLK
  1

  9
$DIMASO
 70
     1
  9
$DIMSHO
 70
     1
  9
$DIMPOST
  1

  9
$DIMAPOST
  1

  9
$DIMALT
 70
     0
  9
$DIMALTD
 70
     2
  9
$DIMALTF
 40
25.4
  9
$DIMLFAC
 40
1.0
  9
$DIMTOFL
 70
     0
  9
$DIMTVP
 40
0.0
  9
$DIMTIX
 70
     0
  9
$DIMSOXD
 70
     0
  9
$DIMSAH
 70
     0
  9
$DIMBLK1
  1

  9
$DIMBLK2
  1

  9
$DIMSTYLE
  2
STANDARD
  9
$DIMCLRD
 70
     0
  9
$DIMCLRE
 70
     0
  9
$DIMCLRT
 70
     0
  9
$DIMTFAC
 40
1.0
  9
$DIMGAP
 40
0.09
  9
$LUNITS
 70
     2
  9
$LUPREC
 70
     4
  9
$SKETCHINC
 40
0.1
  9
$FILLETRAD
 40
0.5
  9
$AUNITS
 70
     0
  9
$AUPREC
 70
     0
  9
$MENU
  1
.
  9
$ELEVATION
 40
0.0
  9
$PELEVATION
 40
0.0
  9
$THICKNESS
 40
0.0
  9
$LIMCHECK
 70
     0
  9
$CHAMFERA
 40
0.5
  9
$CHAMFERB
 40
0.5
  9
$SKPOLY
 70
     0
  9
$TDCREATE
 40
2456272.471540787
  9
$TDUPDATE
 40
2456272.471540798
  9
$TDINDWG
 40
0.0000000116
  9
$TDUSRTIMER
 40
0.0000000116
  9
$USRTIMER
 70
     1
  9
$ANGBASE
 50
0.0
  9
$ANGDIR
 70
     0
  9
$PDMODE
 70
     0
  9
$PDSIZE
 40
1.0
  9
$PLINEWID
 40
0.0
  9
$COORDS
 70
     1
  9
$SPLFRAME
 70
     0
  9
$SPLINETYPE
 70
     6
  9
$SPLINESEGS
 70
     8
  9
$ATTDIA
 70
     0
  9
$ATTREQ
 70
     1
  9
$HANDLING
 70
     1
  9
$HANDSEED
  5
48C
  9
$SURFTAB1
 70
     6
  9
$SURFTAB2
 70
     6
  9
$SURFTYPE
 70
     6
  9
$SURFU
 70
     6
  9
$SURFV
 70
     6
  9
$UCSNAME
  2

  9
$UCSORG
 10
0.0
 20
0.0
 30
0.0
  9
$UCSXDIR
 10
1.0
 20
0.0
 30
0.0
  9
$UCSYDIR
 10
0.0
 20
1.0
 30
0.0
  9
$PUCSNAME
  2

  9
$PUCSORG
 10
0.0
 20
0.0
 30
0.0
  9
$PUCSXDIR
 10
1.0
 20
0.0
 30
0.0
  9
$PUCSYDIR
 10
0.0
 20
1.0
 30
0.0
  9
$USERI1
 70
     0
  9
$USERI2
 70
     0
  9
$USERI3
 70
     0
  9
$USERI4
 70
     0
  9
$USERI5
 70
     0
  9
$USERR1
 40
0.0
  9
$USERR2
 40
0.0
  9
$USERR3
 40
0.0
  9
$USERR4
 40
0.0
  9
$USERR5
 40
0.0
  9
$WORLDVIEW
 70
     1
  9
$SHADEDGE
 70
     3
  9
$SHADEDIF
 70
    70
  9
$TILEMODE
 70
     1
  9
$MAXACTVP
 70
    64
  9
$PLIMCHECK
 70
     0
  9
$PEXTMIN
 10
1.000000000000000E+20
 20
1.000000000000000E+20
 30
1.000000000000000E+20
  9
$PEXTMAX
 10
-1.000000000000000E+20
 20
-1.000000000000000E+20
 30
-1.000000000000000E+20
  9
$PLIMMIN
 10
0.0
 20
0.0
  9
$PLIMMAX
 10
12.0
 20
9.0
  9
$UNITMODE
 70
     0
  9
$VISRETAIN
 70
     0
  9
$PLINEGEN
 70
     1
  9
$PSLTSCALE
 70
     0
  0
ENDSEC
  0
SECTION
  2
TABLES
  0
TABLE
  2
VPORT
 70
     1
  0
VPORT
  2
*ACTIVE
 70
     0
 10
0.0
 20
0.0
 11
1.0
 21
1.0
 12
0.0
 22
0.0
 13
0.0
 23
0.0
 14
0.5
 24
0.5
 15
0.5
 25
0.5
 16
0.0
 26
0.0
 36
1.0
 17
-0.0000000000000036
 27
0.0
 37
0.0
 40
387.6
 41
1.457894736842106
 42
50.0
 43
0.0
 44
0.0
 50
0.0
 51
0.0
 71
     0
 72
  1000
 73
     1
 74
     1
 75
     0
 76
     0
 77
     0
 78
     0
  0
ENDTAB
  0
TABLE
  2
LTYPE
 70
    28
  0
LTYPE
  2
CONTINUOUS
 70
     0
  3
Solid line
 72
    65
 73
     0
 40
0.0
  0
LTYPE
  2
HIDDENX2
 70
     0
  3
CADPAC LINETYPE
 72
    65
 73
     2
 40
9.893992932862261
 49
7.420494699646696
 49
-2.473498233215565
  0
LTYPE
  2
HIDDEN
 70
     0
  3
CADPAC LINETYPE
 72
    65
 73
     2
 40
7.420494699646696
 49
4.946996466431131
 49
-2.473498233215565
  0
LTYPE
  2
HIDDEN2
 70
     0
  3
CADPAC LINETYPE
 72
    65
 73
     2
 40
6.183745583038913
 49
3.710247349823348
 49
-2.473498233215565
  0
LTYPE
  2
DASHED
 70
     0
  3
CADPAC LINETYPE
 72
    65
 73
     2
 40
6.925795053003583
 49
4.946996466431131
 49
-1.978798586572452
  0
LTYPE
  2
DASHED2
 70
     0
  3
CADPAC LINETYPE
 72
    65
 73
     2
 40
4.452296819787989
 49
2.968197879858678
 49
-1.484098939929311
  0
LTYPE
  2
DASHEDX2
 70
     0
  3
CADPAC LINETYPE
 72
    65
 73
     2
 40
11.87279151943466
 49
9.893992932862204
 49
-1.978798586572452
  0
LTYPE
  2
DOTX2
 70
     0
  3
CADPAC LINETYPE
 72
    65
 73
     2
 40
4.328621908127204
 49
0.0
 49
-4.328621908127204
  0
LTYPE
  2
DOT
 70
     0
  3
CADPAC LINETYPE
 72
    65
 73
     2
 40
3.462897526501763
 49
0.0
 49
-3.462897526501763
  0
LTYPE
  2
DOT2
 70
     0
  3
CADPAC LINETYPE
 72
    65
 73
     2
 40
2.597173144876322
 49
0.0
 49
-2.597173144876322
  0
LTYPE
  2
CENTERX2
 70
     0
  3
CADPAC LINETYPE
 72
    65
 73
     4
 40
14.84098939929339
 49
6.183745583038913
 49
-3.091872791519457
 49
2.473498233215565
 49
-3.091872791519457
  0
LTYPE
  2
CENTER
 70
     0
  3
CADPAC LINETYPE
 72
    65
 73
     4
 40
11.3780918727916
 49
4.946996466431131
 49
-2.473498233215565
 49
1.484098939929339
 49
-2.473498233215565
  0
LTYPE
  2
CENTER2
 70
     0
  3
CADPAC LINETYPE
 72
    65
 73
     4
 40
7.915194346289809
 49
3.710247349823348
 49
-1.855123674911674
 49
0.4946996466431131
 49
-1.855123674911674
  0
LTYPE
  2
DASHDOTX2
 70
     0
  3
CADPAC LINETYPE
 72
    65
 73
     4
 40
23.7455830388692
 49
11.87279151943466
 49
-3.957597173144848
 49
3.957597173144848
 49
-3.957597173144848
  0
LTYPE
  2
DASHDOT
 70
     0
  3
CADPAC LINETYPE
 72
    65
 73
     4
 40
11.87279151943466
 49
5.9363957597173
 49
-1.978798586572452
 49
1.978798586572452
 49
-1.978798586572452
  0
LTYPE
  2
DASHDOT2
 70
     0
  3
CADPAC LINETYPE
 72
    65
 73
     4
 40
7.618374558303898
 49
4.452296819787975
 49
-1.484098939929339
 49
0.1978798586572452
 49
-1.484098939929339
  0
LTYPE
  2
DIVIDEX2
 70
     0
  3
CADPAC LINETYPE
 72
    65
 73
     6
 40
31.6607773851589
 49
11.87279151943466
 49
-3.957597173144848
 49
3.957597173144848
 49
-3.957597173144848
 49
3.957597173144848
 49
-3.957597173144848
  0
LTYPE
  2
DIVIDE
 70
     0
  3
CADPAC LINETYPE
 72
    65
 73
     6
 40
15.83038869257956
 49
5.9363957597173
 49
-1.978798586572452
 49
1.978798586572452
 49
-1.978798586572452
 49
1.978798586572452
 49
-1.978798586572452
  0
LTYPE
  2
DIVIDE2
 70
     0
  3
CADPAC LINETYPE
 72
    65
 73
     6
 40
11.87279151943467
 49
4.452296819787975
 49
-1.484098939929339
 49
1.484098939929339
 49
-1.484098939929339
 49
1.484098939929339
 49
-1.484098939929339
  0
LTYPE
  2
BORDERX2
 70
     0
  3
CADPAC LINETYPE
 72
    65
 73
     6
 40
21.6431095406362
 49
6.183745583038913
 49
-3.091872791519457
 49
6.183745583038913
 49
-3.091872791519457
 49
0.0
 49
-3.091872791519457
  0
LTYPE
  2
BORDER
 70
     0
  3
CADPAC LINETYPE
 72
    65
 73
     6
 40
17.31448763250896
 49
4.946996466431131
 49
-2.473498233215565
 49
4.946996466431131
 49
-2.473498233215565
 49
0.0
 49
-2.473498233215565
  0
LTYPE
  2
BORDER2
 70
     0
  3
CADPAC LINETYPE
 72
    65
 73
     6
 40
12.86219081272091
 49
3.957597173144848
 49
-2.473498233215594
 49
1.484098939929311
 49
-2.473498233215594
 49
0.0
 49
-2.473498233215565
  0
LTYPE
  2
PHANTOMX2
 70
     0
  3
CADPAC LINETYPE
 72
    65
 73
     6
 40
18.55123674911674
 49
6.183745583038913
 49
-2.473498233215565
 49
2.473498233215565
 49
-2.473498233215565
 49
2.473498233215565
 49
-2.473498233215565
  0
LTYPE
  2
PHANTOM
 70
     0
  3
CADPAC LINETYPE
 72
    65
 73
     6
 40
15.33568904593651
 49
4.946996466431131
 49
-2.473498233215565
 49
1.484098939929339
 49
-2.473498233215565
 49
1.484098939929339
 49
-2.473498233215565
  0
LTYPE
  2
PHANTOM2
 70
     0
  3
CADPAC LINETYPE
 72
    65
 73
     6
 40
13.1095406360425
 49
3.710247349823348
 49
-2.473498233215565
 49
0.9893992932862261
 49
-2.473498233215565
 49
0.9893992932862261
 49
-2.473498233215565
  0
LTYPE
  2
ACAD_ISO06W100
 70
     0
  3
CADPAC LINETYPE
 72
    65
 73
     8
 40
26.21908127208496
 49
11.87279151943466
 49
-2.473498233215594
 49
1.484098939929311
 49
-2.473498233215594
 49
1.484098939929311
 49
-2.473498233215594
 49
1.484098939929311
 49
-2.473498233215594
  0
LTYPE
  2
ACAD_ISO13W100
 70
     0
  3
CADPAC LINETYPE
 72
    65
 73
     8
 40
19.78798586572452
 49
4.946996466431131
 49
-2.473498233215565
 49
4.946996466431131
 49
-2.473498233215565
 49
0.0
 49
-2.473498233215565
 49
0.0
 49
-2.473498233215565
  0
LTYPE
  2
ACAD_ISO14W100
 70
     0
  3
CADPAC LINETYPE
 72
    65
 73
     8
 40
14.84098939929339
 49
4.946996466431131
 49
-2.473498233215565
 49
0.0
 49
-2.473498233215565
 49
0.0
 49
-2.473498233215565
 49
0.0
 49
-2.473498233215565
  0
ENDTAB
  0
TABLE
  2
LAYER
 70
     3
  0
LAYER
  2
0
 70
     0
 62
     7
  6
CONTINUOUS
  0
LAYER
  2
LAYER0014
 70
     0
 62
     7
  6
CONTINUOUS
  0
LAYER
  2
ZUWAKU
 70
     0
 62
     7
  6
CONTINUOUS
  0
ENDTAB
  0
TABLE
  2
STYLE
 70
     5
  0
STYLE
  2
STANDARD
 70
     0
 40
0.0
 41
1.0
 50
0.0
 71
     0
 42
0.2
  3
txt
  4

  0
STYLE
  2
FDASTYLE1
 70
     0
 40
0.0
 41
0.8
 50
0.0
 71
     0
 42
0.2
  3
txt.shx
  4
bigfont
  0
STYLE
  2
FDASTYLE0
 70
     4
 40
0.0
 41
0.8
 50
0.0
 71
     0
 42
0.2
  3
txt.shx
  4
bigfont
  0
STYLE
  2
FDASTYLE2
 70
     0
 40
0.0
 41
0.8123476848090983
 50
0.0
 71
     0
 42
0.2
  3
MSMINCHO.TTC
  4

  0
STYLE
  2
FDASTYLE3
 70
     0
 40
0.0
 41
0.77
 50
0.0
 71
     0
 42
0.2
  3
MSGOTHIC.TTC
  4

  0
ENDTAB
  0
TABLE
  2
VIEW
 70
     0
  0
ENDTAB
  0
TABLE
  2
UCS
 70
     0
  0
ENDTAB
  0
TABLE
  2
APPID
 70
     2
  0
APPID
  2
ACAD
 70
     0
  0
APPID
  2
DAFUSIONOUT
 70
     0
  0
ENDTAB
  0
TABLE
  2
DIMSTYLE
 70
     1
  0
DIMSTYLE
  2
STANDARD
 70
     0
  3

  4

  5

  6

  7

 40
1.0
 41
0.18
 42
0.0625
 43
0.38
 44
0.18
 45
0.0
 46
0.0
 47
0.0
 48
0.0
140
0.18
141
0.09
142
0.0
143
25.4
144
1.0
145
0.0
146
1.0
147
0.09
 71
     0
 72
     0
 73
     1
 74
     1
 75
     0
 76
     0
 77
     0
 78
     0
170
     0
171
     2
172
     0
173
     0
174
     0
175
     0
176
     0
177
     0
178
     0
  0
ENDTAB
  0
ENDSEC
  0
SECTION
  2
BLOCKS
  0
BLOCK
  8
0
  2
$MODEL_SPACE
 70
     0
 10
0.0
 20
0.0
 30
0.0
  3
$MODEL_SPACE
  1

  0
ENDBLK
  5
21
  8
0
  0
BLOCK
 67
     1
  8
0
  2
$PAPER_SPACE
 70
     0
 10
0.0
 20
0.0
 30
0.0
  3
$PAPER_SPACE
  1

  0
ENDBLK
  5
1D
 67
     1
  8
0
  0
BLOCK
  8
0
  2
DA_IMAGEDIMGROUP_1
 70
     0
 10
0.0
 20
0.0
 30
0.0
  3
DA_IMAGEDIMGROUP_1
  1

  0
LINE
  5
B8
  8
LAYER0014
  6
CONTINUOUS
 62
     7
 10
139.812585499316
 20
150.4998672347584
 30
0.0
 11
139.812585499316
 21
157.0214517074147
 31
0.0
  0
LINE
  5
B9
  8
LAYER0014
  6
CONTINUOUS
 62
     7
 10
109.812585499316
 20
130.1665389876881
 30
0.0
 11
109.812585499316
 21
157.0214517074147
 31
0.0
  0
LINE
  5
BA
  8
LAYER0014
  6
CONTINUOUS
 62
     7
 10
139.812585499316
 20
154.7354562240162
 30
0.0
 11
109.812585499316
 21
154.7354562240162
 31
0.0
  0
INSERT
  5
C1
  8
LAYER0014
 62
     7
  2
_OPEN30
 10
139.812585499316
 20
154.7354562240162
 30
0.0
 41
1.50000139391263
 42
1.499998500689492
 50
360.0
  0
INSERT
  5
C2
  8
LAYER0014
 62
     7
  2
_OPEN30
 10
109.812585499316
 20
154.7354562240162
 30
0.0
 41
1.50000139391263
 42
1.499998500689492
 50
180.0
  0
TEXT
  5
C4
  8
LAYER0014
 62
     7
 10
120.812585499316
 20
155.2354562240162
 30
0.0
 40
5.0
  1
30
 41
0.8
  7
FDASTYLE1
 72
     5
 11
128.812585499316
 21
155.2354562240162
 31
0.0
  0
ENDBLK
  5
4E
  8
0
  0
BLOCK
  8
0
  2
DA_IMAGEDIMGROUP_2
 70
     0
 10
0.0
 20
0.0
 30
0.0
  3
DA_IMAGEDIMGROUP_2
  1

  0
LINE
  5
C5
  8
LAYER0014
  6
CONTINUOUS
 62
     7
 10
73.45514165165976
 20
116.6265389876881
 30
0.0
 11
40.22863545659141
 21
116.6265389876881
 31
0.0
  0
LINE
  5
C6
  8
LAYER0014
  6
CONTINUOUS
 62
     7
 10
42.51463475468711
 20
116.6265389876881
 30
0.0
 11
42.51463475468711
 21
58.6265389876881
 31
0.0
  0
INSERT
  5
C7
  8
LAYER0014
 62
     7
  2
_OPEN30
 10
42.51463475468711
 20
116.6265389876881
 30
0.0
 41
1.50000139391263
 42
1.499998500689492
 50
90.0
  0
INSERT
  5
C8
  8
LAYER0014
 62
     7
  2
_OPEN30
 10
42.51463475468711
 20
58.6265389876881
 30
0.0
 41
1.50000139391263
 42
1.499998500689492
 50
270.0
  0
TEXT
  5
C9
  8
LAYER0014
 62
     7
 10
42.00765344122351
 20
83.62654508003493
 30
0.0
 40
5.0
  1
58
 50
89.90000000000001
 41
0.800000000000001
  7
FDASTYLE1
 72
     5
 11
42.0216160681507
 21
91.62653289534124
 31
0.0
  0
ENDBLK
  5
51
  8
0
  0
BLOCK
  8
0
  2
DA_IMAGEDIMGROUP_3
 70
     0
 10
0.0
 20
0.0
 30
0.0
  3
DA_IMAGEDIMGROUP_3
  1

  0
LINE
  5
CA
  8
LAYER0014
  6
CONTINUOUS
 62
     7
 10
170.2464854825661
 20
28.19266731906034
 30
0.0
 11
210.387940333054
 21
-11.94883828653286
 31
0.0
  0
LINE
  5
CB
  8
LAYER0014
  6
CONTINUOUS
 62
     7
 10
233.5192419934566
 20
58.6265389876881
 30
0.0
 11
239.6212250256832
 21
58.6265389876881
 31
0.0
  0
ARC
  5
CC
  8
LAYER0014
  6
CONTINUOUS
 62
     7
 10
139.812585499316
 20
58.6265389876881
 30
0.0
 40
97.52264404296875
 50
314.9999850873826
 51
360.0
  0
INSERT
  5
CD
  8
LAYER0014
 62
     7
  2
_OPEN30
 10
208.7714904731051
 20
-10.33240188256826
 30
0.0
 41
1.50000139391263
 42
1.499998500689492
 50
225.4406198695608
  0
INSERT
  5
CE
  8
LAYER0014
 62
     7
  2
_OPEN30
 10
237.3352295422848
 20
58.62653898768808
 30
0.0
 41
1.50000139391263
 42
1.499998500689492
 50
89.55936521782219
  0
TEXT
  5
CF
  8
LAYER0014
 62
     7
 10
226.3045217541635
 20
16.80387619228399
 30
0.0
 40
5.0
  1
45ﾟ
 50
67.40000000000001
 41
0.7999999999999997
  7
FDASTYLE1
 72
     5
 11
230.9160656260811
 21
27.88239879763976
 31
0.0
  0
ENDBLK
  5
54
  8
0
  0
BLOCK
  8
0
  2
DA_IMAGEDIMGROUP_4
 70
     0
 10
0.0
 20
0.0
 30
0.0
  3
DA_IMAGEDIMGROUP_4
  1

  0
LINE
  5
D0
  8
LAYER0014
  6
CONTINUOUS
 62
     7
 10
132.8126160168941
 20
-24.41346864170643
 30
0.0
 11
132.8126160168941
 21
-42.36432099766346
 31
0.0
  0
LINE
  5
D1
  8
LAYER0014
  6
CONTINUOUS
 62
     7
 10
146.8126160168941
 20
-24.41346864170643
 30
0.0
 11
146.8126160168941
 21
-42.36432099766346
 31
0.0
  0
LINE
  5
D2
  8
LAYER0014
  6
CONTINUOUS
 62
     7
 10
132.8126160168941
 20
-40.07831788487049
 30
0.0
 11
146.8126160168941
 21
-40.07831788487049
 31
0.0
  0
LINE
  5
D3
  8
LAYER0014
  6
CONTINUOUS
 62
     7
 10
176.5171172812948
 20
-40.07831788487049
 30
0.0
 11
146.8126160168941
 21
-40.07831788487049
 31
0.0
  0
INSERT
  5
D4
  8
LAYER0014
 62
     7
  2
_OPEN30
 10
146.8126160168941
 20
-40.07831788487049
 30
0.0
 41
1.50000139391263
 42
1.499998500689492
 50
180.0
  0
LINE
  5
D5
  8
LAYER0014
  6
CONTINUOUS
 62
     7
 10
127.8126160168941
 20
-40.07831788487049
 30
0.0
 11
132.8126160168941
 21
-40.07831788487049
 31
0.0
  0
INSERT
  5
D6
  8
LAYER0014
 62
     7
  2
_OPEN30
 10
132.8126160168941
 20
-40.07831788487049
 30
0.0
 41
1.50000139391263
 42
1.499998500689492
 50
360.0
  0
TEXT
  5
D7
  8
LAYER0014
 62
     7
 10
159.5171172812948
 20
-39.57831788487049
 30
0.0
 40
5.0
  1
14H8
 41
0.8
  7
FDASTYLE1
 72
     5
 11
175.5171172812948
 21
-39.57831788487049
 31
0.0
  0
ENDBLK
  5
57
  8
0
  0
BLOCK
  8
0
  2
DA_IMAGEDIMGROUP_5
 70
     0
 10
0.0
 20
0.0
 30
0.0
  3
DA_IMAGEDIMGROUP_5
  1

  0
LINE
  5
D8
  8
LAYER0014
  6
CONTINUOUS
 62
     7
 10
122.3126160168941
 20
-24.53606538242909
 30
0.0
 11
122.3126160168941
 21
-55.51961732334706
 31
0.0
  0
LINE
  5
D9
  8
LAYER0014
  6
CONTINUOUS
 62
     7
 10
157.3126160168941
 20
-24.53603486485096
 30
0.0
 11
157.3126160168941
 21
-55.51961732334706
 31
0.0
  0
LINE
  5
DA
  8
LAYER0014
  6
CONTINUOUS
 62
     7
 10
122.3126160168941
 20
-53.23361421055409
 30
0.0
 11
157.3126160168941
 21
-53.23361421055409
 31
0.0
  0
INSERT
  5
DB
  8
LAYER0014
 62
     7
  2
_OPEN30
 10
122.3126160168941
 20
-53.23361421055409
 30
0.0
 41
1.50000139391263
 42
1.499998500689492
 50
180.0
  0
INSERT
  5
DC
  8
LAYER0014
 62
     7
  2
_OPEN30
 10
157.3126160168941
 20
-53.23361421055409
 30
0.0
 41
1.50000139391263
 42
1.499998500689492
 50
360.0
  0
TEXT
  5
DD
  8
LAYER0014
 62
     7
 10
135.8126160168941
 20
-52.73361421055409
 30
0.0
 40
5.0
  1
35
 41
0.8
  7
FDASTYLE1
 72
     5
 11
143.8126160168941
 21
-52.73361421055409
 31
0.0
  0
ENDBLK
  5
5A
  8
0
  0
BLOCK
  8
0
  2
DC_GROUP_1
 70
     0
 10
0.0
 20
0.0
 30
0.0
  3
DC_GROUP_1
  1

  0
LINE
  5
DE
  8
LAYER0014
  6
CONTINUOUS
 62
     7
 10
165.9675313831145
 20
31.06761220994128
 30
0.0
 11
207.3127180338753
 21
-40.34680869729339
 31
0.0
  0
INSERT
  5
DF
  8
LAYER0014
 62
     7
  2
_OPEN30
 10
165.9675313831145
 20
31.06761220994128
 30
0.0
 41
1.50000139391263
 42
1.499998500689492
 50
120.0685801774564
  0
LINE
  5
E0
  8
LAYER0014
  6
CONTINUOUS
 62
     7
 10
207.3127228284176
 20
-40.34680390781971
 30
0.0
 11
248.5665555209593
 21
-40.34680390781971
 31
0.0
  0
TEXT
  5
E1
  8
LAYER0014
 62
     7
 10
208.1181885266598
 20
-38.74680390781971
 30
0.0
 40
5.0
  1
4-M5 PCD70
 41
0.8
  7
FDASTYLE1
 72
     5
 11
248.1181885266598
 21
-38.74680390781971
 31
0.0
  0
ENDBLK
  5
5D
  8
0
  0
BLOCK
  8
0
  2
DC_GROUP_2
 70
     0
 10
0.0
 20
0.0
 30
0.0
  3
DC_GROUP_2
  1

  0
LINE
  5
E2
  8
LAYER0014
  6
CONTINUOUS
 62
     7
 10
89.98905590769914
 20
25.16118574130048
 30
0.0
 11
52.40251202087373
 21
-40.07830330067088
 31
0.0
  0
INSERT
  5
E3
  8
LAYER0014
 62
     7
  2
_OPEN30
 10
89.98905590769914
 20
25.16118574130048
 30
0.0
 41
1.50000139391263
 42
1.499998500689492
 50
60.05238772356521
  0
LINE
  5
E4
  8
LAYER0014
  6
CONTINUOUS
 62
     7
 10
52.40251698735312
 20
-40.0783064407787
 30
0.0
 11
15.82514340811706
 21
-40.0783064407787
 31
0.0
  0
TEXT
  5
E5
  8
LAYER0014
 62
     7
 10
15.97441735508994
 20
-38.4783064407787
 30
0.0
 40
5.0
  1
PCD104.77
 41
0.8
  7
FDASTYLE1
 72
     5
 11
51.97441735508994
 21
-38.4783064407787
 31
0.0
  0
ENDBLK
  5
60
  8
0
  0
BLOCK
  8
0
  2
DA_IMAGEDIMGROUP_6
 70
     0
 10
0.0
 20
0.0
 30
0.0
  3
DA_IMAGEDIMGROUP_6
  1

  0
LINE
  5
E6
  8
LAYER0014
  6
CONTINUOUS
 62
     7
 10
46.10592137578086
 20
58.6266496139088
 30
0.0
 11
40.22863927128867
 21
58.6266496139088
 31
0.0
  0
LINE
  5
E7
  8
LAYER0014
  6
CONTINUOUS
 62
     7
 10
79.55447750806438
 20
23.83649061684673
 30
0.0
 11
53.57036281149419
 21
8.834573308219042
 31
0.0
  0
ARC
  5
E8
  8
LAYER0014
  6
CONTINUOUS
 62
     7
 10
139.8126160168941
 20
58.6265389876881
 30
0.0
 40
97.29798126220703
 50
179.9999813306654
 51
209.9999889956806
  0
INSERT
  5
E9
  8
LAYER0014
 62
     7
  2
_OPEN30
 10
42.51463475469227
 20
58.62657069139453
 30
0.0
 41
1.50000139391263
 42
1.499998500689492
 50
90.44163354644431
  0
INSERT
  5
EA
  8
LAYER0014
 62
     7
  2
_OPEN30
 10
55.55008316327881
 20
9.977564540181113
 30
0.0
 41
1.50000139391263
 42
1.499998500689492
 50
299.5583367799022
  0
TEXT
  5
EB
  8
LAYER0014
 62
     7
 10
46.18632078942542
 20
38.06223094780999
 30
0.0
 40
5.0
  1
30ﾟ
 50
-74.30000000000003
 41
0.8000000000000002
  7
FDASTYLE1
 72
     5
 11
49.43352614113579
 21
26.50992999069225
 31
0.0
  0
ENDBLK
  5
63
  8
0
  0
BLOCK
  8
0
  2
DA_IMAGEDIMGROUP_7
 70
     0
 10
0.0
 20
0.0
 30
0.0
  3
DA_IMAGEDIMGROUP_7
  1

  0
LINE
  5
EC
  8
LAYER0014
  6
CONTINUOUS
 62
     7
 10
-161.219846141309
 20
11.2415406661549
 30
0.0
 11
-174.9034331774418
 21
11.2415406661549
 31
0.0
  0
LINE
  5
ED
  8
LAYER0014
  6
CONTINUOUS
 62
     7
 10
-161.219846141309
 20
1.241540666154895
 30
0.0
 11
-174.9034331774418
 21
1.241540666154895
 31
0.0
  0
LINE
  5
EE
  8
LAYER0014
  6
CONTINUOUS
 62
     7
 10
-172.6174376940434
 20
11.2415406661549
 30
0.0
 11
-172.6174376940434
 21
1.241540666154895
 31
0.0
  0
INSERT
  5
EF
  8
LAYER0014
 62
     7
  2
_OPEN30
 10
-172.6174376940434
 20
11.2415406661549
 30
0.0
 41
1.50000139391263
 42
1.499998500689492
 50
90.0
  0
INSERT
  5
F0
  8
LAYER0014
 62
     7
  2
_OPEN30
 10
-172.6174376940434
 20
1.241540666154895
 30
0.0
 41
1.50000139391263
 42
1.499998500689492
 50
270.0
  0
TEXT
  5
F1
  8
LAYER0014
 62
     7
 10
-173.1258152701997
 20
1.441547976971105
 30
0.0
 40
4.0
  1
M10
 50
89.90000000000001
 41
0.8000000000000017
  7
FDASTYLE1
 72
     5
 11
-173.1090601178871
 21
11.04153335533869
 31
0.0
  0
ENDBLK
  5
66
  8
0
  0
BLOCK
  8
0
  2
DA_IMAGEDIMGROUP_8
 70
     0
 10
0.0
 20
0.0
 30
0.0
  3
DA_IMAGEDIMGROUP_8
  1

  0
LINE
  5
F2
  8
LAYER0014
  6
CONTINUOUS
 62
     7
 10
-145.2198614000981
 20
99.90804075770762
 30
0.0
 11
-198.7754729723637
 21
99.90804075770762
 31
0.0
  0
LINE
  5
F3
  8
LAYER0014
  6
CONTINUOUS
 62
     7
 10
-145.2198614000981
 20
17.34503721766857
 30
0.0
 11
-198.7754729723637
 21
17.34503721766857
 31
0.0
  0
LINE
  5
F4
  8
LAYER0014
  6
CONTINUOUS
 62
     7
 10
-196.4894774889652
 20
99.90804075770762
 30
0.0
 11
-196.4894774889652
 21
17.34503721766857
 31
0.0
  0
INSERT
  5
F5
  8
LAYER0014
 62
     7
  2
_OPEN30
 10
-196.4894774889652
 20
99.90804075770762
 30
0.0
 41
1.50000139391263
 42
1.499998500689492
 50
90.0
  0
INSERT
  5
F6
  8
LAYER0014
 62
     7
  2
_OPEN30
 10
-196.4894774889652
 20
17.34503721766857
 30
0.0
 41
1.50000139391263
 42
1.499998500689492
 50
270.0
  0
TEXT
  5
F7
  8
LAYER0014
 62
     7
 10
-197.0369504205177
 20
31.42658041564668
 30
0.0
 40
4.0
  1
φ82.565(A2-5テーパー）
 50
89.90000000000001
 41
0.7472527472527468
  7
FDASTYLE1
 72
     5
 11
-196.9420045574128
 21
85.8264975597295
 31
0.0
  0
ENDBLK
  5
69
  8
0
  0
BLOCK
  8
0
  2
DA_IMAGEDIMGROUP_9
 70
     0
 10
0.0
 20
0.0
 30
0.0
  3
DA_IMAGEDIMGROUP_9
  1

  0
LINE
  5
F8
  8
LAYER0014
  6
CONTINUOUS
 62
     7
 10
-190.3633519054337
 20
111.026540513567
 30
0.0
 11
-210.4339202379887
 21
111.026540513567
 31
0.0
  0
LINE
  5
F9
  8
LAYER0014
  6
CONTINUOUS
 62
     7
 10
-204.0967077135746
 20
58.6265389876881
 30
0.0
 11
-210.4339202379887
 21
58.6265389876881
 31
0.0
  0
LINE
  5
FA
  8
LAYER0014
  6
CONTINUOUS
 62
     7
 10
-208.1479247545902
 20
111.026540513567
 30
0.0
 11
-208.1479247545902
 21
58.6265389876881
 31
0.0
  0
INSERT
  5
FB
  8
LAYER0014
 62
     7
  2
_OPEN30
 10
-208.1479247545902
 20
111.026540513567
 30
0.0
 41
1.50000139391263
 42
1.499998500689492
 50
90.0
  0
INSERT
  5
FC
  8
LAYER0014
 62
     7
  2
_OPEN30
 10
-208.1479247545902
 20
58.6265389876881
 30
0.0
 41
1.50000139391263
 42
1.499998500689492
 50
270.0
  0
TEXT
  5
FD
  8
LAYER0014
 62
     7
 10
-208.6618873815174
 20
76.82655193532123
 30
0.0
 40
4.0
  1
R52.4
 50
89.90000000000001
 41
0.8000000000000004
  7
FDASTYLE1
 72
     5
 11
-208.633962127663
 21
92.82652756593384
 31
0.0
  0
ENDBLK
  5
6C
  8
0
  0
BLOCK
  8
0
  2
DA_IMAGEDIMGROUP_10
 70
     0
 10
0.0
 20
0.0
 30
0.0
  3
DA_IMAGEDIMGROUP_10
  1

  0
LINE
  5
FE
  8
LAYER0014
  6
CONTINUOUS
 62
     7
 10
-146.2198614000981
 20
131.1265389876881
 30
0.0
 11
-222.9251006579106
 21
131.1265389876881
 31
0.0
  0
LINE
  5
FF
  8
LAYER0014
  6
CONTINUOUS
 62
     7
 10
-146.2198614000981
 20
-13.8734610123119
 30
0.0
 11
-222.9251006579106
 21
-13.8734610123119
 31
0.0
  0
LINE
  5
100
  8
LAYER0014
  6
CONTINUOUS
 62
     7
 10
-220.6391051745121
 20
131.1265389876881
 30
0.0
 11
-220.6391051745121
 21
-13.8734610123119
 31
0.0
  0
INSERT
  5
101
  8
LAYER0014
 62
     7
  2
_OPEN30
 10
-220.6391051745121
 20
131.1265389876881
 30
0.0
 41
1.50000139391263
 42
1.499998500689492
 50
90.0
  0
INSERT
  5
102
  8
LAYER0014
 62
     7
  2
_OPEN30
 10
-220.6391051745121
 20
-13.8734610123119
 30
0.0
 41
1.50000139391263
 42
1.499998500689492
 50
270.0
  0
TEXT
  5
103
  8
LAYER0014
 62
     7
 10
-221.1502752760539
 20
52.22654873544305
 30
0.0
 40
4.0
  1
φ145
 50
89.90000000000001
 41
0.7619047619047625
  7
FDASTYLE1
 72
     5
 11
-221.1279350729704
 21
65.02652923993314
 31
0.0
  0
ENDBLK
  5
6F
  8
0
  0
BLOCK
  8
0
  2
DA_IMAGEDIMGROUP_11
 70
     0
 10
0.0
 20
0.0
 30
0.0
  3
DA_IMAGEDIMGROUP_11
  1

  0
LINE
  5
104
  8
LAYER0014
  6
CONTINUOUS
 62
     7
 10
-146.2198614000981
 20
141.1265389876881
 30
0.0
 11
-234.8611510729496
 21
141.1265389876881
 31
0.0
  0
LINE
  5
105
  8
LAYER0014
  6
CONTINUOUS
 62
     7
 10
-146.2198614000981
 20
-23.87346482700917
 30
0.0
 11
-234.8611510729496
 21
-23.87346482700917
 31
0.0
  0
LINE
  5
106
  8
LAYER0014
  6
CONTINUOUS
 62
     7
 10
-232.5751403307621
 20
141.1265389876881
 30
0.0
 11
-232.5751403307621
 21
-23.8734610123119
 31
0.0
  0
INSERT
  5
107
  8
LAYER0014
 62
     7
  2
_OPEN30
 10
-232.5751403307621
 20
141.1265389876881
 30
0.0
 41
1.50000139391263
 42
1.499998500689492
 50
90.0
  0
INSERT
  5
108
  8
LAYER0014
 62
     7
  2
_OPEN30
 10
-232.5751403307621
 20
-23.8734610123119
 30
0.0
 41
1.50000139391263
 42
1.499998500689492
 50
270.0
  0
TEXT
  5
109
  8
LAYER0014
 62
     7
 10
-233.0863104323039
 20
52.22654873544305
 30
0.0
 40
4.0
  1
φ165
 50
89.90000000000001
 41
0.7619047619047625
  7
FDASTYLE1
 72
     5
 11
-233.0639702292204
 21
65.02652923993314
 31
0.0
  0
ENDBLK
  5
72
  8
0
  0
BLOCK
  8
0
  2
DA_IMAGEDIMGROUP_12
 70
     0
 10
0.0
 20
0.0
 30
0.0
  3
DA_IMAGEDIMGROUP_12
  1

  0
LINE
  5
10A
  8
LAYER0014
  6
CONTINUOUS
 62
     7
 10
-129.219846141309
 20
89.12653898768809
 30
0.0
 11
-186.8394378161137
 21
89.12653898768809
 31
0.0
  0
LINE
  5
10B
  8
LAYER0014
  6
CONTINUOUS
 62
     7
 10
-129.219846141309
 20
28.1265389876881
 30
0.0
 11
-186.8394378161137
 21
28.1265389876881
 31
0.0
  0
LINE
  5
10C
  8
LAYER0014
  6
CONTINUOUS
 62
     7
 10
-184.5534423327152
 20
89.12653898768809
 30
0.0
 11
-184.5534423327152
 21
28.1265389876881
 31
0.0
  0
INSERT
  5
10D
  8
LAYER0014
 62
     7
  2
_OPEN30
 10
-184.5534423327152
 20
89.12653898768809
 30
0.0
 41
1.50000139391263
 42
1.499998500689492
 50
90.0
  0
INSERT
  5
10E
  8
LAYER0014
 62
     7
  2
_OPEN30
 10
-184.5534423327152
 20
28.1265389876881
 30
0.0
 41
1.50000139391263
 42
1.499998500689492
 50
270.0
  0
TEXT
  5
10F
  8
LAYER0014
 62
     7
 10
-185.0674049596424
 20
50.6265511723818
 30
0.0
 40
4.0
  1
φ61H7
 50
89.90000000000001
 41
0.7692307692307688
  7
FDASTYLE1
 72
     5
 11
-185.039479705788
 21
66.62652680299439
 31
0.0
  0
ENDBLK
  5
75
  8
0
  0
BLOCK
  8
0
  2
DA_IMAGEDIMGROUP_13
 70
     0
 10
0.0
 20
0.0
 30
0.0
  3
DA_IMAGEDIMGROUP_13
  1

  0
LINE
  5
110
  8
LAYER0014
  6
CONTINUOUS
 62
     7
 10
-124.0257238268559
 20
83.62653898768809
 30
0.0
 11
-174.9034331774418
 21
83.62653898768809
 31
0.0
  0
LINE
  5
111
  8
LAYER0014
  6
CONTINUOUS
 62
     7
 10
-124.0257390856449
 20
33.6265389876881
 30
0.0
 11
-174.9034331774418
 21
33.6265389876881
 31
0.0
  0
LINE
  5
112
  8
LAYER0014
  6
CONTINUOUS
 62
     7
 10
-172.6174376940434
 20
83.62653898768809
 30
0.0
 11
-172.6174376940434
 21
33.6265389876881
 31
0.0
  0
INSERT
  5
113
  8
LAYER0014
 62
     7
  2
_OPEN30
 10
-172.6174376940434
 20
83.62653898768809
 30
0.0
 41
1.50000139391263
 42
1.499998500689492
 50
90.0
  0
INSERT
  5
114
  8
LAYER0014
 62
     7
  2
_OPEN30
 10
-172.6174376940434
 20
33.6265389876881
 30
0.0
 41
1.50000139391263
 42
1.499998500689492
 50
270.0
  0
TEXT
  5
115
  8
LAYER0014
 62
     7
 10
-173.1397778971269
 20
45.826558483198
 30
0.0
 40
4.0
  1
M50×P1.5
 50
89.90000000000001
 41
0.7804878048780496
  7
FDASTYLE1
 72
     5
 11
-173.0950974909599
 21
71.42651949217819
 31
0.0
  0
ENDBLK
  5
78
  8
0
  0
BLOCK
  8
0
  2
DA_IMAGEDIMGROUP_14
 70
     0
 10
0.0
 20
0.0
 30
0.0
  3
DA_IMAGEDIMGROUP_14
  1

  0
LINE
  5
116
  8
LAYER0014
  6
CONTINUOUS
 62
     7
 10
-103.3528875231449
 20
79.62653898768809
 30
0.0
 11
-162.3886321520512
 21
79.62653898768809
 31
0.0
  0
LINE
  5
117
  8
LAYER0014
  6
CONTINUOUS
 62
     7
 10
-103.3528875231449
 20
37.6265389876881
 30
0.0
 11
-162.3886321520512
 21
37.6265389876881
 31
0.0
  0
LINE
  5
118
  8
LAYER0014
  6
CONTINUOUS
 62
     7
 10
-160.1026366686527
 20
79.62653898768809
 30
0.0
 11
-160.1026366686527
 21
37.6265389876881
 31
0.0
  0
INSERT
  5
119
  8
LAYER0014
 62
     7
  2
_OPEN30
 10
-160.1026366686527
 20
79.62653898768809
 30
0.0
 41
1.50000139391263
 42
1.499998500689492
 50
90.0
  0
INSERT
  5
11A
  8
LAYER0014
 62
     7
  2
_OPEN30
 10
-160.1026366686527
 20
37.6265389876881
 30
0.0
 41
1.50000139391263
 42
1.499998500689492
 50
270.0
  0
TEXT
  5
11B
  8
LAYER0014
 62
     7
 10
-160.611014244809
 20
52.5839665249116
 30
0.0
 40
4.0
  1
φ42
 50
89.90000000000001
 41
0.7500000000000018
  7
FDASTYLE1
 72
     5
 11
-160.5942590924964
 21
62.18395190327918
 31
0.0
  0
TEXT
  5
11C
  8
LAYER0014
 62
     7
 10
-163.0933826205967
 20
62.68831446265057
 30
0.0
 40
2.6
  1
+0.2
 50
89.90000000000001
 41
0.7999999999999993
  7
FDASTYLE1
 72
     5
 11
-163.0788614885925
 21
71.00830179056912
 31
0.0
  0
TEXT
  5
11D
  8
LAYER0014
 62
     7
 10
-160.3933867329309
 20
62.68360207606265
 30
0.0
 40
2.6
  1
　0
 50
89.90000000000001
 41
0.7272727272727272
  7
FDASTYLE1
 72
     5
 11
-160.3861261669287
 21
66.84359574002193
 31
0.0
  0
ENDBLK
  5
7B
  8
0
  0
BLOCK
  8
0
  2
DA_IMAGEDIMGROUP_15
 70
     0
 10
0.0
 20
0.0
 30
0.0
  3
DA_IMAGEDIMGROUP_15
  1

  0
LINE
  5
11E
  8
LAYER0014
  6
CONTINUOUS
 62
     7
 10
-158.679846141309
 20
-1.298459333845104
 30
0.0
 11
-158.679846141309
 21
-10.46897721714589
 31
0.0
  0
LINE
  5
11F
  8
LAYER0014
  6
CONTINUOUS
 62
     7
 10
-158.679846141309
 20
-8.182977919050183
 30
0.0
 11
-142.679846141309
 21
-8.182977919050183
 31
0.0
  0
INSERT
  5
120
  8
LAYER0014
 62
     7
  2
_OPEN30
 10
-158.679846141309
 20
-8.182977919050183
 30
0.0
 41
1.50000139391263
 42
1.499998500689492
 50
180.0
  0
INSERT
  5
121
  8
LAYER0014
 62
     7
  2
_OPEN30
 10
-142.679846141309
 20
-8.182977919050183
 30
0.0
 41
1.50000139391263
 42
1.499998500689492
 50
360.0
  0
TEXT
  5
122
  8
LAYER0014
 62
     7
 10
-153.879846141309
 20
-7.682977919050183
 30
0.0
 40
4.0
  1
16
 41
0.7999999999999972
  7
FDASTYLE1
 72
     5
 11
-147.479846141309
 21
-7.682977919050183
 31
0.0
  0
ENDBLK
  5
7E
  8
0
  0
BLOCK
  8
0
  2
DA_IMAGEDIMGROUP_16
 70
     0
 10
0.0
 20
0.0
 30
0.0
  3
DA_IMAGEDIMGROUP_16
  1

  0
LINE
  5
123
  8
LAYER0014
  6
CONTINUOUS
 62
     7
 10
-40.94771509882853
 20
23.6265389876881
 30
0.0
 11
-28.26858744379923
 21
23.6265389876881
 31
0.0
  0
LINE
  5
124
  8
LAYER0014
  6
CONTINUOUS
 62
     7
 10
-30.55458674189494
 20
23.6265389876881
 30
0.0
 11
-30.55458674189494
 21
79.62653898768809
 31
0.0
  0
INSERT
  5
125
  8
LAYER0014
 62
     7
  2
_OPEN30
 10
-30.55458674189494
 20
23.6265389876881
 30
0.0
 41
1.50000139391263
 42
1.499998500689492
 50
270.0
  0
TEXT
  5
126
  8
LAYER0014
 62
     7
 10
-31.05458674189494
 20
51.25030164677172
 30
0.0
 40
4.0
  1
PCD70
 50
90.0
 41
0.8
  7
FDASTYLE1
 72
     5
 11
-31.05458674189494
 21
67.25030164677172
 31
0.0
  0
ENDBLK
  5
81
  8
0
  0
BLOCK
  8
0
  2
DA_IMAGEDIMGROUP_17
 70
     0
 10
0.0
 20
0.0
 30
0.0
  3
DA_IMAGEDIMGROUP_17
  1

  0
LINE
  5
127
  8
LAYER0014
  6
CONTINUOUS
 62
     7
 10
-45.13986140009806
 20
17.1265389876881
 30
0.0
 11
-16.27340922114298
 21
17.1265389876881
 31
0.0
  0
LINE
  5
128
  8
LAYER0014
  6
CONTINUOUS
 62
     7
 10
-18.55940851923869
 20
17.1265389876881
 30
0.0
 11
-18.55940851923869
 21
79.62653898768809
 31
0.0
  0
INSERT
  5
129
  8
LAYER0014
 62
     7
  2
_OPEN30
 10
-18.55940851923869
 20
17.1265389876881
 30
0.0
 41
1.50000139391263
 42
1.499998500689492
 50
270.0
  0
TEXT
  5
12A
  8
LAYER0014
 62
     7
 10
-19.05940851923869
 20
54.59657356560541
 30
0.0
 40
4.0
  1
φ83
 50
90.0
 41
0.7499999999999996
  7
FDASTYLE1
 72
     5
 11
-19.05940851923869
 21
64.19657356560541
 31
0.0
  0
ENDBLK
  5
84
  8
0
  0
BLOCK
  8
0
  2
DA_IMAGEDIMGROUP_18
 70
     0
 10
0.0
 20
0.0
 30
0.0
  3
DA_IMAGEDIMGROUP_18
  1

  0
LINE
  5
12B
  8
LAYER0014
  6
CONTINUOUS
 62
     7
 10
-16.57456904169963
 20
58.6265389876881
 30
0.0
 11
7.598645832567954
 21
58.6265389876881
 31
0.0
  0
LINE
  5
12C
  8
LAYER0014
  6
CONTINUOUS
 62
     7
 10
-43.13986140009806
 20
91.12653898768809
 30
0.0
 11
7.598645832567954
 21
91.12653898768809
 31
0.0
  0
LINE
  5
12D
  8
LAYER0014
  6
CONTINUOUS
 62
     7
 10
5.31264653447225
 20
58.6265389876881
 30
0.0
 11
5.31264653447225
 21
91.12653898768809
 31
0.0
  0
INSERT
  5
12E
  8
LAYER0014
 62
     7
  2
_OPEN30
 10
5.31264653447225
 20
58.6265389876881
 30
0.0
 41
1.50000139391263
 42
1.499998500689492
 50
270.0
  0
INSERT
  5
12F
  8
LAYER0014
 62
     7
  2
_OPEN30
 10
5.31264653447225
 20
91.12653898768809
 30
0.0
 41
1.50000139391263
 42
1.499998500689492
 50
90.0
  0
TEXT
  5
130
  8
LAYER0014
 62
     7
 10
4.812646534472251
 20
63.67653898768809
 30
0.0
 40
4.0
  1
MAX34.1
 50
90.0
 41
0.8000000000000002
  7
FDASTYLE1
 72
     5
 11
4.812646534472251
 21
86.0765389876881
 31
0.0
  0
ENDBLK
  5
87
  8
0
  0
BLOCK
  8
0
  2
DA_IMAGEDIMGROUP_19
 70
     0
 10
0.0
 20
0.0
 30
0.0
  3
DA_IMAGEDIMGROUP_19
  1

  0
LINE
  5
131
  8
LAYER0014
  6
CONTINUOUS
 62
     7
 10
-43.13986140009806
 20
139.1265389876881
 30
0.0
 11
7.598645832567954
 21
139.1265389876881
 31
0.0
  0
LINE
  5
132
  8
LAYER0014
  6
CONTINUOUS
 62
     7
 10
5.31264653447225
 20
91.12653898768809
 30
0.0
 11
5.31264653447225
 21
139.1265389876881
 31
0.0
  0
INSERT
  5
133
  8
LAYER0014
 62
     7
  2
_OPEN30
 10
5.31264653447225
 20
91.12653898768809
 30
0.0
 41
1.50000139391263
 42
1.499998500689492
 50
270.0
  0
INSERT
  5
134
  8
LAYER0014
 62
     7
  2
_OPEN30
 10
5.31264653447225
 20
139.1265389876881
 30
0.0
 41
1.50000139391263
 42
1.499998500689492
 50
90.0
  0
TEXT
  5
135
  8
LAYER0014
 62
     7
 10
4.81264653447225
 20
111.9265389876881
 30
0.0
 40
4.0
  1
48
 50
90.0
 41
0.8000000000000007
  7
FDASTYLE1
 72
     5
 11
4.81264653447225
 21
118.3265389876881
 31
0.0
  0
ENDBLK
  5
8A
  8
0
  0
BLOCK
  8
0
  2
DA_IMAGEDIMGROUP_20
 70
     0
 10
0.0
 20
0.0
 30
0.0
  3
DA_IMAGEDIMGROUP_20
  1

  0
LINE
  5
136
  8
LAYER0014
  6
CONTINUOUS
 62
     7
 10
-126.679846141309
 20
16.8050334029713
 30
0.0
 11
-126.679846141309
 21
-43.93622804112049
 31
0.0
  0
LINE
  5
137
  8
LAYER0014
  6
CONTINUOUS
 62
     7
 10
-142.679846141309
 20
-41.65022492832753
 30
0.0
 11
-126.679846141309
 21
-41.65022492832753
 31
0.0
  0
INSERT
  5
138
  8
LAYER0014
 62
     7
  2
_OPEN30
 10
-142.679846141309
 20
-41.65022492832753
 30
0.0
 41
1.50000139391263
 42
1.499998500689492
 50
180.0
  0
INSERT
  5
139
  8
LAYER0014
 62
     7
  2
_OPEN30
 10
-126.679846141309
 20
-41.65022492832753
 30
0.0
 41
1.50000139391263
 42
1.499998500689492
 50
360.0
  0
TEXT
  5
13A
  8
LAYER0014
 62
     7
 10
-137.879846141309
 20
-41.15022492832753
 30
0.0
 40
4.0
  1
16
 41
0.7999999999999972
  7
FDASTYLE1
 72
     5
 11
-131.479846141309
 21
-41.15022492832753
 31
0.0
  0
ENDBLK
  5
8D
  8
0
  0
BLOCK
  8
0
  2
DA_IMAGEDIMGROUP_21
 70
     0
 10
0.0
 20
0.0
 30
0.0
  3
DA_IMAGEDIMGROUP_21
  1

  0
LINE
  5
13B
  8
LAYER0014
  6
CONTINUOUS
 62
     7
 10
-121.6857360338871
 20
26.5865389876881
 30
0.0
 11
-121.6857360338871
 21
-56.14983582920643
 31
0.0
  0
LINE
  5
13C
  8
LAYER0014
  6
CONTINUOUS
 62
     7
 10
-142.679846141309
 20
-53.86383271641346
 30
0.0
 11
-121.6857360338871
 21
-53.86383271641346
 31
0.0
  0
INSERT
  5
13D
  8
LAYER0014
 62
     7
  2
_OPEN30
 10
-142.679846141309
 20
-53.86383271641346
 30
0.0
 41
1.50000139391263
 42
1.499998500689492
 50
180.0
  0
INSERT
  5
13E
  8
LAYER0014
 62
     7
  2
_OPEN30
 10
-121.6857360338871
 20
-53.86383271641346
 30
0.0
 41
1.50000139391263
 42
1.499998500689492
 50
360.0
  0
TEXT
  5
13F
  8
LAYER0014
 62
     7
 10
-140.1827789029044
 20
-53.34987008948627
 30
0.0
 40
4.0
  1
MAX28
 50
-0.1000000000000078
 41
0.7999999999999996
  7
FDASTYLE1
 72
     5
 11
-124.1828032722918
 21
-53.37779534334065
 31
0.0
  0
ENDBLK
  5
90
  8
0
  0
BLOCK
  8
0
  2
DA_IMAGEDIMGROUP_22
 70
     0
 10
0.0
 20
0.0
 30
0.0
  3
DA_IMAGEDIMGROUP_22
  1

  0
LINE
  5
140
  8
LAYER0014
  6
CONTINUOUS
 62
     7
 10
-54.68573603388713
 20
33.0865389876881
 30
0.0
 11
-54.68573603388713
 21
-56.14983582920643
 31
0.0
  0
LINE
  5
141
  8
LAYER0014
  6
CONTINUOUS
 62
     7
 10
-121.6857360338871
 20
-53.86383271641346
 30
0.0
 11
-54.68573603388713
 21
-53.86383271641346
 31
0.0
  0
INSERT
  5
142
  8
LAYER0014
 62
     7
  2
_OPEN30
 10
-121.6857360338871
 20
-53.86383271641346
 30
0.0
 41
1.50000139391263
 42
1.499998500689492
 50
180.0
  0
INSERT
  5
143
  8
LAYER0014
 62
     7
  2
_OPEN30
 10
-54.68573603388713
 20
-53.86383271641346
 30
0.0
 41
1.50000139391263
 42
1.499998500689492
 50
360.0
  0
TEXT
  5
144
  8
LAYER0014
 62
     7
 10
-91.38573603388713
 20
-53.36383271641346
 30
0.0
 40
4.0
  1
67
 41
0.8000000000000007
  7
FDASTYLE1
 72
     5
 11
-84.98573603388712
 21
-53.36383271641346
 31
0.0
  0
ENDBLK
  5
93
  8
0
  0
BLOCK
  8
0
  2
DA_IMAGEDIMGROUP_23
 70
     0
 10
0.0
 20
0.0
 30
0.0
  3
DA_IMAGEDIMGROUP_23
  1

  0
LINE
  5
145
  8
LAYER0014
  6
CONTINUOUS
 62
     7
 10
-142.679846141309
 20
-65.79985261387441
 30
0.0
 11
-47.67986140009806
 21
-65.79985261387441
 31
0.0
  0
INSERT
  5
146
  8
LAYER0014
 62
     7
  2
_OPEN30
 10
-142.679846141309
 20
-65.79985261387441
 30
0.0
 41
1.50000139391263
 42
1.499998500689492
 50
180.0
  0
INSERT
  5
147
  8
LAYER0014
 62
     7
  2
_OPEN30
 10
-47.67986140009806
 20
-65.79985261387441
 30
0.0
 41
1.50000139391263
 42
1.499998500689492
 50
360.0
  0
TEXT
  5
148
  8
LAYER0014
 62
     7
 10
-98.37985377070352
 20
-65.29985261387441
 30
0.0
 40
4.0
  1
95
 41
0.8000000000000007
  7
FDASTYLE1
 72
     5
 11
-91.97985377070351
 21
-65.29985261387441
 31
0.0
  0
ENDBLK
  5
96
  8
0
  0
BLOCK
  8
0
  2
DA_IMAGEDIMGROUP_24
 70
     0
 10
0.0
 20
0.0
 30
0.0
  3
DA_IMAGEDIMGROUP_24
  1

  0
LINE
  5
149
  8
LAYER0014
  6
CONTINUOUS
 62
     7
 10
-143.679846141309
 20
-26.4134610123119
 30
0.0
 11
-143.679846141309
 21
-80.02189088291738
 31
0.0
  0
LINE
  5
14A
  8
LAYER0014
  6
CONTINUOUS
 62
     7
 10
-47.67986140009806
 20
-24.4134610123119
 30
0.0
 11
-47.67986140009806
 21
-80.02189088291738
 31
0.0
  0
LINE
  5
14B
  8
LAYER0014
  6
CONTINUOUS
 62
     7
 10
-143.679846141309
 20
-77.73588777012441
 30
0.0
 11
-47.67986140009806
 21
-77.73588777012441
 31
0.0
  0
INSERT
  5
14C
  8
LAYER0014
 62
     7
  2
_OPEN30
 10
-143.679846141309
 20
-77.73588777012441
 30
0.0
 41
1.50000139391263
 42
1.499998500689492
 50
180.0
  0
INSERT
  5
14D
  8
LAYER0014
 62
     7
  2
_OPEN30
 10
-47.67986140009806
 20
-77.73588777012441
 30
0.0
 41
1.50000139391263
 42
1.499998500689492
 50
360.0
  0
TEXT
  5
14E
  8
LAYER0014
 62
     7
 10
-98.87985377070352
 20
-77.23588777012441
 30
0.0
 40
4.0
  1
96
 41
0.8000000000000007
  7
FDASTYLE1
 72
     5
 11
-92.47985377070351
 21
-77.23588777012441
 31
0.0
  0
ENDBLK
  5
99
  8
0
  0
BLOCK
  8
0
  2
DA_IMAGEDIMGROUP_25
 70
     0
 10
0.0
 20
0.0
 30
0.0
  3
DA_IMAGEDIMGROUP_25
  1

  0
LINE
  5
14F
  8
LAYER0014
  6
CONTINUOUS
 62
     7
 10
-121.6857360338871
 20
44.40020155482677
 30
0.0
 11
-104.6857360338871
 21
44.40020155482677
 31
0.0
  0
INSERT
  5
150
  8
LAYER0014
 62
     7
  2
_OPEN30
 10
-121.6857360338871
 20
44.40020155482677
 30
0.0
 41
1.50000139391263
 42
1.499998500689492
 50
180.0
  0
INSERT
  5
151
  8
LAYER0014
 62
     7
  2
_OPEN30
 10
-104.6857360338871
 20
44.40020155482677
 30
0.0
 41
1.50000139391263
 42
1.499998500689492
 50
360.0
  0
TEXT
  5
152
  8
LAYER0014
 62
     7
 10
-116.3857360338871
 20
44.90020155482677
 30
0.0
 40
4.0
  1
17
 41
0.8000000000000007
  7
FDASTYLE1
 72
     5
 11
-109.9857360338871
 21
44.90020155482677
 31
0.0
  0
ENDBLK
  5
9C
  8
0
  0
BLOCK
  8
0
  2
DA_IMAGEDIMGROUP_26
 70
     0
 10
0.0
 20
0.0
 30
0.0
  3
DA_IMAGEDIMGROUP_26
  1

  0
LINE
  5
153
  8
LAYER0014
  6
CONTINUOUS
 62
     7
 10
-101.6857360338871
 20
44.40020155482677
 30
0.0
 11
-54.68573603388713
 21
44.40020155482677
 31
0.0
  0
INSERT
  5
154
  8
LAYER0014
 62
     7
  2
_OPEN30
 10
-101.6857360338871
 20
44.40020155482677
 30
0.0
 41
1.50000139391263
 42
1.499998500689492
 50
180.0
  0
INSERT
  5
155
  8
LAYER0014
 62
     7
  2
_OPEN30
 10
-54.68573603388713
 20
44.40020155482677
 30
0.0
 41
1.50000139391263
 42
1.499998500689492
 50
360.0
  0
TEXT
  5
156
  8
LAYER0014
 62
     7
 10
-81.38573603388713
 20
44.90020155482677
 30
0.0
 40
4.0
  1
47
 41
0.8000000000000007
  7
FDASTYLE1
 72
     5
 11
-74.98573603388712
 21
44.90020155482677
 31
0.0
  0
ENDBLK
  5
9F
  8
0
  0
BLOCK
  8
0
  2
DA_IMAGEDIMGROUP_27
 70
     0
 10
0.0
 20
0.0
 30
0.0
  3
DA_IMAGEDIMGROUP_27
  1

  0
LINE
  5
157
  8
0
  6
CONTINUOUS
 62
     7
 10
-143.679846141309
 20
102.8865411239186
 30
0.0
 11
-185.5578956253153
 21
102.8865411239186
 31
0.0
  0
LINE
  5
158
  8
0
  6
CONTINUOUS
 62
     7
 10
-143.679846141309
 20
119.16654753261
 30
0.0
 11
-185.5578956253153
 21
119.16654753261
 31
0.0
  0
LINE
  5
159
  8
0
  6
CONTINUOUS
 62
     7
 10
-184.5578956253153
 20
102.8865411239186
 30
0.0
 11
-184.5578956253153
 21
119.16654753261
 31
0.0
  0
INSERT
  5
15A
  8
0
 62
     7
  2
_OPEN30
 10
-184.5578956253153
 20
102.8865411239186
 30
0.0
 41
1.50000139391263
 42
1.499998500689492
 50
270.0
  0
INSERT
  5
15B
  8
0
 62
     7
  2
_OPEN30
 10
-184.5578956253153
 20
119.16654753261
 30
0.0
 41
1.50000139391263
 42
1.499998500689492
 50
90.0
  0
TEXT
  5
15C
  8
0
 62
     7
 10
-185.0578956253153
 20
103.3580088774114
 30
0.0
 40
4.0
  1
φ16.28
 50
90.0
 41
0.7741935483870963
  7
FDASTYLE1
 72
     5
 11
-185.0578956253153
 21
122.5580088774114
 31
0.0
  0
TEXT
  5
15D
  8
0
 62
     7
 10
-187.5578956253153
 20
123.0580088774114
 30
0.0
 40
2.6
  1
+0.1
 50
90.0
 41
0.7999999999999979
  7
FDASTYLE1
 72
     5
 11
-187.5578956253153
 21
131.3780088774113
 31
0.0
  0
TEXT
  5
15E
  8
0
 62
     7
 10
-184.8578956253153
 20
123.0580088774114
 30
0.0
 40
2.6
  1
　0
 50
90.0
 41
0.7272727272727266
  7
FDASTYLE1
 72
     5
 11
-184.8578956253153
 21
127.2180088774114
 31
0.0
  0
ENDBLK
  5
A2
  8
0
  0
BLOCK
  8
0
  2
DA_IMAGEDIMGROUP_28
 70
     0
 10
0.0
 20
0.0
 30
0.0
  3
DA_IMAGEDIMGROUP_28
  1

  0
LINE
  5
15F
  8
0
  6
CONTINUOUS
 62
     7
 10
-136.1798614000981
 20
120.16654753261
 30
0.0
 11
-136.1798614000981
 21
155.0464191059134
 31
0.0
  0
LINE
  5
160
  8
0
  6
CONTINUOUS
 62
     7
 10
-142.679846141309
 20
132.1265389876881
 30
0.0
 11
-142.679846141309
 21
155.0464191059134
 31
0.0
  0
LINE
  5
161
  8
0
  6
CONTINUOUS
 62
     7
 10
-142.679846141309
 20
154.0464191059134
 30
0.0
 11
-136.1798614000981
 21
154.0464191059134
 31
0.0
  0
LINE
  5
162
  8
0
  6
CONTINUOUS
 62
     7
 10
-156.211696141309
 20
154.0464191059134
 30
0.0
 11
-142.679846141309
 21
154.0464191059134
 31
0.0
  0
INSERT
  5
163
  8
0
 62
     7
  2
_OPEN30
 10
-142.679846141309
 20
154.0464191059134
 30
0.0
 41
1.50000139391263
 42
1.499998500689492
 50
360.0
  0
LINE
  5
164
  8
0
  6
CONTINUOUS
 62
     7
 10
-131.1798614000981
 20
154.0464191059134
 30
0.0
 11
-136.1798614000981
 21
154.0464191059134
 31
0.0
  0
INSERT
  5
165
  8
0
 62
     7
  2
_OPEN30
 10
-136.1798614000981
 20
154.0464191059134
 30
0.0
 41
1.50000139391263
 42
1.499998500689492
 50
180.0
  0
TEXT
  5
166
  8
0
 62
     7
 10
-155.211696141309
 20
154.5464191059134
 30
0.0
 40
4.0
  1
6.5
 41
0.7999999999999995
  7
FDASTYLE1
 72
     5
 11
-145.611696141309
 21
154.5464191059134
 31
0.0
  0
ENDBLK
  5
A5
  8
0
  0
BLOCK
  8
0
  2
DA_IMAGEDIMGROUP_29
 70
     0
 10
0.0
 20
0.0
 30
0.0
  3
DA_IMAGEDIMGROUP_29
  1

  0
LINE
  5
167
  8
0
  6
CONTINUOUS
 62
     7
 10
-45.67986140009806
 20
90.12653898768809
 30
0.0
 11
-45.67986140009806
 21
70.57371080851011
 31
0.0
  0
LINE
  5
168
  8
0
  6
CONTINUOUS
 62
     7
 10
-47.67986140009806
 20
71.57371080851011
 30
0.0
 11
-45.67986140009806
 21
71.57371080851011
 31
0.0
  0
LINE
  5
169
  8
0
  6
CONTINUOUS
 62
     7
 10
-38.54801140009806
 20
71.57371080851011
 30
0.0
 11
-45.67986140009806
 21
71.57371080851011
 31
0.0
  0
INSERT
  5
16A
  8
0
 62
     7
  2
_OPEN30
 10
-45.67986140009806
 20
71.57371080851011
 30
0.0
 41
1.50000139391263
 42
1.499998500689492
 50
180.0
  0
LINE
  5
16B
  8
0
  6
CONTINUOUS
 62
     7
 10
-52.67986140009806
 20
71.57371080851011
 30
0.0
 11
-47.67986140009806
 21
71.57371080851011
 31
0.0
  0
INSERT
  5
16C
  8
0
 62
     7
  2
_OPEN30
 10
-47.67986140009806
 20
71.57371080851011
 30
0.0
 41
1.50000139391263
 42
1.499998500689492
 50
360.0
  0
TEXT
  5
16D
  8
0
 62
     7
 10
-42.74801140009807
 20
72.07371080851011
 30
0.0
 40
4.0
  1
2
 41
0.8000000000000007
  7
FDASTYLE1
 72
     5
 11
-39.54801140009806
 21
72.07371080851011
 31
0.0
  0
ENDBLK
  5
A8
  8
0
  0
BLOCK
  8
0
  2
DA_IMAGEDIMGROUP_30
 70
     0
 10
0.0
 20
0.0
 30
0.0
  3
DA_IMAGEDIMGROUP_30
  1

  0
LINE
  5
16E
  8
0
  6
CONTINUOUS
 62
     7
 10
-60.67986140009806
 20
97.12653898768809
 30
0.0
 11
-71.38197839972968
 21
97.12653898768809
 31
0.0
  0
LINE
  5
16F
  8
0
  6
CONTINUOUS
 62
     7
 10
-60.67986140009806
 20
135.1265389876881
 30
0.0
 11
-71.38197839972968
 21
135.1265389876881
 31
0.0
  0
LINE
  5
170
  8
0
  6
CONTINUOUS
 62
     7
 10
-70.38197839972968
 20
97.12653898768809
 30
0.0
 11
-70.38197839972968
 21
135.1265389876881
 31
0.0
  0
INSERT
  5
171
  8
0
 62
     7
  2
_OPEN30
 10
-70.38197839972968
 20
97.12653898768809
 30
0.0
 41
1.50000139391263
 42
1.499998500689492
 50
270.0
  0
INSERT
  5
172
  8
0
 62
     7
  2
_OPEN30
 10
-70.38197839972968
 20
135.1265389876881
 30
0.0
 41
1.50000139391263
 42
1.499998500689492
 50
90.0
  0
TEXT
  5
173
  8
0
 62
     7
 10
-70.88197839972968
 20
112.9265389876881
 30
0.0
 40
4.0
  1
38
 50
90.0
 41
0.8000000000000007
  7
FDASTYLE1
 72
     5
 11
-70.88197839972968
 21
119.3265389876881
 31
0.0
  0
ENDBLK
  5
AB
  8
0
  0
BLOCK
  8
0
  2
DA_IMAGEDIMGROUP_31
 70
     0
 10
0.0
 20
0.0
 30
0.0
  3
DA_IMAGEDIMGROUP_31
  1

  0
LINE
  5
174
  8
0
  6
CONTINUOUS
 62
     7
 10
-44.67986140009806
 20
91.12653898768809
 30
0.0
 11
-7.430252003082744
 21
91.12653898768809
 31
0.0
  0
LINE
  5
175
  8
0
  6
CONTINUOUS
 62
     7
 10
-22.80254969355509
 20
106.1265389876881
 30
0.0
 11
-7.430252003082744
 21
106.1265389876881
 31
0.0
  0
LINE
  5
176
  8
0
  6
CONTINUOUS
 62
     7
 10
-23.09630427119181
 20
126.1265389876881
 30
0.0
 11
-7.430252003082744
 21
126.1265389876881
 31
0.0
  0
LINE
  5
177
  8
0
  6
CONTINUOUS
 62
     7
 10
-8.430252003082744
 20
91.12653898768809
 30
0.0
 11
-8.430252003082744
 21
106.1265389876881
 31
0.0
  0
INSERT
  5
178
  8
0
 62
     7
  2
_OPEN30
 10
-8.430252003082744
 20
91.12653898768809
 30
0.0
 41
1.50000139391263
 42
1.499998500689492
 50
270.0
  0
INSERT
  5
179
  8
0
 62
     7
  2
_OPEN30
 10
-8.430252003082744
 20
106.1265389876881
 30
0.0
 41
1.50000139391263
 42
1.499998500689492
 50
90.0
  0
LINE
  5
17A
  8
0
  6
CONTINUOUS
 62
     7
 10
-8.430252003082744
 20
106.1265389876881
 30
0.0
 11
-8.430252003082744
 21
126.1265389876881
 31
0.0
  0
INSERT
  5
17B
  8
0
 62
     7
  2
_OPEN30
 10
-8.430252003082744
 20
106.1265389876881
 30
0.0
 41
1.50000139391263
 42
1.499998500689492
 50
270.0
  0
INSERT
  5
17C
  8
0
 62
     7
  2
_OPEN30
 10
-8.430252003082744
 20
126.1265389876881
 30
0.0
 41
1.50000139391263
 42
1.499998500689492
 50
90.0
  0
TEXT
  5
17D
  8
0
 62
     7
 10
-8.930252003082744
 20
95.42653898768809
 30
0.0
 40
4.0
  1
14
 50
90.0
 41
0.8000000000000007
  7
FDASTYLE1
 72
     5
 11
-8.930252003082744
 21
101.8265389876881
 31
0.0
  0
TEXT
  5
17E
  8
0
 62
     7
 10
-8.930252003082744
 20
112.9265389876881
 30
0.0
 40
4.0
  1
20
 50
90.0
 41
0.8000000000000007
  7
FDASTYLE1
 72
     5
 11
-8.930252003082744
 21
119.3265389876881
 31
0.0
  0
ENDBLK
  5
AE
  8
0
  0
BLOCK
  8
0
  2
DC_GROUP_3
 70
     0
 10
0.0
 20
0.0
 30
0.0
  3
DC_GROUP_3
  1

  0
LINE
  5
17F
  8
LAYER0014
  6
CONTINUOUS
 62
     7
 10
-93.67984614130899
 20
-23.8734610123119
 30
0.0
 11
-83.96930042421008
 21
-33.28975167728655
 31
0.0
  0
INSERT
  5
180
  8
LAYER0014
 62
     7
  2
_OPEN30
 10
-93.67984614130899
 20
-23.8734610123119
 30
0.0
 41
1.50000139391263
 42
1.499998500689492
 50
135.8813921095632
  0
LINE
  5
181
  8
LAYER0014
  6
CONTINUOUS
 62
     7
 10
-83.96930054554031
 20
-33.28975014572657
 30
0.0
 11
-67.28274479641659
 21
-33.28975014572657
 31
0.0
  0
TEXT
  5
182
  8
LAYER0014
 62
     7
 10
-83.60253266223953
 20
-31.68975014572658
 30
0.0
 40
4.0
  1
M8×16
 41
0.7692307692307692
  7
FDASTYLE1
 72
     5
 11
-67.60253266223953
 21
-31.68975014572658
 31
0.0
  0
ENDBLK
  5
B1
  8
0
  0
BLOCK
  8
0
  2
DA_IMAGEDIMGROUP_32
 70
     0
 10
0.0
 20
0.0
 30
0.0
  3
DA_IMAGEDIMGROUP_32
  1

  0
LINE
  5
183
  8
0
  6
CONTINUOUS
 62
     7
 10
-93.67984614130899
 20
-41.70304366740177
 30
0.0
 11
-47.67986140009806
 21
-41.70304366740177
 31
0.0
  0
INSERT
  5
184
  8
0
 62
     7
  2
_OPEN30
 10
-93.67984614130899
 20
-41.70304366740177
 30
0.0
 41
1.50000139391263
 42
1.499998500689492
 50
180.0
  0
INSERT
  5
185
  8
0
 62
     7
  2
_OPEN30
 10
-47.67986140009806
 20
-41.70304366740177
 30
0.0
 41
1.50000139391263
 42
1.499998500689492
 50
360.0
  0
LINE
  5
186
  8
0
  6
CONTINUOUS
 62
     7
 10
-93.67984614130899
 20
-28.32145267989741
 30
0.0
 11
-93.67984614130899
 21
-42.70304366740177
 31
0.0
  0
LINE
  5
187
  8
0
  6
CONTINUOUS
 62
     7
 10
-47.67986140009806
 20
-22.8734610123119
 30
0.0
 11
-47.67986140009806
 21
-42.70304366740177
 31
0.0
  0
TEXT
  5
188
  8
0
 62
     7
 10
-73.87985377070352
 20
-41.20304366740177
 30
0.0
 40
4.0
  1
46
 41
0.8000000000000007
  7
FDASTYLE1
 72
     5
 11
-67.47985377070351
 21
-41.20304366740177
 31
0.0
  0
ENDBLK
  5
B4
  8
0
  0
BLOCK
  8
0
  2
DC_GROUP_4
 70
     0
 10
0.0
 20
0.0
 30
0.0
  3
DC_GROUP_4
  1

  0
LINE
  5
189
  8
0
  6
CONTINUOUS
 62
     3
 10
-234.8878248974009
 20
-133.0541176470589
 30
0.0
 11
-232.2700019730347
 21
-133.1128386850127
 31
0.0
  0
LINE
  5
18A
  8
0
  6
CONTINUOUS
 62
     3
 10
-232.2700019730347
 20
-133.1128386850127
 30
0.0
 11
-229.652226253216
 21
-133.1724734966027
 31
0.0
  0
LINE
  5
18B
  8
0
  6
CONTINUOUS
 62
     3
 10
-229.652226253216
 20
-133.1724734966027
 30
0.0
 11
-227.0345449424929
 21
-133.2339358554655
 31
0.0
  0
LINE
  5
18C
  8
0
  6
CONTINUOUS
 62
     3
 10
-227.0345449424929
 20
-133.2339358554655
 30
0.0
 11
-224.4170052454128
 21
-133.2981395352371
 31
0.0
  0
LINE
  5
18D
  8
0
  6
CONTINUOUS
 62
     3
 10
-224.4170052454128
 20
-133.2981395352371
 30
0.0
 11
-221.7996543665235
 21
-133.365998309554
 31
0.0
  0
LINE
  5
18E
  8
0
  6
CONTINUOUS
 62
     3
 10
-221.7996543665235
 20
-133.365998309554
 30
0.0
 11
-219.1825395103726
 21
-133.4384259520523
 31
0.0
  0
LINE
  5
18F
  8
0
  6
CONTINUOUS
 62
     3
 10
-219.1825395103726
 20
-133.4384259520523
 30
0.0
 11
-216.565707881508
 21
-133.5163362363686
 31
0.0
  0
LINE
  5
190
  8
0
  6
CONTINUOUS
 62
     3
 10
-216.565707881508
 20
-133.5163362363686
 30
0.0
 11
-213.9492066844772
 21
-133.6006429361389
 31
0.0
  0
LINE
  5
191
  8
0
  6
CONTINUOUS
 62
     3
 10
-213.9492066844772
 20
-133.6006429361389
 30
0.0
 11
-211.333083123828
 21
-133.6922598249997
 31
0.0
  0
LINE
  5
192
  8
0
  6
CONTINUOUS
 62
     3
 10
-211.333083123828
 20
-133.6922598249997
 30
0.0
 11
-208.717384404108
 21
-133.7921006765873
 31
0.0
  0
LINE
  5
193
  8
0
  6
CONTINUOUS
 62
     3
 10
-208.717384404108
 20
-133.7921006765873
 30
0.0
 11
-206.102157729865
 21
-133.9010792645379
 31
0.0
  0
LINE
  5
194
  8
0
  6
CONTINUOUS
 62
     3
 10
-206.102157729865
 20
-133.9010792645379
 30
0.0
 11
-203.4874503056466
 21
-134.0201093624878
 31
0.0
  0
LINE
  5
195
  8
0
  6
CONTINUOUS
 62
     3
 10
-203.4874503056466
 20
-134.0201093624878
 30
0.0
 11
-200.8733093360006
 21
-134.1501047440734
 31
0.0
  0
LINE
  5
196
  8
0
  6
CONTINUOUS
 62
     3
 10
-200.8733093360006
 20
-134.1501047440734
 30
0.0
 11
-198.2597820254745
 21
-134.291979182931
 31
0.0
  0
LINE
  5
197
  8
0
  6
CONTINUOUS
 62
     3
 10
-198.2597820254745
 20
-134.291979182931
 30
0.0
 11
-195.6469155786162
 21
-134.4466464526969
 31
0.0
  0
LINE
  5
198
  8
0
  6
CONTINUOUS
 62
     3
 10
-195.6469155786162
 20
-134.4466464526969
 30
0.0
 11
-193.0347607446495
 21
-134.6149669250431
 31
0.0
  0
LINE
  5
199
  8
0
  6
CONTINUOUS
 62
     3
 10
-193.0347607446495
 20
-134.6149669250431
 30
0.0
 11
-190.4234036850162
 21
-134.7972674724141
 31
0.0
  0
LINE
  5
19A
  8
0
  6
CONTINUOUS
 62
     3
 10
-190.4234036850162
 20
-134.7972674724141
 30
0.0
 11
-187.8129509268779
 21
-134.993568149533
 31
0.0
  0
LINE
  5
19B
  8
0
  6
CONTINUOUS
 62
     3
 10
-187.8129509268779
 20
-134.993568149533
 30
0.0
 11
-185.2035092409546
 21
-135.2038853418269
 31
0.0
  0
LINE
  5
19C
  8
0
  6
CONTINUOUS
 62
     3
 10
-185.2035092409546
 20
-135.2038853418269
 30
0.0
 11
-182.595185397966
 21
-135.428235434723
 31
0.0
  0
LINE
  5
19D
  8
0
  6
CONTINUOUS
 62
     3
 10
-182.595185397966
 20
-135.428235434723
 30
0.0
 11
-179.9880861686317
 21
-135.6666348136485
 31
0.0
  0
LINE
  5
19E
  8
0
  6
CONTINUOUS
 62
     3
 10
-179.9880861686317
 20
-135.6666348136485
 30
0.0
 11
-177.3823183236714
 21
-135.9190998640306
 31
0.0
  0
LINE
  5
19F
  8
0
  6
CONTINUOUS
 62
     3
 10
-177.3823183236714
 20
-135.9190998640306
 30
0.0
 11
-174.7779886323675
 21
-136.1856469645795
 31
0.0
  0
LINE
  5
1A0
  8
0
  6
CONTINUOUS
 62
     3
 10
-174.7779886323675
 20
-136.1856469645795
 30
0.0
 11
-172.1751821983316
 21
-136.4661912459235
 31
0.0
  0
LINE
  5
1A1
  8
0
  6
CONTINUOUS
 62
     3
 10
-172.1751821983316
 20
-136.4661912459235
 30
0.0
 11
-169.5739077459847
 21
-136.7602909032177
 31
0.0
  0
LINE
  5
1A2
  8
0
  6
CONTINUOUS
 62
     3
 10
-169.5739077459847
 20
-136.7602909032177
 30
0.0
 11
-166.9741571770855
 21
-137.0674255158963
 31
0.0
  0
LINE
  5
1A3
  8
0
  6
CONTINUOUS
 62
     3
 10
-166.9741571770855
 20
-137.0674255158963
 30
0.0
 11
-164.3759223933924
 21
-137.3870746633939
 31
0.0
  0
LINE
  5
1A4
  8
0
  6
CONTINUOUS
 62
     3
 10
-164.3759223933924
 20
-137.3870746633939
 30
0.0
 11
-161.779195296664
 21
-137.7187179251449
 31
0.0
  0
LINE
  5
1A5
  8
0
  6
CONTINUOUS
 62
     3
 10
-161.779195296664
 20
-137.7187179251449
 30
0.0
 11
-159.1839677886589
 21
-138.0618348805838
 31
0.0
  0
LINE
  5
1A6
  8
0
  6
CONTINUOUS
 62
     3
 10
-159.1839677886589
 20
-138.0618348805838
 30
0.0
 11
-156.5902317711355
 21
-138.4159051091451
 31
0.0
  0
LINE
  5
1A7
  8
0
  6
CONTINUOUS
 62
     3
 10
-156.5902317711355
 20
-138.4159051091451
 30
0.0
 11
-153.9979791341716
 21
-138.7804105845237
 31
0.0
  0
LINE
  5
1A8
  8
0
  6
CONTINUOUS
 62
     3
 10
-153.9979791341716
 20
-138.7804105845237
 30
0.0
 11
-151.4072011149394
 21
-139.1549671098021
 31
0.0
  0
LINE
  5
1A9
  8
0
  6
CONTINUOUS
 62
     3
 10
-151.4072011149394
 20
-139.1549671098021
 30
0.0
 11
-148.81788796525
 21
-139.5393924625507
 31
0.0
  0
LINE
  5
1AA
  8
0
  6
CONTINUOUS
 62
     3
 10
-148.81788796525
 20
-139.5393924625507
 30
0.0
 11
-146.2300298551912
 21
-139.933521171529
 31
0.0
  0
LINE
  5
1AB
  8
0
  6
CONTINUOUS
 62
     3
 10
-146.2300298551912
 20
-139.933521171529
 30
0.0
 11
-143.643616954851
 21
-140.3371877654959
 31
0.0
  0
LINE
  5
1AC
  8
0
  6
CONTINUOUS
 62
     3
 10
-143.643616954851
 20
-140.3371877654959
 30
0.0
 11
-141.0586394343173
 21
-140.750226773211
 31
0.0
  0
LINE
  5
1AD
  8
0
  6
CONTINUOUS
 62
     3
 10
-141.0586394343173
 20
-140.750226773211
 30
0.0
 11
-138.4750874636781
 21
-141.1724727234333
 31
0.0
  0
LINE
  5
1AE
  8
0
  6
CONTINUOUS
 62
     3
 10
-138.4750874636781
 20
-141.1724727234333
 30
0.0
 11
-135.8929512130215
 21
-141.603760144922
 31
0.0
  0
LINE
  5
1AF
  8
0
  6
CONTINUOUS
 62
     3
 10
-135.8929512130215
 20
-141.603760144922
 30
0.0
 11
-133.3122318377389
 21
-142.0439682776706
 31
0.0
  0
LINE
  5
1B0
  8
0
  6
CONTINUOUS
 62
     3
 10
-133.3122318377389
 20
-142.0439682776706
 30
0.0
 11
-130.7330881641672
 21
-142.4936180974592
 31
0.0
  0
LINE
  5
1B1
  8
0
  6
CONTINUOUS
 62
     3
 10
-130.7330881641672
 20
-142.4936180974592
 30
0.0
 11
-128.1557970552443
 21
-142.9537110002951
 31
0.0
  0
LINE
  5
1B2
  8
0
  6
CONTINUOUS
 62
     3
 10
-128.1557970552443
 20
-142.9537110002951
 30
0.0
 11
-125.5806382234764
 21
-143.4252599801987
 31
0.0
  0
LINE
  5
1B3
  8
0
  6
CONTINUOUS
 62
     3
 10
-125.5806382234764
 20
-143.4252599801987
 30
0.0
 11
-123.0078913813692
 21
-143.9092780311904
 31
0.0
  0
LINE
  5
1B4
  8
0
  6
CONTINUOUS
 62
     3
 10
-123.0078913813692
 20
-143.9092780311904
 30
0.0
 11
-120.4378362414288
 21
-144.4067781472908
 31
0.0
  0
LINE
  5
1B5
  8
0
  6
CONTINUOUS
 62
     3
 10
-120.4378362414288
 20
-144.4067781472908
 30
0.0
 11
-117.8707525161612
 21
-144.9187733225204
 31
0.0
  0
LINE
  5
1B6
  8
0
  6
CONTINUOUS
 62
     3
 10
-117.8707525161612
 20
-144.9187733225204
 30
0.0
 11
-115.3069199180721
 21
-145.4462765508997
 31
0.0
  0
LINE
  5
1B7
  8
0
  6
CONTINUOUS
 62
     3
 10
-115.3069199180721
 20
-145.4462765508997
 30
0.0
 11
-112.7465463717333
 21
-145.9899943749171
 31
0.0
  0
LINE
  5
1B8
  8
0
  6
CONTINUOUS
 62
     3
 10
-112.7465463717333
 20
-145.9899943749171
 30
0.0
 11
-110.1893671437555
 21
-146.5486156337073
 31
0.0
  0
LINE
  5
1B9
  8
0
  6
CONTINUOUS
 62
     3
 10
-110.1893671437555
 20
-146.5486156337073
 30
0.0
 11
-107.63492636335
 21
-147.1200132305597
 31
0.0
  0
LINE
  5
1BA
  8
0
  6
CONTINUOUS
 62
     3
 10
-107.63492636335
 20
-147.1200132305597
 30
0.0
 11
-105.0827676225879
 21
-147.7020577757972
 31
0.0
  0
LINE
  5
1BB
  8
0
  6
CONTINUOUS
 62
     3
 10
-105.0827676225879
 20
-147.7020577757972
 30
0.0
 11
-102.5324345135407
 21
-148.292619879743
 31
0.0
  0
LINE
  5
1BC
  8
0
  6
CONTINUOUS
 62
     3
 10
-102.5324345135407
 20
-148.292619879743
 30
0.0
 11
-99.98347062827959
 21
-148.8895701527199
 31
0.0
  0
LINE
  5
1BD
  8
0
  6
CONTINUOUS
 62
     3
 10
-99.98347062827959
 20
-148.8895701527199
 30
0.0
 11
-97.43541955887585
 21
-149.4907792050508
 31
0.0
  0
LINE
  5
1BE
  8
0
  6
CONTINUOUS
 62
     3
 10
-97.43541955887585
 20
-149.4907792050508
 30
0.0
 11
-94.88782489740086
 21
-150.0941176470589
 31
0.0
  0
ENDBLK
  5
B7
  8
0
  0
BLOCK
  8
0
  2
_OPEN30
 70
     0
 10
0.0
 20
0.0
 30
0.0
  3
_OPEN30
  1

  0
LINE
  5
BE
  8
0
  6
BYBLOCK
 62
     0
 10
-1.0
 20
0.267949
 30
0.0
 11
0.0
 21
0.0
 31
0.0
  0
LINE
  5
BF
  8
0
  6
BYBLOCK
 62
     0
 10
0.0
 20
0.0
 30
0.0
 11
-1.0
 21
-0.267949
 31
0.0
  0
LINE
  5
C0
  8
0
  6
BYBLOCK
 62
     0
 10
0.0
 20
0.0
 30
0.0
 11
-1.0
 21
0.0
 31
0.0
  0
ENDBLK
  5
BD
  8
0
  0
ENDSEC
  0
SECTION
  2
ENTITIES
  0
LINE
  5
1BF
  8
ZUWAKU
  6
CONTINUOUS
 62
     3
 10
-277.0
 20
-190.0
 30
0.0
 11
-277.0
 21
190.0
 31
0.0
  0
LINE
  5
1C0
  8
ZUWAKU
  6
CONTINUOUS
 62
     3
 10
277.0
 20
-190.0
 30
0.0
 11
277.0
 21
190.0
 31
0.0
  0
LINE
  5
1C1
  8
ZUWAKU
  6
CONTINUOUS
 62
     3
 10
-277.0
 20
-190.0
 30
0.0
 11
277.0
 21
-190.0
 31
0.0
  0
LINE
  5
1C2
  8
ZUWAKU
  6
CONTINUOUS
 62
     3
 10
-277.0
 20
189.9999999999999
 30
0.0
 11
277.0
 21
189.9999999999999
 31
0.0
  0
LINE
  5
1C3
  8
ZUWAKU
  6
CONTINUOUS
 62
     3
 10
97.00000000000001
 20
-190.0
 30
0.0
 11
97.00000000000001
 21
-130.0
 31
0.0
  0
LINE
  5
1C4
  8
ZUWAKU
  6
CONTINUOUS
 62
     3
 10
97.00000000000001
 20
-176.0
 30
0.0
 11
277.0
 21
-176.0
 31
0.0
  0
LINE
  5
1C5
  8
ZUWAKU
  6
CONTINUOUS
 62
     3
 10
146.0
 20
-162.0
 30
0.0
 11
277.0
 21
-162.0
 31
0.0
  0
LINE
  5
1C6
  8
ZUWAKU
  6
CONTINUOUS
 62
     3
 10
146.0
 20
-148.0
 30
0.0
 11
277.0
 21
-148.0
 31
0.0
  0
LINE
  5
1C7
  8
ZUWAKU
  6
CONTINUOUS
 62
     3
 10
146.0
 20
-138.0
 30
0.0
 11
277.0
 21
-138.0
 31
0.0
  0
LINE
  5
1C8
  8
ZUWAKU
  6
CONTINUOUS
 62
     3
 10
146.0
 20
-176.0
 30
0.0
 11
146.0
 21
-130.0
 31
0.0
  0
LINE
  5
1C9
  8
ZUWAKU
  6
CONTINUOUS
 62
     3
 10
255.0
 20
-176.0
 30
0.0
 11
255.0
 21
-130.0
 31
0.0
  0
LINE
  5
1CA
  8
ZUWAKU
  6
CONTINUOUS
 62
     3
 10
171.0
 20
-190.0
 30
0.0
 11
171.0
 21
-176.0
 31
0.0
  0
LINE
  5
1CB
  8
ZUWAKU
  6
CONTINUOUS
 62
     3
 10
97.00000000000001
 20
-130.0
 30
0.0
 11
277.0
 21
-130.0
 31
0.0
  0
LINE
  5
1CC
  8
ZUWAKU
  6
CONTINUOUS
 62
     3
 10
226.0
 20
-176.0
 30
0.0
 11
226.0
 21
-148.0
 31
0.0
  0
LINE
  5
1CD
  8
ZUWAKU
  6
CONTINUOUS
 62
     4
 10
105.0
 20
-172.0
 30
0.0
 11
105.0
 21
-130.0
 31
0.0
  0
LINE
  5
1CE
  8
ZUWAKU
  6
CONTINUOUS
 62
     4
 10
109.0
 20
-172.0
 30
0.0
 11
109.0
 21
-130.0
 31
0.0
  0
LINE
  5
1CF
  8
ZUWAKU
  6
CONTINUOUS
 62
     4
 10
121.5
 20
-176.0
 30
0.0
 11
121.5
 21
-130.0
 31
0.0
  0
LINE
  5
1D0
  8
ZUWAKU
  6
CONTINUOUS
 62
     4
 10
97.00000000000001
 20
-137.0
 30
0.0
 11
146.0
 21
-137.0
 31
0.0
  0
LINE
  5
1D1
  8
ZUWAKU
  6
CONTINUOUS
 62
     4
 10
97.00000000000001
 20
-144.0
 30
0.0
 11
146.0
 21
-144.0
 31
0.0
  0
LINE
  5
1D2
  8
ZUWAKU
  6
CONTINUOUS
 62
     4
 10
97.00000000000001
 20
-165.0
 30
0.0
 11
146.0
 21
-165.0
 31
0.0
  0
LINE
  5
1D3
  8
ZUWAKU
  6
CONTINUOUS
 62
     4
 10
97.00000000000001
 20
-172.0
 30
0.0
 11
146.0
 21
-172.0
 31
0.0
  0
LINE
  5
1D4
  8
ZUWAKU
  6
CONTINUOUS
 62
     4
 10
255.0
 20
-166.0
 30
0.0
 11
277.0
 21
-166.0
 31
0.0
  0
LINE
  5
1D5
  8
ZUWAKU
  6
CONTINUOUS
 62
     4
 10
153.0
 20
-139.5
 30
0.0
 11
153.0
 21
-130.0
 31
0.0
  0
LINE
  5
1D6
  8
ZUWAKU
  6
CONTINUOUS
 62
     4
 10
202.0
 20
-148.0
 30
0.0
 11
202.0
 21
-146.5
 31
0.0
  0
LINE
  5
1D7
  8
ZUWAKU
  6
CONTINUOUS
 62
     4
 10
226.0
 20
-148.0
 30
0.0
 11
226.0
 21
-146.5
 31
0.0
  0
LINE
  5
1D8
  8
ZUWAKU
  6
CONTINUOUS
 62
     4
 10
243.0
 20
-148.0
 30
0.0
 11
243.0
 21
-146.5
 31
0.0
  0
LINE
  5
1D9
  8
ZUWAKU
  6
CONTINUOUS
 62
     4
 10
202.0
 20
-139.5
 30
0.0
 11
202.0
 21
-130.0
 31
0.0
  0
LINE
  5
1DA
  8
ZUWAKU
  6
CONTINUOUS
 62
     4
 10
226.0
 20
-139.5
 30
0.0
 11
226.0
 21
-130.0
 31
0.0
  0
LINE
  5
1DB
  8
ZUWAKU
  6
CONTINUOUS
 62
     4
 10
243.0
 20
-139.5
 30
0.0
 11
243.0
 21
-130.0
 31
0.0
  0
LINE
  5
1DC
  8
ZUWAKU
  6
CONTINUOUS
 62
     4
 10
97.00000000000001
 20
-151.0
 30
0.0
 11
146.0
 21
-151.0
 31
0.0
  0
LINE
  5
1DD
  8
ZUWAKU
  6
CONTINUOUS
 62
     4
 10
97.00000000000001
 20
-158.0
 30
0.0
 11
146.0
 21
-158.0
 31
0.0
  0
LINE
  5
1DE
  8
ZUWAKU
  6
CONTINUOUS
 62
     4
 10
101.0
 20
-130.5
 30
0.0
 11
98.00000000000001
 21
-136.5
 31
0.0
  0
LINE
  5
1DF
  8
ZUWAKU
  6
CONTINUOUS
 62
     4
 10
101.0
 20
-130.5
 30
0.0
 11
104.0
 21
-136.5
 31
0.0
  0
LINE
  5
1E0
  8
ZUWAKU
  6
CONTINUOUS
 62
     4
 10
98.00000000000001
 20
-136.5
 30
0.0
 11
104.0
 21
-136.5
 31
0.0
  0
LINE
  5
1E1
  8
ZUWAKU
  6
CONTINUOUS
 62
     4
 10
101.0
 20
-158.5
 30
0.0
 11
98.00000000000001
 21
-164.5
 31
0.0
  0
LINE
  5
1E2
  8
ZUWAKU
  6
CONTINUOUS
 62
     4
 10
101.0
 20
-158.5
 30
0.0
 11
104.0
 21
-164.5
 31
0.0
  0
LINE
  5
1E3
  8
ZUWAKU
  6
CONTINUOUS
 62
     4
 10
98.00000000000001
 20
-164.5
 30
0.0
 11
104.0
 21
-164.5
 31
0.0
  0
LINE
  5
1E4
  8
ZUWAKU
  6
CONTINUOUS
 62
     4
 10
101.0
 20
-151.5
 30
0.0
 11
98.00000000000001
 21
-157.5
 31
0.0
  0
LINE
  5
1E5
  8
ZUWAKU
  6
CONTINUOUS
 62
     4
 10
101.0
 20
-151.5
 30
0.0
 11
104.0
 21
-157.5
 31
0.0
  0
LINE
  5
1E6
  8
ZUWAKU
  6
CONTINUOUS
 62
     4
 10
98.00000000000001
 20
-157.5
 30
0.0
 11
104.0
 21
-157.5
 31
0.0
  0
LINE
  5
1E7
  8
ZUWAKU
  6
CONTINUOUS
 62
     4
 10
101.0
 20
-144.5
 30
0.0
 11
98.00000000000001
 21
-150.5
 31
0.0
  0
LINE
  5
1E8
  8
ZUWAKU
  6
CONTINUOUS
 62
     4
 10
101.0
 20
-144.5
 30
0.0
 11
104.0
 21
-150.5
 31
0.0
  0
LINE
  5
1E9
  8
ZUWAKU
  6
CONTINUOUS
 62
     4
 10
98.00000000000001
 20
-150.5
 30
0.0
 11
104.0
 21
-150.5
 31
0.0
  0
LINE
  5
1EA
  8
ZUWAKU
  6
CONTINUOUS
 62
     4
 10
101.0
 20
-137.5
 30
0.0
 11
98.00000000000001
 21
-143.5
 31
0.0
  0
LINE
  5
1EB
  8
ZUWAKU
  6
CONTINUOUS
 62
     4
 10
101.0
 20
-137.5
 30
0.0
 11
104.0
 21
-143.5
 31
0.0
  0
LINE
  5
1EC
  8
ZUWAKU
  6
CONTINUOUS
 62
     4
 10
98.00000000000001
 20
-143.5
 30
0.0
 11
104.0
 21
-143.5
 31
0.0
  0
LINE
  5
1ED
  8
ZUWAKU
  6
CONTINUOUS
 62
     4
 10
172.6666666666666
 20
-176.0
 30
0.0
 11
172.6666666666666
 21
-162.0
 31
0.0
  0
LINE
  5
1EE
  8
ZUWAKU
  6
CONTINUOUS
 62
     4
 10
199.3333333333333
 20
-176.0
 30
0.0
 11
199.3333333333333
 21
-161.9509415757253
 31
0.0
  0
LINE
  5
1EF
  8
ZUWAKU
  6
CONTINUOUS
 62
     4
 10
212.6666666666666
 20
-167.5
 30
0.0
 11
212.6666666666666
 21
-161.9509415757253
 31
0.0
  0
LINE
  5
1F0
  8
ZUWAKU
  6
CONTINUOUS
 62
     4
 10
226.0
 20
-155.0
 30
0.0
 11
255.0
 21
-155.0
 31
0.0
  0
LINE
  5
1F1
  8
ZUWAKU
  6
CONTINUOUS
 62
     4
 10
146.0
 20
-166.0
 30
0.0
 11
226.0
 21
-166.0
 31
0.0
  0
TEXT
  5
1F3
  8
ZUWAKU
 62
     7
 10
148.3132301474747
 20
-130.821188728956
 30
0.0
 40
2.6656
  1
符号
 41
0.8
  7
FDASTYLE0
  0
TEXT
  5
1F4
  8
ZUWAKU
 62
     7
 10
162.4141311219058
 20
-135.8245525019963
 30
0.0
 40
4.0
  1
品       名
 41
0.765957446808511
  7
FDASTYLE1
 72
     5
 11
191.2141311219058
 21
-135.8245525019963
 31
0.0
  0
TEXT
  5
1F5
  8
ZUWAKU
 62
     7
 10
207.2331564413096
 20
-135.8245525019963
 30
0.0
 40
4.0
  1
材  料
 41
0.7272727272727279
  7
FDASTYLE1
 72
     5
 11
220.0331564413096
 21
-135.8245525019963
 31
0.0
  0
TEXT
  5
1F6
  8
ZUWAKU
 62
     7
 10
229.516061684855
 20
-135.8245525019963
 30
0.0
 40
4.0
  1
個 数
 41
0.7058823529411761
  7
FDASTYLE1
 72
     5
 11
239.116061684855
 21
-135.8245525019963
 31
0.0
  0
TEXT
  5
1F7
  8
ZUWAKU
 62
     7
 10
245.721810952888
 20
-133.5649080050572
 30
0.0
 40
2.5
  1
単重量
 41
0.6666666666666666
  7
FDASTYLE1
 72
     5
 11
251.721810952888
 21
-133.5649080050572
 31
0.0
  0
TEXT
  5
1F8
  8
ZUWAKU
 62
     7
 10
244.7089516236359
 20
-137.3631304897525
 30
0.0
 40
2.5
  1
(kg)
 41
0.8
  7
FDASTYLE1
 72
     5
 11
252.7089516236359
 21
-137.3631304897525
 31
0.0
  0
TEXT
  5
1F9
  8
ZUWAKU
 62
     7
 10
259.1421970654778
 20
-135.8245525019963
 30
0.0
 40
4.0
  1
記  事
 41
0.7272727272727279
  7
FDASTYLE1
 72
     5
 11
271.9421970654778
 21
-135.8245525019963
 31
0.0
  0
TEXT
  5
1FA
  8
ZUWAKU
 62
     7
 10
258.8450794551645
 20
-165.4873041997729
 30
0.0
 40
3.0
  1
コード番号
 41
0.6666666666666666
  7
FDASTYLE1
 72
     5
 11
270.8450794551645
 21
-165.4873041997729
 31
0.0
  0
TEXT
  5
1FB
  8
ZUWAKU
 62
     7
 10
101.9119920158317
 20
-175.1879010540338
 30
0.0
 40
2.5
  1
訂 正 来 歴
 41
0.717948717948718
  7
FDASTYLE1
 72
     5
 11
115.9119920158317
 21
-175.1879010540338
 31
0.0
  0
TEXT
  5
1FC
  8
ZUWAKU
 62
     7
 10
125.890334846765
 20
-175.2166697391651
 30
0.0
 40
2.5
  1
工 事 番 号
 41
0.717948717948718
  7
FDASTYLE1
 72
     5
 11
139.890334846765
 21
-175.2166697391651
 31
0.0
  0
TEXT
  5
1FD
  8
ZUWAKU
 62
     7
 10
99.96483784660289
 20
-165.9634530565915
 30
0.0
 40
2.0825
  1
記号
 41
0.8
  7
FDASTYLE0
  0
TEXT
  5
1FE
  8
ZUWAKU
 62
     7
 10
105.9042249067618
 20
-165.9634530565915
 30
0.0
 40
2.0825
  1
理由
 41
0.8
  7
FDASTYLE0
  0
TEXT
  5
1FF
  8
ZUWAKU
 62
     7
 10
111.6193667909843
 20
-169.8786046700178
 30
0.0
 40
3.0
  1
日 付
 41
0.7058823529411754
  7
FDASTYLE1
 72
     5
 11
118.8193667909843
 21
-169.8786046700178
 31
0.0
  0
TEXT
  5
200
  8
ZUWAKU
 62
     7
 10
153.4481689819652
 20
-165.7187911464244
 30
0.0
 40
3.0
  1
承   認
 41
0.7407407407407408
  7
FDASTYLE1
 72
     5
 11
165.4481689819652
 21
-165.7187911464244
 31
0.0
  0
TEXT
  5
201
  8
ZUWAKU
 62
     7
 10
179.863228033234
 20
-165.4873041997729
 30
0.0
 40
3.0
  1
検   図
 41
0.7407407407407408
  7
FDASTYLE1
 72
     5
 11
191.863228033234
 21
-165.4873041997729
 31
0.0
  0
TEXT
  5
202
  8
ZUWAKU
 62
     7
 10
201.4771920983751
 20
-165.4873041997729
 30
0.0
 40
3.0
  1
担  当
 41
0.7272727272727269
  7
FDASTYLE1
 72
     5
 11
211.0771920983751
 21
-165.4873041997729
 31
0.0
  0
TEXT
  5
203
  8
ZUWAKU
 62
     7
 10
214.6770574841112
 20
-165.4873041997729
 30
0.0
 40
3.0
  1
製  図
 41
0.7272727272727269
  7
FDASTYLE1
 72
     5
 11
224.2770574841112
 21
-165.4873041997729
 31
0.0
  0
TEXT
  5
204
  8
ZUWAKU
 62
     7
 10
226.9462372304199
 20
-153.2184960272417
 30
0.0
 40
3.0
  1
作図
 41
0.6666666666666683
  7
FDASTYLE1
 72
     5
 11
231.7462372304199
 21
-153.2184960272417
 31
0.0
  0
TEXT
  5
205
  8
ZUWAKU
 62
     7
 10
228.1036719636776
 20
-160.2371566401815
 30
0.0
 40
4.0
  1
第 三 角 法
 41
0.7179487179487182
  7
FDASTYLE1
 72
     5
 11
250.5036719636776
 21
-160.2371566401815
 31
0.0
  0
TEXT
  5
206
  8
ZUWAKU
 62
     7
 10
227.409211123723
 20
-166.413251986379
 30
0.0
 40
3.0
  1
尺度
 41
0.6666666666666683
  7
FDASTYLE1
 72
     5
 11
232.209211123723
 21
-166.413251986379
 31
0.0
  0
TEXT
  5
208
  8
ZUWAKU
 62
     3
 10
105.379154370034
 20
-185.9272077185017
 30
0.0
 40
7.0
  1
株式会社 野村製作所
 41
0.5763738641280831
  7
FDASTYLE2
 72
     5
 11
161.379154370034
 21
-185.9272077185017
 31
0.0
  0
TEXT
  5
20A
  8
ZUWAKU
 62
     3
 10
183.6118217934165
 20
-187.1216685584563
 30
0.0
 40
8.0
  1
２－
 41
0.8244023083264632
  7
FDASTYLE3
 72
     5
 11
199.6118217934165
 21
-187.1216685584563
 31
0.0
  0
TEXT
  5
20B
  8
ZUWAKU
 62
     3
 10
200.5237794178233
 20
-187.1216685584563
 30
0.0
 40
8.0
  1
830710
 41
1.558846453624318
  7
FDASTYLE3
 72
     5
 11
248.5237794178233
 21
-187.1216685584563
 31
0.0
  0
TEXT
  5
20C
  8
ZUWAKU
 62
     6
 10
165.7570051766932
 20
-145.3589000228561
 30
0.0
 40
5.0
  1
外　形　図
 41
0.5833333333333334
  7
FDASTYLE1
 72
     5
 11
183.2570051766932
 21
-145.3589000228561
 31
0.0
  0
TEXT
  5
20D
  8
ZUWAKU
 62
     6
 10
155.3545934631717
 20
-157.829135039116
 30
0.0
 40
6.0
  1
MAC2-165A5型チャック
 41
0.65625
  7
FDASTYLE1
 72
     5
 11
218.3545934631717
 21
-157.829135039116
 31
0.0
  0
TEXT
  5
20E
  8
ZUWAKU
 62
     4
 10
239.3011788906399
 20
-172.297487439201
 30
0.0
 40
3.0
  1
1/1
 41
0.7000000000000013
  7
FDASTYLE1
 72
     5
 11
245.6011788906399
 21
-172.297487439201
 31
0.0
  0
LINE
  5
20F
  8
0
  6
CENTER
 62
     7
 10
48.64592137578084
 20
58.6265389876881
 30
0.0
 11
230.9792419934566
 21
58.6265389876881
 31
0.0
  0
LINE
  5
210
  8
0
  6
CENTER
 62
     7
 10
139.812585499316
 20
147.9598672347584
 30
0.0
 11
139.812585499316
 21
-31.3734610123119
 31
0.0
  0
LINE
  5
211
  8
0
  6
CENTER
 62
     7
 10
82.3215138920333
 20
91.81909395687268
 30
0.0
 11
117.2959468460523
 21
71.62659790702134
 31
0.0
  0
LINE
  5
212
  8
0
  6
CENTER
 62
     7
 10
162.3292724747948
 20
71.62651516922011
 30
0.0
 11
197.3037186433135
 21
91.81901884846553
 31
0.0
  0
LINE
  5
213
  8
0
  6
CENTER
 62
     7
 10
75.99514165165977
 20
116.6265389876881
 30
0.0
 11
120.812585499316
 21
116.6265389876881
 31
0.0
  0
LINE
  5
214
  8
0
  6
CENTER
 62
     7
 10
160.3186924582429
 20
79.13262269000012
 30
0.0
 11
168.5115440378637
 21
87.32547357901518
 31
0.0
  0
LINE
  5
215
  8
0
  6
CENTER
 62
     7
 10
109.812585499316
 20
127.6265389876881
 30
0.0
 11
109.812585499316
 21
105.6265389876881
 31
0.0
  0
LINE
  5
216
  8
0
  6
CENTER
 62
     7
 10
126.812585499316
 20
106.1265389876881
 30
0.0
 11
152.812585499316
 21
106.1265389876881
 31
0.0
  0
LINE
  5
217
  8
0
  6
CENTER
 62
     7
 10
126.812585499316
 20
126.1265389876881
 30
0.0
 11
152.812585499316
 21
126.1265389876881
 31
0.0
  0
LINE
  5
218
  8
0
  6
CENTER
 62
     7
 10
81.75417430543871
 20
25.10647450045287
 30
0.0
 11
116.5917512940248
 21
45.21995673055091
 31
0.0
  0
LINE
  5
219
  8
0
  6
CENTER
 62
     7
 10
163.138729894045
 20
45.15924007869223
 30
0.0
 11
197.8213206237039
 21
25.13523919702045
 31
0.0
  0
LINE
  5
21A
  8
0
  6
CENTER
 62
     7
 10
126.8126312756832
 20
-8.873468641706431
 30
0.0
 11
152.8126312756832
 21
-8.873468641706431
 31
0.0
  0
LINE
  5
21B
  8
0
  6
CENTER
 62
     7
 10
126.8126160168941
 20
11.12651991420177
 30
0.0
 11
152.8126160168941
 21
11.12651991420177
 31
0.0
  0
LINE
  5
21C
  8
0
  6
CENTER
 62
     7
 10
169.812585499316
 20
11.38391661219982
 30
0.0
 11
169.812585499316
 21
-10.29172730869862
 31
0.0
  0
LINE
  5
21D
  8
0
  6
CENTER
 62
     7
 10
158.1829926038082
 20
0.6265389876881002
 30
0.0
 11
180.9994446301754
 21
0.6265389876881002
 31
0.0
  0
LINE
  5
21E
  8
0
  6
CENTER
 62
     7
 10
111.1574249407532
 20
87.2817018859501
 30
0.0
 11
118.9032474588986
 21
79.53588002072871
 31
0.0
  0
LINE
  5
21F
  8
0
  6
CENTER
 62
     7
 10
111.1747624695209
 20
29.98870763339443
 30
0.0
 11
118.9529375851063
 21
37.76688209332867
 31
0.0
  0
LINE
  5
220
  8
0
  6
CENTER
 62
     7
 10
160.9116089681303
 20
37.52752205253689
 30
0.0
 11
168.4504115472793
 21
29.98872010886141
 31
0.0
  0
ARC
  5
221
  8
0
  6
CENTER
 62
     7
 10
139.812585499316
 20
58.6265389876881
 30
0.0
 40
52.3849983215332
 50
14.64163746713538
 51
45.35835395723297
  0
ARC
  5
222
  8
0
  6
CENTER
 62
     7
 10
139.812585499316
 20
58.6265389876881
 30
0.0
 40
52.3849983215332
 50
134.6416612970071
 51
165.3583743720101
  0
ARC
  5
223
  8
0
  6
CENTER
 62
     7
 10
139.812585499316
 20
58.6265389876881
 30
0.0
 40
35.0
 50
126.2784088470283
 51
165.2755924792696
  0
ARC
  5
224
  8
0
  6
CENTER
 62
     7
 10
139.812585499316
 20
58.6265389876881
 30
0.0
 40
35.0
 50
15.22586794307618
 51
54.83420324187182
  0
ARC
  5
225
  8
0
  6
CENTER
 62
     7
 10
139.812585499316
 20
58.6265389876881
 30
0.0
 40
52.3849983215332
 50
192.4313490918171
 51
227.5686562203007
  0
ARC
  5
226
  8
0
  6
CENTER
 62
     7
 10
139.812585499316
 20
58.6265389876881
 30
0.0
 40
35.0
 50
197.4573711133276
 51
234.0128987210727
  0
ARC
  5
227
  8
0
  6
CENTER
 62
     7
 10
139.812585499316
 20
58.6265389876881
 30
0.0
 40
52.3849983215332
 50
312.4313865820672
 51
347.5686962718717
  0
ARC
  5
228
  8
0
  6
CENTER
 62
     7
 10
139.812585499316
 20
58.6265389876881
 30
0.0
 40
35.0
 50
305.9870860246872
 51
342.2746345754414
  0
LINE
  5
229
  8
0
  6
CENTER
 62
     7
 10
-160.577647260166
 20
6.241540666154895
 30
0.0
 11
-41.13381037470744
 21
6.241540666154895
 31
0.0
  0
LINE
  5
22A
  8
0
  6
CENTER
 62
     7
 10
-150.6023162340824
 20
58.6265389876881
 30
0.0
 11
-40.13423762080119
 21
58.6265389876881
 31
0.0
  0
LINE
  5
22B
  8
0
  6
CENTER
 62
     7
 10
-77.08103022334025
 20
23.6265389876881
 30
0.0
 11
-43.48771509882853
 21
23.6265389876881
 31
0.0
  0
LINE
  5
22C
  8
0
  6
CENTER
 62
     7
 10
-62.87132868525431
 20
126.1265389876881
 30
0.0
 11
-24.09630427119181
 21
126.1265389876881
 31
0.0
  0
LINE
  5
22D
  8
0
  6
CENTER
 62
     7
 10
-62.87132868525431
 20
106.1265389876881
 30
0.0
 11
-23.80254969355509
 21
106.1265389876881
 31
0.0
  0
LINE
  5
22E
  8
0
  6
CENTER
 62
     7
 10
-148.5251372790043
 20
111.026540513567
 30
0.0
 11
-129.6352447008793
 21
111.026540513567
 31
0.0
  0
LINE
  5
22F
  8
0
  6
DASHED2
 62
     7
 10
99.81258549931602
 20
130.7808892684498
 30
0.0
 11
99.81258549931602
 21
105.6265389876881
 31
0.0
  0
LINE
  5
230
  8
0
  6
DASHED2
 62
     7
 10
72.00956120732383
 20
105.6265389876881
 30
0.0
 11
99.81258549931602
 21
105.6265389876881
 31
0.0
  0
LINE
  5
231
  8
0
  6
DASHED2
 62
     7
 10
99.81258549931602
 20
122.6265389876881
 30
0.0
 11
111.9570099377926
 21
122.6265389876881
 31
0.0
  0
LINE
  5
232
  8
0
  6
DASHED2
 62
     7
 10
99.81258549931602
 20
110.6265389876881
 30
0.0
 11
112.1570068860348
 21
110.6265389876881
 31
0.0
  0
LINE
  5
233
  8
0
  6
DASHED2
 62
     7
 10
90.31258549931602
 20
119.026540513567
 30
0.0
 11
90.31258549931602
 21
114.2265374618092
 31
0.0
  0
LINE
  5
234
  8
0
  6
DASHED2
 62
     7
 10
97.43568578007773
 20
112.6765420394459
 30
0.0
 11
99.12193455937461
 21
112.6765420394459
 31
0.0
  0
LINE
  5
235
  8
0
  6
DASHED2
 62
     7
 10
97.43568578007773
 20
120.5765359359303
 30
0.0
 11
99.12193455937461
 21
120.5765359359303
 31
0.0
  0
LINE
  5
236
  8
0
  6
DASHED2
 62
     7
 10
92.61258855107383
 20
119.9265420394459
 30
0.0
 11
92.61258855107383
 21
113.3265359359303
 31
0.0
  0
LINE
  5
237
  8
0
  6
DASHED2
 62
     7
 10
96.81258549931602
 20
120.0191247420826
 30
0.0
 11
96.81258549931602
 21
113.2339227157154
 31
0.0
  0
LINE
  5
238
  8
0
  6
DASHED2
 62
     7
 10
97.57651677373008
 20
118.6265389876881
 30
0.0
 11
99.04865422490195
 21
118.6265389876881
 31
0.0
  0
LINE
  5
239
  8
0
  6
DASHED2
 62
     7
 10
97.57651677373008
 20
114.6265389876881
 30
0.0
 11
99.04865422490195
 21
114.6265389876881
 31
0.0
  0
LINE
  5
23A
  8
0
  6
DASHED2
 62
     7
 10
92.61260993944427
 20
113.3265680473538
 30
0.0
 11
90.31260954403308
 21
114.2265680004626
 31
0.0
  0
LINE
  5
23B
  8
0
  6
DASHED2
 62
     7
 10
90.31256851274281
 20
119.0265571049736
 30
0.0
 11
92.612568908154
 21
119.9265570580824
 31
0.0
  0
LINE
  5
23C
  8
0
  6
DASHED2
 62
     7
 10
93.61258855107383
 20
119.2396142440358
 30
0.0
 11
93.61258855107383
 21
113.9475839095631
 31
0.0
  0
LINE
  5
23D
  8
0
  6
DASHED2
 62
     7
 10
99.81258549931602
 20
114.4265420394459
 30
0.0
 11
108.2805115247066
 21
114.4265420394459
 31
0.0
  0
LINE
  5
23E
  8
0
  6
DASHED2
 62
     7
 10
99.81258549931602
 20
118.8265359359303
 30
0.0
 11
108.4552856946285
 21
118.8265359359303
 31
0.0
  0
LINE
  5
23F
  8
0
  6
DASHED2
 62
     7
 10
99.81258549931602
 20
113.6265389876881
 30
0.0
 11
105.312585499316
 21
113.6265389876881
 31
0.0
  0
LINE
  5
240
  8
0
  6
DASHED2
 62
     7
 10
99.81258549931602
 20
119.6265389876881
 30
0.0
 11
105.312585499316
 21
119.6265389876881
 31
0.0
  0
LINE
  5
241
  8
0
  6
DASHED2
 62
     7
 10
105.312585499316
 20
119.6265389876881
 30
0.0
 11
105.312585499316
 21
113.6265389876881
 31
0.0
  0
ARC
  5
242
  8
0
  6
DASHED2
 62
     7
 10
96.81258549931602
 20
116.6265389876881
 30
0.0
 40
3.0
 50
0.0
 51
41.81031315512688
  0
ARC
  5
243
  8
0
  6
DASHED2
 62
     7
 10
99.81258549931602
 20
116.6265389876881
 30
0.0
 40
3.0
 50
138.1896986840186
 51
221.8102840131373
  0
ARC
  5
244
  8
0
  6
DASHED2
 62
     7
 10
96.81258549931602
 20
116.6265389876881
 30
0.0
 40
3.0
 50
318.1896868448731
 51
360.0
  0
ARC
  5
245
  8
0
  6
DASHED2
 62
     7
 10
92.61258855107383
 20
116.6265389876881
 30
0.0
 40
3.299999952316284
 50
72.3602944823007
 51
89.99998201391065
  0
ARC
  5
246
  8
0
  6
DASHED2
 62
     7
 10
92.61258855107383
 20
116.6265389876881
 30
0.0
 40
3.299999952316284
 50
270.0000179860894
 51
287.6397055176993
  0
ARC
  5
247
  8
0
  6
DASHED2
 62
     7
 10
95.01710667851523
 20
122.4225060897389
 30
0.0
 40
3.0
 50
242.1068914535913
 51
306.7619948916872
  0
ARC
  5
248
  8
0
  6
DASHED2
 62
     7
 10
95.01710667851523
 20
110.8305413680592
 30
0.0
 40
3.0
 50
53.23800510831277
 51
117.8898300556071
  0
ARC
  5
249
  8
0
  6
DASHED2
 62
     7
 10
97.7479340100582
 20
119.6265389876881
 30
0.0
 40
1.0
 50
200.7154669700721
 51
270.0000179860894
  0
ARC
  5
24A
  8
0
  6
DASHED2
 62
     7
 10
97.7479340100582
 20
119.6265389876881
 30
0.0
 40
1.0
 50
108.1948751325834
 51
159.2845330299279
  0
ARC
  5
24B
  8
0
  6
DASHED2
 62
     7
 10
97.7479340100582
 20
113.6265389876881
 30
0.0
 40
1.0
 50
89.99998201391065
 51
159.2845330299279
  0
ARC
  5
24C
  8
0
  6
DASHED2
 62
     7
 10
97.7479340100582
 20
113.6265389876881
 30
0.0
 40
1.0
 50
200.7154669700721
 51
251.8051248674166
  0
ARC
  5
24D
  8
0
  6
DASHED2
 62
     7
 10
98.80967869999961
 20
119.6265389876881
 30
0.0
 40
1.0
 50
0.0
 51
71.80513670656207
  0
ARC
  5
24E
  8
0
  6
DASHED2
 62
     7
 10
98.80967869999961
 20
113.6265389876881
 30
0.0
 40
1.0
 50
0.0
 51
89.99998201391065
  0
ARC
  5
24F
  8
0
  6
DASHED2
 62
     7
 10
98.80967869999961
 20
119.6265389876881
 30
0.0
 40
1.0
 50
270.0000179860894
 51
360.0
  0
ARC
  5
250
  8
0
  6
DASHED2
 62
     7
 10
98.80967869999961
 20
113.6265389876881
 30
0.0
 40
1.0
 50
288.194863293438
 51
360.0
  0
ARC
  5
251
  8
0
  6
DASHED2
 62
     7
 10
90.79046788456992
 20
116.6265389876881
 30
0.0
 40
1.200000047683716
 50
113.46797241713
 51
246.5320171102151
  0
LINE
  5
252
  8
0
  6
DASHED2
 62
     7
 10
73.31258549931602
 20
62.6265389876881
 30
0.0
 11
57.31258549931602
 21
62.6265389876881
 31
0.0
  0
LINE
  5
253
  8
0
  6
DASHED2
 62
     7
 10
78.31258549931602
 20
62.02653898768813
 30
0.0
 11
57.31258549931602
 21
62.02653898768813
 31
0.0
  0
LINE
  5
254
  8
0
  6
DASHED2
 62
     7
 10
73.31258549931602
 20
62.6265389876881
 30
0.0
 11
73.31258549931602
 21
54.6265389876881
 31
0.0
  0
LINE
  5
255
  8
0
  6
DASHED2
 62
     7
 10
78.31258549931602
 20
55.2265389876881
 30
0.0
 11
57.31258549931602
 21
55.2265389876881
 31
0.0
  0
LINE
  5
256
  8
0
  6
DASHED2
 62
     7
 10
73.31258549931602
 20
54.6265389876881
 30
0.0
 11
57.31258549931602
 21
54.6265389876881
 31
0.0
  0
LINE
  5
257
  8
0
  6
DASHED2
 62
     7
 10
78.31258549931602
 20
62.02653898768813
 30
0.0
 11
78.31258549931602
 21
55.2265389876881
 31
0.0
  0
LINE
  5
258
  8
0
  6
DASHED2
 62
     7
 10
78.31258549931613
 20
55.22653898768829
 30
0.0
 11
80.27557641456068
 21
58.62653898768799
 31
0.0
  0
LINE
  5
259
  8
0
  6
DASHED2
 62
     7
 10
78.31258549931613
 20
62.02653898768791
 30
0.0
 11
80.27557641456068
 21
58.62653898768821
 31
0.0
  0
LINE
  5
25A
  8
0
  6
CONTINUOUS
 62
     7
 10
147.812585499316
 20
92.62653898768809
 30
0.0
 11
156.312585499316
 21
92.62653898768809
 31
0.0
  0
LINE
  5
25B
  8
0
  6
CONTINUOUS
 62
     7
 10
123.312585499316
 20
92.62653898768809
 30
0.0
 11
131.812585499316
 21
92.62653898768809
 31
0.0
  0
LINE
  5
25C
  8
0
  6
CONTINUOUS
 62
     7
 10
147.812585499316
 20
137.6265389876881
 30
0.0
 11
152.357003834277
 21
137.6265389876881
 31
0.0
  0
LINE
  5
25D
  8
0
  6
CONTINUOUS
 62
     7
 10
127.1570068860348
 20
137.6265389876881
 30
0.0
 11
131.812585499316
 21
137.6265389876881
 31
0.0
  0
LINE
  5
25E
  8
0
  6
CONTINUOUS
 62
     7
 10
123.312585499316
 20
94.12653898768809
 30
0.0
 11
131.812585499316
 21
94.12653898768809
 31
0.0
  0
LINE
  5
25F
  8
0
  6
CONTINUOUS
 62
     7
 10
123.312585499316
 20
95.62653898768809
 30
0.0
 11
131.812585499316
 21
95.62653898768809
 31
0.0
  0
LINE
  5
260
  8
0
  6
CONTINUOUS
 62
     7
 10
123.312585499316
 20
97.12653898768809
 30
0.0
 11
131.812585499316
 21
97.12653898768809
 31
0.0
  0
LINE
  5
261
  8
0
  6
CONTINUOUS
 62
     7
 10
123.312585499316
 20
98.62653898768809
 30
0.0
 11
131.812585499316
 21
98.62653898768809
 31
0.0
  0
LINE
  5
262
  8
0
  6
CONTINUOUS
 62
     7
 10
123.312585499316
 20
100.1265389876881
 30
0.0
 11
131.812585499316
 21
100.1265389876881
 31
0.0
  0
LINE
  5
263
  8
0
  6
CONTINUOUS
 62
     7
 10
147.812585499316
 20
94.12653898768809
 30
0.0
 11
156.312585499316
 21
94.12653898768809
 31
0.0
  0
LINE
  5
264
  8
0
  6
CONTINUOUS
 62
     7
 10
147.812585499316
 20
95.62653898768809
 30
0.0
 11
156.312585499316
 21
95.62653898768809
 31
0.0
  0
LINE
  5
265
  8
0
  6
CONTINUOUS
 62
     7
 10
147.812585499316
 20
97.12653898768809
 30
0.0
 11
156.312585499316
 21
97.12653898768809
 31
0.0
  0
LINE
  5
266
  8
0
  6
CONTINUOUS
 62
     7
 10
147.812585499316
 20
98.62653898768809
 30
0.0
 11
156.312585499316
 21
98.62653898768809
 31
0.0
  0
LINE
  5
267
  8
0
  6
CONTINUOUS
 62
     7
 10
147.812585499316
 20
100.1265389876881
 30
0.0
 11
156.312585499316
 21
100.1265389876881
 31
0.0
  0
LINE
  5
268
  8
0
  6
CONTINUOUS
 62
     7
 10
147.812585499316
 20
136.1265389876881
 30
0.0
 11
156.312585499316
 21
136.1265389876881
 31
0.0
  0
LINE
  5
269
  8
0
  6
CONTINUOUS
 62
     7
 10
147.812585499316
 20
134.6265389876881
 30
0.0
 11
156.312585499316
 21
134.6265389876881
 31
0.0
  0
LINE
  5
26A
  8
0
  6
CONTINUOUS
 62
     7
 10
147.812585499316
 20
133.1265389876881
 30
0.0
 11
156.312585499316
 21
133.1265389876881
 31
0.0
  0
LINE
  5
26B
  8
0
  6
CONTINUOUS
 62
     7
 10
147.812585499316
 20
131.6265389876881
 30
0.0
 11
156.312585499316
 21
131.6265389876881
 31
0.0
  0
LINE
  5
26C
  8
0
  6
CONTINUOUS
 62
     7
 10
147.812585499316
 20
130.1265389876881
 30
0.0
 11
156.312585499316
 21
130.1265389876881
 31
0.0
  0
LINE
  5
26D
  8
0
  6
CONTINUOUS
 62
     7
 10
123.312585499316
 20
136.1265389876881
 30
0.0
 11
131.812585499316
 21
136.1265389876881
 31
0.0
  0
LINE
  5
26E
  8
0
  6
CONTINUOUS
 62
     7
 10
123.312585499316
 20
134.6265389876881
 30
0.0
 11
131.812585499316
 21
134.6265389876881
 31
0.0
  0
LINE
  5
26F
  8
0
  6
CONTINUOUS
 62
     7
 10
123.312585499316
 20
133.1265389876881
 30
0.0
 11
131.812585499316
 21
133.1265389876881
 31
0.0
  0
LINE
  5
270
  8
0
  6
CONTINUOUS
 62
     7
 10
123.312585499316
 20
131.6265389876881
 30
0.0
 11
131.812585499316
 21
131.6265389876881
 31
0.0
  0
LINE
  5
271
  8
0
  6
CONTINUOUS
 62
     7
 10
123.312585499316
 20
130.1265389876881
 30
0.0
 11
131.812585499316
 21
130.1265389876881
 31
0.0
  0
LINE
  5
272
  8
0
  6
CONTINUOUS
 62
     7
 10
147.8126160168941
 20
-20.37346864170643
 30
0.0
 11
151.9679657483395
 21
-20.37346864170643
 31
0.0
  0
LINE
  5
273
  8
0
  6
CONTINUOUS
 62
     7
 10
147.8126465344723
 20
-18.87349915928456
 30
0.0
 11
156.3126465344723
 21
-18.87349915928456
 31
0.0
  0
LINE
  5
274
  8
0
  6
CONTINUOUS
 62
     7
 10
147.8126160168941
 20
-17.37347627110096
 30
0.0
 11
156.3126160168941
 21
-17.37347627110096
 31
0.0
  0
LINE
  5
275
  8
0
  6
CONTINUOUS
 62
     7
 10
147.8126160168941
 20
-15.87346864170643
 30
0.0
 11
156.3126160168941
 21
-15.87346864170643
 31
0.0
  0
LINE
  5
276
  8
0
  6
CONTINUOUS
 62
     7
 10
147.8126160168941
 20
-14.3734610123119
 30
0.0
 11
156.3126160168941
 21
-14.3734610123119
 31
0.0
  0
LINE
  5
277
  8
0
  6
CONTINUOUS
 62
     7
 10
147.8126465344723
 20
-12.87349152989003
 30
0.0
 11
156.3126465344723
 21
-12.87349152989003
 31
0.0
  0
LINE
  5
278
  8
0
  6
CONTINUOUS
 62
     7
 10
127.698083546191
 20
-20.37346864170643
 30
0.0
 11
131.8126160168941
 21
-20.37346864170643
 31
0.0
  0
LINE
  5
279
  8
0
  6
CONTINUOUS
 62
     7
 10
123.3126465344723
 20
-18.87349915928456
 30
0.0
 11
131.8126465344723
 21
-18.87349915928456
 31
0.0
  0
LINE
  5
27A
  8
0
  6
CONTINUOUS
 62
     7
 10
123.3126160168941
 20
-17.37347627110096
 30
0.0
 11
131.8126160168941
 21
-17.37347627110096
 31
0.0
  0
LINE
  5
27B
  8
0
  6
CONTINUOUS
 62
     7
 10
123.3126160168941
 20
-15.87346864170643
 30
0.0
 11
131.8126160168941
 21
-15.87346864170643
 31
0.0
  0
LINE
  5
27C
  8
0
  6
CONTINUOUS
 62
     7
 10
123.3126160168941
 20
-14.3734610123119
 30
0.0
 11
131.8126160168941
 21
-14.3734610123119
 31
0.0
  0
LINE
  5
27D
  8
0
  6
CONTINUOUS
 62
     7
 10
123.3126465344723
 20
-12.87349152989003
 30
0.0
 11
131.8126465344723
 21
-12.87349152989003
 31
0.0
  0
LINE
  5
27E
  8
0
  6
CONTINUOUS
 62
     7
 10
123.3126160168941
 20
17.12651609950451
 30
0.0
 11
131.8126160168941
 21
17.12651609950451
 31
0.0
  0
LINE
  5
27F
  8
0
  6
CONTINUOUS
 62
     7
 10
123.3126160168941
 20
18.62653517299084
 30
0.0
 11
131.8126160168941
 21
18.62653517299084
 31
0.0
  0
LINE
  5
280
  8
0
  6
CONTINUOUS
 62
     7
 10
123.3126160168941
 20
20.12651609950451
 30
0.0
 11
131.8126160168941
 21
20.12651609950451
 31
0.0
  0
LINE
  5
281
  8
0
  6
CONTINUOUS
 62
     7
 10
123.3126160168941
 20
21.62653135829357
 30
0.0
 11
131.8126160168941
 21
21.62653135829357
 31
0.0
  0
LINE
  5
282
  8
0
  6
CONTINUOUS
 62
     7
 10
123.3126160168941
 20
23.12651991420177
 30
0.0
 11
131.8126160168941
 21
23.12651991420177
 31
0.0
  0
LINE
  5
283
  8
0
  6
CONTINUOUS
 62
     7
 10
123.3126160168941
 20
24.62653135829357
 30
0.0
 11
131.8126160168941
 21
24.62653135829357
 31
0.0
  0
LINE
  5
284
  8
0
  6
CONTINUOUS
 62
     7
 10
147.8126160168941
 20
17.12651609950451
 30
0.0
 11
156.3126160168941
 21
17.12651609950451
 31
0.0
  0
LINE
  5
285
  8
0
  6
CONTINUOUS
 62
     7
 10
147.8126160168941
 20
18.62653517299084
 30
0.0
 11
156.3126160168941
 21
18.62653517299084
 31
0.0
  0
LINE
  5
286
  8
0
  6
CONTINUOUS
 62
     7
 10
147.8126160168941
 20
20.12651609950451
 30
0.0
 11
156.3126160168941
 21
20.12651609950451
 31
0.0
  0
LINE
  5
287
  8
0
  6
CONTINUOUS
 62
     7
 10
147.8126160168941
 20
21.62653135829357
 30
0.0
 11
156.3126160168941
 21
21.62653135829357
 31
0.0
  0
LINE
  5
288
  8
0
  6
CONTINUOUS
 62
     7
 10
147.8126160168941
 20
23.12651991420177
 30
0.0
 11
156.3126160168941
 21
23.12651991420177
 31
0.0
  0
LINE
  5
289
  8
0
  6
CONTINUOUS
 62
     7
 10
147.8126160168941
 20
24.62653135829357
 30
0.0
 11
156.3126160168941
 21
24.62653135829357
 31
0.0
  0
LINE
  5
28A
  8
0
  6
CONTINUOUS
 62
     7
 10
-183.0801431176487
 20
111.026540513567
 30
0.0
 11
-150.385900828809
 21
111.026540513567
 31
0.0
  0
LINE
  5
28B
  8
0
  6
CONTINUOUS
 62
     7
 10
-33.67985768203711
 20
125.1265621670228
 30
0.0
 11
-29.67985507260222
 21
122.8171598388536
 31
0.0
  0
LINE
  5
28C
  8
0
  6
CONTINUOUS
 62
     7
 10
-33.67986281942127
 20
105.1265664052369
 30
0.0
 11
-29.67986020998639
 21
102.8171640770677
 31
0.0
  0
LINE
  5
28D
  8
0
  6
CONTINUOUS
 62
     7
 10
-37.67988026546585
 20
102.8171713132788
 30
0.0
 11
-33.67987435240606
 21
105.1265755487965
 31
0.0
  0
LINE
  5
28E
  8
0
  6
CONTINUOUS
 62
     7
 10
-37.67987543267726
 20
122.8171860458448
 30
0.0
 11
-33.67987612686729
 21
125.1265864666655
 31
0.0
  0
LINE
  5
28F
  8
0
  6
CONTINUOUS
 62
     7
 10
-31.67987045887311
 20
125.1265608566005
 30
0.0
 11
-29.67986915415567
 21
123.9718596925159
 31
0.0
  0
LINE
  5
290
  8
0
  6
CONTINUOUS
 62
     7
 10
-37.67987838032049
 20
123.9718848773629
 30
0.0
 11
-35.67987377197814
 21
125.126587948796
 31
0.0
  0
LINE
  5
291
  8
0
  6
CONTINUOUS
 62
     7
 10
-31.67984433041671
 20
105.126573472473
 30
0.0
 11
-29.67984963294909
 21
103.9718761230855
 31
0.0
  0
LINE
  5
292
  8
0
  6
CONTINUOUS
 62
     7
 10
-37.6798680366161
 20
101.6624602209353
 30
0.0
 11
-31.67985999293263
 21
105.1265660973748
 31
0.0
  0
LINE
  5
293
  8
0
  6
CONTINUOUS
 62
     7
 10
-37.67987055548237
 20
100.5077670429928
 30
0.0
 11
-29.67986946614373
 21
105.1265693151456
 31
0.0
  0
LINE
  5
294
  8
0
  6
CONTINUOUS
 62
     7
 10
-37.67988019267058
 20
99.35307856495157
 30
0.0
 11
-29.67987414789458
 21
103.9718836981271
 31
0.0
  0
LINE
  5
295
  8
0
  6
CONTINUOUS
 62
     7
 10
-36.07215736919547
 20
99.12655308564561
 30
0.0
 11
-29.67985873401598
 21
102.8171480156629
 31
0.0
  0
LINE
  5
296
  8
0
  6
CONTINUOUS
 62
     7
 10
-34.07216239804133
 20
99.12656767903749
 30
0.0
 11
-29.67986671939174
 21
101.6624604912959
 31
0.0
  0
LINE
  5
297
  8
0
  6
CONTINUOUS
 62
     7
 10
-32.07217733776191
 20
99.12657655038382
 30
0.0
 11
-29.6798747047675
 21
100.5077729669289
 31
0.0
  0
LINE
  5
298
  8
0
  6
CONTINUOUS
 62
     7
 10
-35.67985767197935
 20
105.1265545011596
 30
0.0
 11
-29.67986036507683
 21
101.6624548236028
 31
0.0
  0
LINE
  5
299
  8
0
  6
CONTINUOUS
 62
     7
 10
-37.67985429494594
 20
105.1265700482257
 30
0.0
 11
-29.67984907607617
 21
100.5077653918873
 31
0.0
  0
LINE
  5
29A
  8
0
  6
CONTINUOUS
 62
     7
 10
-37.67986487198324
 20
103.971858002208
 30
0.0
 11
-29.67985965311347
 21
99.35305334586957
 31
0.0
  0
LINE
  5
29B
  8
0
  6
CONTINUOUS
 62
     7
 10
-37.6798507904298
 20
102.8171581485456
 30
0.0
 11
-31.28754141846936
 21
99.12655701964565
 31
0.0
  0
LINE
  5
29C
  8
0
  6
CONTINUOUS
 62
     7
 10
-37.67984713082321
 20
101.6624555023305
 30
0.0
 11
-33.28754567083003
 21
99.12655935221216
 31
0.0
  0
LINE
  5
29D
  8
0
  6
CONTINUOUS
 62
     7
 10
-37.67986948753732
 20
103.9718692595926
 30
0.0
 11
-35.67986487919497
 21
105.1265723310258
 31
0.0
  0
LINE
  5
29E
  8
0
  6
CONTINUOUS
 62
     7
 10
-37.67985389316347
 20
100.5077500635626
 30
0.0
 11
-35.28754713063792
 21
99.12655126283181
 31
0.0
  0
LINE
  5
29F
  8
0
  6
CONTINUOUS
 62
     7
 10
-35.67984871989815
 20
125.1265568701952
 30
0.0
 11
-29.67985141299563
 21
121.6624571926384
 31
0.0
  0
LINE
  5
2A0
  8
0
  6
CONTINUOUS
 62
     7
 10
-37.67987476651469
 20
121.6624682777816
 30
0.0
 11
-31.67986754873745
 21
125.1265736773839
 31
0.0
  0
LINE
  5
2A1
  8
0
  6
CONTINUOUS
 62
     7
 10
-37.67988275189045
 20
120.5077807534146
 30
0.0
 11
-29.67987753302067
 21
125.126585409753
 31
0.0
  0
LINE
  5
2A2
  8
0
  6
CONTINUOUS
 62
     7
 10
-37.67987496740592
 20
119.35305828545
 30
0.0
 11
-29.67986974853615
 21
123.9718629417884
 31
0.0
  0
LINE
  5
2A3
  8
0
  6
CONTINUOUS
 62
     7
 10
-36.07217668392549
 20
119.1265714959687
 30
0.0
 11
-29.67987391921487
 21
122.8171688101716
 31
0.0
  0
LINE
  5
2A4
  8
0
  6
CONTINUOUS
 62
     7
 10
-34.0721800609589
 20
119.1265870430348
 30
0.0
 11
-29.67987860096572
 21
121.6624831931532
 31
0.0
  0
LINE
  5
2A5
  8
0
  6
CONTINUOUS
 62
     7
 10
-32.07217427538184
 20
119.1265638318063
 30
0.0
 11
-29.67987412010611
 21
120.5077588178401
 31
0.0
  0
LINE
  5
2A6
  8
0
  6
CONTINUOUS
 62
     7
 10
-37.6798766087053
 20
125.126564039603
 30
0.0
 11
-29.67987138983553
 21
120.5077593832646
 31
0.0
  0
LINE
  5
2A7
  8
0
  6
CONTINUOUS
 62
     7
 10
-37.67986252715186
 20
123.9718641859407
 30
0.0
 11
-29.6798639155319
 21
119.3530633442993
 31
0.0
  0
LINE
  5
2A8
  8
0
  6
CONTINUOUS
 62
     7
 10
-37.67984844559841
 20
122.8171643322783
 30
0.0
 11
-31.28753907363797
 21
119.1265632033783
 31
0.0
  0
LINE
  5
2A9
  8
0
  6
CONTINUOUS
 62
     7
 10
-37.67985800049145
 20
121.6624693154573
 30
0.0
 11
-33.28755654049827
 21
119.1265731653389
 31
0.0
  0
LINE
  5
2AA
  8
0
  6
CONTINUOUS
 62
     7
 10
-37.67986094813467
 20
120.5077704839392
 30
0.0
 11
-35.28755418560913
 21
119.1265716832084
 31
0.0
  0
LINE
  5
2AB
  8
0
  6
CONTINUOUS
 62
     7
 10
-94.88782489740086
 20
-107.2941176470589
 30
0.0
 11
-94.88782489740086
 21
-163.2941176470589
 31
0.0
  0
LINE
  5
2AC
  8
0
  6
CONTINUOUS
 62
     7
 10
-234.8878248974009
 20
-155.2941176470589
 30
0.0
 11
-94.88782489740086
 21
-155.2941176470589
 31
0.0
  0
LINE
  5
2AD
  8
0
  6
CONTINUOUS
 62
     7
 10
-234.8878248974009
 20
-147.2941176470589
 30
0.0
 11
-94.88782489740086
 21
-147.2941176470589
 31
0.0
  0
LINE
  5
2AE
  8
0
  6
CONTINUOUS
 62
     7
 10
-234.8878248974009
 20
-139.2941176470589
 30
0.0
 11
-94.88782489740086
 21
-139.2941176470589
 31
0.0
  0
LINE
  5
2AF
  8
0
  6
CONTINUOUS
 62
     7
 10
-234.8878248974009
 20
-131.2941176470589
 30
0.0
 11
-94.88782489740086
 21
-131.2941176470589
 31
0.0
  0
LINE
  5
2B0
  8
0
  6
CONTINUOUS
 62
     7
 10
-234.8878248974009
 20
-123.2941176470589
 30
0.0
 11
-94.88782489740086
 21
-123.2941176470589
 31
0.0
  0
LINE
  5
2B1
  8
0
  6
CONTINUOUS
 62
     7
 10
-234.8878248974009
 20
-115.2941176470589
 30
0.0
 11
-94.88782489740086
 21
-115.2941176470589
 31
0.0
  0
LINE
  5
2B2
  8
0
  6
CONTINUOUS
 62
     7
 10
-234.8878248974009
 20
-107.2941176470589
 30
0.0
 11
-94.88782489740086
 21
-107.2941176470589
 31
0.0
  0
LINE
  5
2B3
  8
0
  6
CONTINUOUS
 62
     7
 10
-214.8878248974009
 20
-107.2941176470589
 30
0.0
 11
-214.8878248974009
 21
-147.2941176470589
 31
0.0
  0
LINE
  5
2B4
  8
0
  6
CONTINUOUS
 62
     7
 10
-194.8878248974009
 20
-107.2941176470589
 30
0.0
 11
-194.8878248974009
 21
-147.2941176470589
 31
0.0
  0
LINE
  5
2B5
  8
0
  6
CONTINUOUS
 62
     7
 10
-174.8878248974009
 20
-107.2941176470589
 30
0.0
 11
-174.8878248974009
 21
-147.2941176470589
 31
0.0
  0
LINE
  5
2B6
  8
0
  6
CONTINUOUS
 62
     7
 10
-154.8878248974009
 20
-107.2941176470589
 30
0.0
 11
-154.8878248974009
 21
-147.2941176470589
 31
0.0
  0
LINE
  5
2B7
  8
0
  6
CONTINUOUS
 62
     7
 10
-134.8878248974009
 20
-107.2941176470589
 30
0.0
 11
-134.8878248974009
 21
-163.2941176470589
 31
0.0
  0
LINE
  5
2B8
  8
0
  6
CONTINUOUS
 62
     7
 10
-114.8878248974009
 20
-107.2941176470589
 30
0.0
 11
-114.8878248974009
 21
-163.2941176470589
 31
0.0
  0
LINE
  5
2B9
  8
0
  6
CONTINUOUS
 62
     7
 10
-194.8878248974009
 20
-155.2941176470589
 30
0.0
 11
-194.8878248974009
 21
-163.2941176470589
 31
0.0
  0
LINE
  5
2BA
  8
0
  6
CONTINUOUS
 62
     7
 10
-174.8878248974009
 20
-155.2941176470589
 30
0.0
 11
-174.8878248974009
 21
-163.2941176470589
 31
0.0
  0
LINE
  5
2BB
  8
0
  6
CONTINUOUS
 62
     7
 10
-154.8878248974009
 20
-155.2941176470589
 30
0.0
 11
-154.8878248974009
 21
-163.2941176470589
 31
0.0
  0
LINE
  5
2BC
  8
0
  6
CONTINUOUS
 62
     7
 10
-214.8878248974009
 20
-155.2941176470589
 30
0.0
 11
-214.8878248974009
 21
-163.2941176470589
 31
0.0
  0
LINE
  5
2BD
  8
0
  6
CONTINUOUS
 62
     3
 10
122.312585499316
 20
139.2491128402272
 30
0.0
 11
122.312585499316
 21
84.62653898768809
 31
0.0
  0
LINE
  5
2BE
  8
0
  6
CONTINUOUS
 62
     3
 10
157.312585499316
 20
139.2491128402272
 30
0.0
 11
157.312585499316
 21
84.62653898768809
 31
0.0
  0
LINE
  5
2BF
  8
0
  6
CONTINUOUS
 62
     3
 10
122.312585499316
 20
84.62653898768809
 30
0.0
 11
157.312585499316
 21
84.62653898768809
 31
0.0
  0
LINE
  5
2C0
  8
0
  6
CONTINUOUS
 62
     3
 10
129.812585499316
 20
139.1265389876881
 30
0.0
 11
149.812585499316
 21
139.1265389876881
 31
0.0
  0
LINE
  5
2C1
  8
0
  6
CONTINUOUS
 62
     3
 10
146.812585499316
 20
139.1265389876881
 30
0.0
 11
146.812585499316
 21
129.9995248275318
 31
0.0
  0
LINE
  5
2C2
  8
0
  6
CONTINUOUS
 62
     3
 10
132.812585499316
 20
139.1265389876881
 30
0.0
 11
132.812585499316
 21
129.9995248275318
 31
0.0
  0
LINE
  5
2C3
  8
0
  6
CONTINUOUS
 62
     3
 10
122.312585499316
 20
88.62653898768809
 30
0.0
 11
157.312585499316
 21
88.62653898768809
 31
0.0
  0
LINE
  5
2C4
  8
0
  6
CONTINUOUS
 62
     3
 10
149.8125844386256
 20
139.1265068524386
 30
0.0
 11
157.312555619105
 21
137.1168958459303
 31
0.0
  0
LINE
  5
2C5
  8
0
  6
CONTINUOUS
 62
     3
 10
146.812585499316
 20
91.12653898768809
 30
0.0
 11
157.312585499316
 21
91.12653898768809
 31
0.0
  0
LINE
  5
2C6
  8
0
  6
CONTINUOUS
 62
     3
 10
122.312585499316
 20
91.12653898768809
 30
0.0
 11
132.812585499316
 21
91.12653898768809
 31
0.0
  0
LINE
  5
2C7
  8
0
  6
CONTINUOUS
 62
     3
 10
132.812585499316
 20
97.12653898768809
 30
0.0
 11
146.812585499316
 21
97.12653898768809
 31
0.0
  0
LINE
  5
2C8
  8
0
  6
CONTINUOUS
 62
     3
 10
132.812585499316
 20
135.1265389876881
 30
0.0
 11
146.812585499316
 21
135.1265389876881
 31
0.0
  0
LINE
  5
2C9
  8
0
  6
CONTINUOUS
 62
     3
 10
132.812585499316
 20
122.2535531478443
 30
0.0
 11
132.812585499316
 21
109.9995248275318
 31
0.0
  0
LINE
  5
2CA
  8
0
  6
CONTINUOUS
 62
     3
 10
146.812585499316
 20
122.2535531478443
 30
0.0
 11
146.812585499316
 21
109.9995248275318
 31
0.0
  0
LINE
  5
2CB
  8
0
  6
CONTINUOUS
 62
     3
 10
146.812585499316
 20
102.2535531478443
 30
0.0
 11
146.812585499316
 21
91.12653898768809
 31
0.0
  0
LINE
  5
2CC
  8
0
  6
CONTINUOUS
 62
     3
 10
132.812585499316
 20
102.2535531478443
 30
0.0
 11
132.812585499316
 21
91.12653898768809
 31
0.0
  0
LINE
  5
2CD
  8
0
  6
CONTINUOUS
 62
     3
 10
122.3126160168941
 20
32.62654280238537
 30
0.0
 11
122.3126160168941
 21
-21.99606538242909
 31
0.0
  0
LINE
  5
2CE
  8
0
  6
CONTINUOUS
 62
     3
 10
122.3126160168941
 20
32.62651991420177
 30
0.0
 11
157.3126160168941
 21
32.62651991420177
 31
0.0
  0
LINE
  5
2CF
  8
0
  6
CONTINUOUS
 62
     3
 10
122.3126160168941
 20
28.62652372889904
 30
0.0
 11
157.3126160168941
 21
28.62652372889904
 31
0.0
  0
LINE
  5
2D0
  8
0
  6
CONTINUOUS
 62
     3
 10
157.3126160168941
 20
32.62651991420177
 30
0.0
 11
157.3126160168941
 21
-21.99603486485096
 31
0.0
  0
LINE
  5
2D1
  8
0
  6
CONTINUOUS
 62
     3
 10
149.8126226371516
 20
-21.87345871301789
 30
0.0
 11
157.3126232953474
 21
-19.86383934517556
 31
0.0
  0
LINE
  5
2D2
  8
0
  6
CONTINUOUS
 62
     3
 10
129.8126312756832
 20
-21.87346864170643
 30
0.0
 11
149.8126312756832
 21
-21.87346864170643
 31
0.0
  0
LINE
  5
2D3
  8
0
  6
CONTINUOUS
 62
     3
 10
122.3126149823782
 20
-19.8638916019334
 30
0.0
 11
129.8126156405741
 21
-21.87351073837345
 31
0.0
  0
LINE
  5
2D4
  8
0
  6
CONTINUOUS
 62
     3
 10
132.8126160168941
 20
-12.74645448155018
 30
0.0
 11
132.8126160168941
 21
-21.87346864170643
 31
0.0
  0
LINE
  5
2D5
  8
0
  6
CONTINUOUS
 62
     3
 10
132.8126160168941
 20
-17.87346864170643
 30
0.0
 11
146.8126160168941
 21
-17.87346864170643
 31
0.0
  0
LINE
  5
2D6
  8
0
  6
CONTINUOUS
 62
     3
 10
146.8126160168941
 20
-12.74646974033924
 30
0.0
 11
146.8126160168941
 21
-21.87346864170643
 31
0.0
  0
LINE
  5
2D7
  8
0
  6
CONTINUOUS
 62
     3
 10
122.3126312756832
 20
26.12651991420177
 30
0.0
 11
132.8126160168941
 21
26.12651991420177
 31
0.0
  0
LINE
  5
2D8
  8
0
  6
CONTINUOUS
 62
     3
 10
132.8126160168941
 20
26.1265389876881
 30
0.0
 11
132.8126160168941
 21
14.99950956874279
 31
0.0
  0
LINE
  5
2D9
  8
0
  6
CONTINUOUS
 62
     3
 10
132.8126160168941
 20
20.12651609950451
 30
0.0
 11
146.8126160168941
 21
20.12651609950451
 31
0.0
  0
LINE
  5
2DA
  8
0
  6
CONTINUOUS
 62
     3
 10
146.8126160168941
 20
26.12651991420177
 30
0.0
 11
157.3126312756832
 21
26.12651991420177
 31
0.0
  0
CIRCLE
  5
2DB
  8
0
  6
CONTINUOUS
 62
     3
 10
185.1793304944332
 20
84.81903624110606
 30
0.0
 40
5.5
  0
CIRCLE
  5
2DC
  8
0
  6
CONTINUOUS
 62
     3
 10
94.44584050419883
 20
84.81903624110606
 30
0.0
 40
5.5
  0
CIRCLE
  5
2DD
  8
0
  6
CONTINUOUS
 62
     3
 10
94.44584050419883
 20
84.81903624110606
 30
0.0
 40
8.75
  0
CIRCLE
  5
2DE
  8
0
  6
CONTINUOUS
 62
     3
 10
185.1793304944332
 20
84.81903624110606
 30
0.0
 40
8.75
  0
CIRCLE
  5
2DF
  8
0
  6
CONTINUOUS
 62
     3
 10
109.812585499316
 20
116.6265389876881
 30
0.0
 40
8.0
  0
ARC
  5
2E0
  8
0
  6
CONTINUOUS
 62
     3
 10
139.812585499316
 20
102.1265389876881
 30
0.0
 40
10.0
 50
225.5729705674714
 51
314.4270141782886
  0
CIRCLE
  5
2E1
  8
0
  6
CONTINUOUS
 62
     3
 10
139.812585499316
 20
58.6265389876881
 30
0.0
 40
82.5
  0
ARC
  5
2E2
  8
0
  6
CONTINUOUS
 62
     3
 10
139.812585499316
 20
58.6265389876881
 30
0.0
 40
41.5
 50
114.9411417682643
 51
245.0588819100268
  0
ARC
  5
2E3
  8
0
  6
CONTINUOUS
 62
     3
 10
139.812585499316
 20
58.6265389876881
 30
0.0
 40
41.5
 50
294.9411709102537
 51
425.0588769010705
  0
CIRCLE
  5
2E4
  8
0
  6
CONTINUOUS
 62
     3
 10
139.812585499316
 20
58.6265389876881
 30
0.0
 40
23.0
  0
ARC
  5
2E5
  8
0
  6
CONTINUOUS
 62
     3
 10
139.812585499316
 20
58.6265389876881
 30
0.0
 40
80.5
 50
282.5558796052429
 51
437.4441408853246
  0
ARC
  5
2E6
  8
0
  6
CONTINUOUS
 62
     3
 10
139.812585499316
 20
58.6265389876881
 30
0.0
 40
80.5
 50
102.5558777840101
 51
257.4441185735242
  0
CIRCLE
  5
2E7
  8
0
  6
CONTINUOUS
 62
     3
 10
139.812585499316
 20
58.6265389876881
 30
0.0
 40
21.0
  0
ARC
  5
2E8
  8
0
  6
CONTINUOUS
 62
     3
 10
139.8126160168941
 20
15.1265389876881
 30
0.0
 40
10.0
 50
45.57303704813023
 51
134.4269747910153
  0
CIRCLE
  5
2E9
  8
0
  6
CONTINUOUS
 62
     3
 10
169.812585499316
 20
0.6265389876881002
 30
0.0
 40
8.0
  0
CIRCLE
  5
2EA
  8
0
  6
CONTINUOUS
 62
     3
 10
185.1793457532223
 20
32.43407415919689
 30
0.0
 40
5.5
  0
CIRCLE
  5
2EB
  8
0
  6
CONTINUOUS
 62
     3
 10
185.1793457532223
 20
32.43407415919689
 30
0.0
 40
8.5
  0
CIRCLE
  5
2EC
  8
0
  6
CONTINUOUS
 62
     3
 10
94.44585576298789
 20
32.43402647548107
 30
0.0
 40
8.5
  0
LINE
  5
2ED
  8
0
  6
CONTINUOUS
 62
     3
 10
-143.6798614000981
 20
141.1265389876881
 30
0.0
 11
-79.67986140009806
 21
141.1265389876881
 31
0.0
  0
LINE
  5
2EE
  8
0
  6
CONTINUOUS
 62
     3
 10
-47.67986140009806
 20
90.42394041591075
 30
0.0
 11
-47.67986140009806
 21
-21.8734610123119
 31
0.0
  0
LINE
  5
2EF
  8
0
  6
CONTINUOUS
 62
     3
 10
-143.679846141309
 20
141.1265389876881
 30
0.0
 11
-143.679846141309
 21
0.7415406661548953
 31
0.0
  0
LINE
  5
2F0
  8
0
  6
CONTINUOUS
 62
     3
 10
-142.679846141309
 20
131.1265389876881
 30
0.0
 11
-142.679846141309
 21
1.241540666154895
 31
0.0
  0
LINE
  5
2F1
  8
0
  6
CONTINUOUS
 62
     3
 10
-126.679846141309
 20
11.2415406661549
 30
0.0
 11
-126.679846141309
 21
1.241540666154895
 31
0.0
  0
LINE
  5
2F2
  8
0
  6
CONTINUOUS
 62
     3
 10
-142.679846141309
 20
1.241540666154895
 30
0.0
 11
-142.679846141309
 21
-13.8734610123119
 31
0.0
  0
LINE
  5
2F3
  8
0
  6
CONTINUOUS
 62
     3
 10
-143.679846141309
 20
0.7415406661548953
 30
0.0
 11
-143.679846141309
 21
-23.8734610123119
 31
0.0
  0
LINE
  5
2F4
  8
0
  6
CONTINUOUS
 62
     3
 10
-126.679846141309
 20
97.90804838710216
 30
0.0
 11
-126.679846141309
 21
19.3450334029713
 31
0.0
  0
LINE
  5
2F5
  8
0
  6
CONTINUOUS
 62
     3
 10
-142.6798746160341
 20
17.34503354999499
 30
0.0
 11
-126.6798473808496
 21
19.34503226904219
 31
0.0
  0
LINE
  5
2F6
  8
0
  6
CONTINUOUS
 62
     3
 10
-142.679851254008
 20
99.90804720817783
 30
0.0
 11
-126.6798543007425
 21
97.90805227436164
 31
0.0
  0
LINE
  5
2F7
  8
0
  6
CONTINUOUS
 62
     3
 10
-143.6798614000981
 20
-23.8734610123119
 30
0.0
 11
-49.67986140009806
 21
-23.8734610123119
 31
0.0
  0
LINE
  5
2F8
  8
0
  6
CONTINUOUS
 62
     3
 10
-126.679846141309
 20
28.1265389876881
 30
0.0
 11
-57.67986140009806
 21
28.1265389876881
 31
0.0
  0
LINE
  5
2F9
  8
0
  6
CONTINUOUS
 62
     3
 10
-126.679846141309
 20
89.12653898768809
 30
0.0
 11
-77.68573860510172
 21
89.12653898768809
 31
0.0
  0
LINE
  5
2FA
  8
0
  6
CONTINUOUS
 62
     3
 10
-57.67986140009806
 20
139.7491128402272
 30
0.0
 11
-57.67986140009806
 21
139.1265389876881
 31
0.0
  0
LINE
  5
2FB
  8
0
  6
CONTINUOUS
 62
     3
 10
-57.67986140009806
 20
17.1265389876881
 30
0.0
 11
-47.67986140009806
 21
17.1265389876881
 31
0.0
  0
LINE
  5
2FC
  8
0
  6
CONTINUOUS
 62
     3
 10
-57.67986140009806
 20
21.1265389876881
 30
0.0
 11
-57.67986140009806
 21
17.1265389876881
 31
0.0
  0
LINE
  5
2FD
  8
0
  6
CONTINUOUS
 62
     3
 10
-113.6868120340828
 20
134.6265389876881
 30
0.0
 11
-79.67986140009806
 21
134.6265389876881
 31
0.0
  0
LINE
  5
2FE
  8
0
  6
CONTINUOUS
 62
     3
 10
-79.67986140009806
 20
141.1265389876881
 30
0.0
 11
-79.67986140009806
 21
129.1265389876881
 31
0.0
  0
LINE
  5
2FF
  8
0
  6
CONTINUOUS
 62
     3
 10
-49.67986212221429
 20
-23.8734634455825
 30
0.0
 11
-47.6798653938318
 21
-21.87346671720001
 31
0.0
  0
LINE
  5
300
  8
0
  6
CONTINUOUS
 62
     3
 10
-121.6857360338871
 20
88.12653898768809
 30
0.0
 11
-121.6857360338871
 21
29.1265389876881
 31
0.0
  0
LINE
  5
301
  8
0
  6
CONTINUOUS
 62
     3
 10
-54.68573603388713
 20
81.62653898768809
 30
0.0
 11
-54.68573603388713
 21
35.6265389876881
 31
0.0
  0
LINE
  5
302
  8
0
  6
CONTINUOUS
 62
     3
 10
-121.6856968275908
 20
88.12650102639128
 30
0.0
 11
-120.6856957660013
 21
89.12650208798078
 31
0.0
  0
LINE
  5
303
  8
0
  6
CONTINUOUS
 62
     3
 10
-121.6857318937681
 20
29.12655438073586
 30
0.0
 11
-120.6857308321786
 21
28.12655331914636
 31
0.0
  0
LINE
  5
304
  8
0
  6
CONTINUOUS
 62
     3
 10
-73.68573603388713
 20
85.12653898768809
 30
0.0
 11
-73.68573603388713
 21
81.37653898768809
 31
0.0
  0
LINE
  5
305
  8
0
  6
CONTINUOUS
 62
     3
 10
-70.68573603388713
 20
35.6265389876881
 30
0.0
 11
-49.67986140009806
 21
35.6265389876881
 31
0.0
  0
LINE
  5
306
  8
0
  6
CONTINUOUS
 62
     3
 10
-70.68573603388713
 20
81.62653898768809
 30
0.0
 11
-49.67986140009806
 21
81.62653898768809
 31
0.0
  0
LINE
  5
307
  8
0
  6
CONTINUOUS
 62
     3
 10
-101.6857360338871
 20
37.6265389876881
 30
0.0
 11
-54.68573603388713
 21
37.6265389876881
 31
0.0
  0
LINE
  5
308
  8
0
  6
CONTINUOUS
 62
     3
 10
-101.6857360338871
 20
79.62653898768809
 30
0.0
 11
-54.68573603388713
 21
79.62653898768809
 31
0.0
  0
LINE
  5
309
  8
0
  6
CONTINUOUS
 62
     3
 10
-120.6857360338871
 20
82.82653593593028
 30
0.0
 11
-104.6857360338871
 21
82.82653593593028
 31
0.0
  0
LINE
  5
30A
  8
0
  6
CONTINUOUS
 62
     3
 10
-120.6857360338871
 20
34.42653822474865
 30
0.0
 11
-104.6857360338871
 21
34.42653822474865
 31
0.0
  0
LINE
  5
30B
  8
0
  6
CONTINUOUS
 62
     3
 10
-101.6857360338871
 20
83.42654203944591
 30
0.0
 11
-101.6857360338871
 21
33.82653975062755
 31
0.0
  0
LINE
  5
30C
  8
0
  6
CONTINUOUS
 62
     3
 10
-104.6857360338871
 20
83.42654203944591
 30
0.0
 11
-104.6857360338871
 21
33.82653975062755
 31
0.0
  0
LINE
  5
30D
  8
0
  6
CONTINUOUS
 62
     3
 10
-77.68573860510172
 20
89.12653898768809
 30
0.0
 11
-73.68573640272376
 21
85.12653678531014
 31
0.0
  0
LINE
  5
30E
  8
0
  6
CONTINUOUS
 62
     3
 10
-73.68568869252694
 20
32.12650104491974
 30
0.0
 11
-77.68569698498676
 21
28.12650050748841
 31
0.0
  0
LINE
  5
30F
  8
0
  6
CONTINUOUS
 62
     3
 10
-73.68573603388713
 20
35.8765389876881
 30
0.0
 11
-73.68573603388713
 21
32.1265389876881
 31
0.0
  0
LINE
  5
310
  8
0
  6
CONTINUOUS
 62
     3
 10
-57.67986140009806
 20
33.6265389876881
 30
0.0
 11
-57.67986140009806
 21
26.1265389876881
 31
0.0
  0
LINE
  5
311
  8
0
  6
CONTINUOUS
 62
     3
 10
-103.9857390856449
 20
33.1265389876881
 30
0.0
 11
-102.3857329821293
 21
33.1265389876881
 31
0.0
  0
LINE
  5
312
  8
0
  6
CONTINUOUS
 62
     3
 10
-103.9857390856449
 20
84.12653898768809
 30
0.0
 11
-102.3857329821293
 21
84.12653898768809
 31
0.0
  0
LINE
  5
313
  8
0
  6
CONTINUOUS
 62
     3
 10
-73.68573603388713
 20
81.37653898768809
 30
0.0
 11
-70.68573603388713
 21
81.37653898768809
 31
0.0
  0
LINE
  5
314
  8
0
  6
CONTINUOUS
 62
     3
 10
-73.68573603388713
 20
35.8765389876881
 30
0.0
 11
-70.68573603388713
 21
35.8765389876881
 31
0.0
  0
LINE
  5
315
  8
0
  6
CONTINUOUS
 62
     3
 10
-70.68573603388713
 20
81.62653898768809
 30
0.0
 11
-70.68573603388713
 21
81.37653898768809
 31
0.0
  0
LINE
  5
316
  8
0
  6
CONTINUOUS
 62
     3
 10
-70.68573603388713
 20
35.8765389876881
 30
0.0
 11
-70.68573603388713
 21
35.6265389876881
 31
0.0
  0
LINE
  5
317
  8
0
  6
CONTINUOUS
 62
     3
 10
-120.6856732132591
 20
34.4264741822895
 30
0.0
 11
-121.6856750334927
 21
33.42647379505031
 31
0.0
  0
LINE
  5
318
  8
0
  6
CONTINUOUS
 62
     3
 10
-120.6857253872289
 20
82.8265540063631
 30
0.0
 11
-121.6857245100613
 21
83.82655700670972
 31
0.0
  0
LINE
  5
319
  8
0
  6
CONTINUOUS
 62
     3
 10
-120.6857360338871
 20
82.82653593593028
 30
0.0
 11
-120.6857360338871
 21
75.62653898768809
 31
0.0
  0
LINE
  5
31A
  8
0
  6
CONTINUOUS
 62
     3
 10
-120.6857360338871
 20
41.6265389876881
 30
0.0
 11
-120.6857360338871
 21
34.42653822474865
 31
0.0
  0
LINE
  5
31B
  8
0
  6
CONTINUOUS
 62
     3
 10
-65.67986140009806
 20
35.6265389876881
 30
0.0
 11
-65.67986140009806
 21
33.6265389876881
 31
0.0
  0
LINE
  5
31C
  8
0
  6
CONTINUOUS
 62
     3
 10
-65.67986140009806
 20
83.62653898768809
 30
0.0
 11
-65.67986140009806
 21
81.62653898768809
 31
0.0
  0
LINE
  5
31D
  8
0
  6
CONTINUOUS
 62
     3
 10
-48.67986140009806
 20
90.42394041591075
 30
0.0
 11
-48.67986140009806
 21
17.1265389876881
 31
0.0
  0
LINE
  5
31E
  8
0
  6
CONTINUOUS
 62
     3
 10
-65.67986140009806
 20
33.6265389876881
 30
0.0
 11
-57.67986140009806
 21
33.6265389876881
 31
0.0
  0
LINE
  5
31F
  8
0
  6
CONTINUOUS
 62
     3
 10
-65.67986140009806
 20
83.62653898768809
 30
0.0
 11
-57.67986140009806
 21
83.62653898768809
 31
0.0
  0
LINE
  5
320
  8
0
  6
CONTINUOUS
 62
     3
 10
-57.67986140009806
 20
88.62653898768809
 30
0.0
 11
-55.67986140009806
 21
88.62653898768809
 31
0.0
  0
LINE
  5
321
  8
0
  6
CONTINUOUS
 62
     3
 10
-55.67986351482843
 20
88.62656331486284
 30
0.0
 11
-48.67986555556719
 21
84.58511305526378
 31
0.0
  0
LINE
  5
322
  8
0
  6
CONTINUOUS
 62
     3
 10
-49.67985293429992
 20
35.62654192487441
 30
0.0
 11
-48.67985330570481
 21
34.62653943029051
 31
0.0
  0
LINE
  5
323
  8
0
  6
CONTINUOUS
 62
     3
 10
-49.67981742544761
 20
81.62648751590319
 30
0.0
 11
-48.67981712250447
 21
82.6264840256361
 31
0.0
  0
LINE
  5
324
  8
0
  6
CONTINUOUS
 62
     3
 10
-49.67986140009806
 20
81.62653898768809
 30
0.0
 11
-49.67986140009806
 21
75.53843473964122
 31
0.0
  0
LINE
  5
325
  8
0
  6
CONTINUOUS
 62
     3
 10
-49.67986140009806
 20
41.87414335780529
 30
0.0
 11
-49.67986140009806
 21
35.6265389876881
 31
0.0
  0
LINE
  5
326
  8
0
  6
CONTINUOUS
 62
     3
 10
-79.67986140009806
 20
139.1265389876881
 30
0.0
 11
-45.67986140009806
 21
139.1265389876881
 31
0.0
  0
LINE
  5
327
  8
0
  6
CONTINUOUS
 62
     3
 10
-68.67986140009806
 20
85.62653898768809
 30
0.0
 11
-57.67986140009806
 21
85.62653898768809
 31
0.0
  0
LINE
  5
328
  8
0
  6
CONTINUOUS
 62
     3
 10
-68.67986627661264
 20
85.62654338525097
 30
0.0
 11
-79.67986716450412
 21
96.62654427314244
 31
0.0
  0
LINE
  5
329
  8
0
  6
CONTINUOUS
 62
     3
 10
-57.67986140009806
 20
91.12653898768809
 30
0.0
 11
-45.67986140009806
 21
91.12653898768809
 31
0.0
  0
LINE
  5
32A
  8
0
  6
CONTINUOUS
 62
     3
 10
-60.67986140009806
 20
92.12653898768809
 30
0.0
 11
-53.67986140009806
 21
92.12653898768809
 31
0.0
  0
LINE
  5
32B
  8
0
  6
CONTINUOUS
 62
     3
 10
-53.67986140009806
 20
139.1265389876881
 30
0.0
 11
-53.67986140009806
 21
135.1265389876881
 31
0.0
  0
LINE
  5
32C
  8
0
  6
CONTINUOUS
 62
     3
 10
-60.67986140009806
 20
139.1265389876881
 30
0.0
 11
-60.67986140009806
 21
92.12653898768809
 31
0.0
  0
LINE
  5
32D
  8
0
  6
CONTINUOUS
 62
     3
 10
-57.67986140009806
 20
139.7491128402272
 30
0.0
 11
-49.67986140009806
 21
139.7491128402272
 31
0.0
  0
LINE
  5
32E
  8
0
  6
CONTINUOUS
 62
     3
 10
-49.67986414526298
 20
139.7490985011357
 30
0.0
 11
-49.05729383760048
 21
139.1265281934732
 31
0.0
  0
LINE
  5
32F
  8
0
  6
CONTINUOUS
 62
     3
 10
-57.67986140009806
 20
92.12653898768809
 30
0.0
 11
-57.67986140009806
 21
83.62653898768809
 31
0.0
  0
LINE
  5
330
  8
0
  6
CONTINUOUS
 62
     3
 10
-59.67986140009806
 20
97.12653898768809
 30
0.0
 11
-44.67986140009806
 21
97.12653898768809
 31
0.0
  0
LINE
  5
331
  8
0
  6
CONTINUOUS
 62
     3
 10
-59.67986140009806
 20
135.1265389876881
 30
0.0
 11
-44.67986140009806
 21
135.1265389876881
 31
0.0
  0
LINE
  5
332
  8
0
  6
CONTINUOUS
 62
     3
 10
-59.67986140009806
 20
135.1265389876881
 30
0.0
 11
-59.67986140009806
 21
97.12653898768809
 31
0.0
  0
LINE
  5
333
  8
0
  6
CONTINUOUS
 62
     3
 10
-53.67986140009806
 20
97.12653898768809
 30
0.0
 11
-53.67986140009806
 21
92.12653898768809
 31
0.0
  0
LINE
  5
334
  8
0
  6
CONTINUOUS
 62
     3
 10
-59.67986140009806
 20
131.1265389876881
 30
0.0
 11
-38.67986140009806
 21
131.1265389876881
 31
0.0
  0
LINE
  5
335
  8
0
  6
CONTINUOUS
 62
     3
 10
-59.67986140009806
 20
121.1265389876881
 30
0.0
 11
-38.67986140009806
 21
121.1265389876881
 31
0.0
  0
LINE
  5
336
  8
0
  6
CONTINUOUS
 62
     3
 10
-59.67986140009806
 20
111.1265389876881
 30
0.0
 11
-38.67986140009806
 21
111.1265389876881
 31
0.0
  0
LINE
  5
337
  8
0
  6
CONTINUOUS
 62
     3
 10
-59.67986140009806
 20
101.1265389876881
 30
0.0
 11
-38.67986140009806
 21
101.1265389876881
 31
0.0
  0
LINE
  5
338
  8
0
  6
CONTINUOUS
 62
     3
 10
-58.67986140009806
 20
131.1265389876881
 30
0.0
 11
-58.67986140009806
 21
121.1265389876881
 31
0.0
  0
LINE
  5
339
  8
0
  6
CONTINUOUS
 62
     3
 10
-58.67986140009806
 20
111.1265389876881
 30
0.0
 11
-58.67986140009806
 21
101.1265389876881
 31
0.0
  0
ARC
  5
33A
  8
0
  6
CONTINUOUS
 62
     3
 10
-103.9857390856449
 20
83.42654203944591
 30
0.0
 40
0.699999988079071
 50
89.99998201391065
 51
179.9999640278213
  0
ARC
  5
33B
  8
0
  6
CONTINUOUS
 62
     3
 10
-102.3857329821293
 20
83.42654203944591
 30
0.0
 40
0.699999988079071
 50
0.0
 51
89.99998201391065
  0
ARC
  5
33C
  8
0
  6
CONTINUOUS
 62
     3
 10
-102.3857329821293
 20
33.82653975062755
 30
0.0
 40
0.699999988079071
 50
270.0000179860894
 51
360.0
  0
ARC
  5
33D
  8
0
  6
CONTINUOUS
 62
     3
 10
-103.9857390856449
 20
33.82653975062755
 30
0.0
 40
0.699999988079071
 50
179.9999813306654
 51
270.0000179860894
  0
LINE
  5
33E
  8
0
  6
CONTINUOUS
 62
     2
 10
107.4665426685407
 20
77.30156679564323
 30
0.0
 11
109.5017088773476
 21
78.47656767629621
 31
0.0
  0
LINE
  5
33F
  8
0
  6
CONTINUOUS
 62
     2
 10
109.5016887222993
 20
78.476542175411
 30
0.0
 11
111.5368455224362
 21
77.30154013693397
 31
0.0
  0
LINE
  5
340
  8
0
  6
CONTINUOUS
 62
     2
 10
111.5368668103512
 20
77.3015649276295
 30
0.0
 11
111.5368668103512
 21
74.95156645350841
 31
0.0
  0
LINE
  5
341
  8
0
  6
CONTINUOUS
 62
     2
 10
111.5368813064345
 20
74.95157177402149
 30
0.0
 11
109.5017150976276
 21
73.77657082333286
 31
0.0
  0
LINE
  5
342
  8
0
  6
CONTINUOUS
 62
     2
 10
109.5016912612792
 20
73.77654869377517
 30
0.0
 11
107.466533900859
 21
74.95154961168561
 31
0.0
  0
LINE
  5
343
  8
0
  6
CONTINUOUS
 62
     2
 10
107.4665543103512
 20
74.95156645350841
 30
0.0
 11
107.4665543103512
 21
77.30157255702403
 31
0.0
  0
LINE
  5
344
  8
0
  6
CONTINUOUS
 62
     2
 10
168.0883126291501
 20
77.30151575036194
 30
0.0
 11
170.123478837957
 21
78.47651663101493
 31
0.0
  0
LINE
  5
345
  8
0
  6
CONTINUOUS
 62
     2
 10
170.1234562232131
 20
78.47648482720803
 30
0.0
 11
172.1586196305944
 21
77.30147897402463
 31
0.0
  0
LINE
  5
346
  8
0
  6
CONTINUOUS
 62
     2
 10
172.1586395764645
 20
77.30151152186778
 30
0.0
 11
172.1586395764645
 21
74.95152067714122
 31
0.0
  0
LINE
  5
347
  8
0
  6
CONTINUOUS
 62
     2
 10
172.1586797644801
 20
74.95150501649465
 30
0.0
 11
170.1235135556732
 21
73.77650406580602
 31
0.0
  0
LINE
  5
348
  8
0
  6
CONTINUOUS
 62
     2
 10
170.1234558036377
 20
73.77650657700002
 30
0.0
 11
168.0882918359713
 21
74.95151130961318
 31
0.0
  0
LINE
  5
349
  8
0
  6
CONTINUOUS
 62
     2
 10
168.0883270764645
 20
74.95152067714122
 30
0.0
 11
168.0883270764645
 21
77.30151915126231
 31
0.0
  0
LINE
  5
34A
  8
0
  6
CONTINUOUS
 62
     2
 10
139.812583370492
 20
110.8265339429095
 30
0.0
 11
135.7422509528782
 21
108.4765321816036
 31
0.0
  0
LINE
  5
34B
  8
0
  6
CONTINUOUS
 62
     2
 10
135.742272999316
 20
108.4765374618092
 30
0.0
 11
135.742272999316
 21
103.776540513567
 31
0.0
  0
LINE
  5
34C
  8
0
  6
CONTINUOUS
 62
     2
 10
135.7422315711157
 20
103.7765272355446
 30
0.0
 11
139.8125462919562
 21
101.4265253997237
 31
0.0
  0
LINE
  5
34D
  8
0
  6
CONTINUOUS
 62
     2
 10
139.8125886601438
 20
101.4265491703464
 30
0.0
 11
143.8829210777576
 21
103.7765510717237
 31
0.0
  0
LINE
  5
34E
  8
0
  6
CONTINUOUS
 62
     2
 10
143.882897999316
 20
103.7765328841725
 30
0.0
 11
143.882897999316
 21
108.4765298324147
 31
0.0
  0
LINE
  5
34F
  8
0
  6
CONTINUOUS
 62
     2
 10
143.8828707305403
 20
108.4764967048705
 30
0.0
 11
139.8125571302663
 21
110.8265007818246
 31
0.0
  0
LINE
  5
350
  8
0
  6
CONTINUOUS
 62
     2
 10
139.8125998492703
 20
130.8265419227305
 30
0.0
 11
135.7422674316564
 21
128.4765401614246
 31
0.0
  0
LINE
  5
351
  8
0
  6
CONTINUOUS
 62
     2
 10
135.742272999316
 20
128.4765374618092
 30
0.0
 11
135.742272999316
 21
123.776540513567
 31
0.0
  0
LINE
  5
352
  8
0
  6
CONTINUOUS
 62
     2
 10
135.7422430745102
 20
123.7765331218726
 30
0.0
 11
139.8125577953507
 21
121.4265312860517
 31
0.0
  0
LINE
  5
353
  8
0
  6
CONTINUOUS
 62
     2
 10
139.8125708027538
 20
121.4265549909824
 30
0.0
 11
143.8829032203677
 21
123.7765568923597
 31
0.0
  0
LINE
  5
354
  8
0
  6
CONTINUOUS
 62
     2
 10
143.882897999316
 20
123.7765328841725
 30
0.0
 11
143.882897999316
 21
128.4765298324147
 31
0.0
  0
LINE
  5
355
  8
0
  6
CONTINUOUS
 62
     2
 10
143.8828699889474
 20
128.4764635865759
 30
0.0
 11
139.8125563886734
 21
130.82646766353
 31
0.0
  0
LINE
  5
356
  8
0
  6
CONTINUOUS
 62
     2
 10
143.8829895520504
 20
8.776513810686147
 30
0.0
 11
143.8829895520504
 21
13.4765260177174
 31
0.0
  0
LINE
  5
357
  8
0
  6
CONTINUOUS
 62
     2
 10
139.8126380239711
 20
-13.57347123003176
 30
0.0
 11
143.8829547058032
 21
-11.22347247576902
 31
0.0
  0
LINE
  5
358
  8
0
  6
CONTINUOUS
 62
     2
 10
135.7422808474659
 20
-11.22350989508862
 30
0.0
 11
139.8126085026562
 21
-13.57351992060006
 31
0.0
  0
LINE
  5
359
  8
0
  6
CONTINUOUS
 62
     2
 10
135.7423492932613
 20
-6.523470167585337
 30
0.0
 11
135.7423492932613
 21
-11.22348237461659
 31
0.0
  0
LINE
  5
35A
  8
0
  6
CONTINUOUS
 62
     2
 10
139.8126483278335
 20
-4.173480734923423
 30
0.0
 11
135.7423316460014
 21
-6.523479489186165
 31
0.0
  0
LINE
  5
35B
  8
0
  6
CONTINUOUS
 62
     2
 10
143.8829638674932
 20
-6.523488075464393
 30
0.0
 11
139.8126362123029
 21
-4.173477769810397
 31
0.0
  0
LINE
  5
35C
  8
0
  6
CONTINUOUS
 62
     2
 10
143.8830200696285
 20
-11.22348237461659
 30
0.0
 11
143.8830200696285
 21
-6.523470167585337
 31
0.0
  0
LINE
  5
35D
  8
0
  6
CONTINUOUS
 62
     2
 10
139.812618412671
 20
6.426530489616717
 30
0.0
 11
143.8829350945031
 21
8.776529243879459
 31
0.0
  0
LINE
  5
35E
  8
0
  6
CONTINUOUS
 62
     2
 10
135.7422828193431
 20
8.776520809552558
 30
0.0
 11
139.8126104745335
 21
6.42651078404112
 31
0.0
  0
LINE
  5
35F
  8
0
  6
CONTINUOUS
 62
     2
 10
135.7423340344723
 20
13.47654127650646
 30
0.0
 11
135.7423340344723
 21
8.77652906947521
 31
0.0
  0
LINE
  5
360
  8
0
  6
CONTINUOUS
 62
     2
 10
139.812631509085
 20
15.82653140667214
 30
0.0
 11
135.7423214345023
 21
13.47653646710712
 31
0.0
  0
LINE
  5
361
  8
0
  6
CONTINUOUS
 62
     2
 10
143.8829479352067
 20
13.47654094376464
 30
0.0
 11
139.8126202800164
 21
15.82655124941864
 31
0.0
  0
LINE
  5
362
  8
0
  6
CONTINUOUS
 62
     2
 10
94.44584281982924
 20
37.13401996639738
 30
0.0
 11
90.37552361672232
 21
34.78402583447184
 31
0.0
  0
LINE
  5
363
  8
0
  6
CONTINUOUS
 62
     2
 10
90.37553563359336
 20
34.7840268569508
 30
0.0
 11
90.37553563359336
 21
30.08402800135998
 31
0.0
  0
LINE
  5
364
  8
0
  6
CONTINUOUS
 62
     2
 10
90.37552713677007
 20
30.08403084337812
 30
0.0
 11
94.44584185761062
 21
27.73402900755725
 31
0.0
  0
LINE
  5
365
  8
0
  6
CONTINUOUS
 62
     2
 10
94.44585338854688
 20
27.73402590462872
 30
0.0
 11
98.5161725916538
 21
30.08402017662508
 31
0.0
  0
LINE
  5
366
  8
0
  6
CONTINUOUS
 62
     2
 10
98.51617589238242
 20
30.08402037196544
 30
0.0
 11
98.51617589238242
 21
34.78401922755626
 31
0.0
  0
LINE
  5
367
  8
0
  6
CONTINUOUS
 62
     2
 10
98.51617011103747
 20
34.78402284943702
 30
0.0
 11
94.44585651076352
 21
37.13402692639108
 31
0.0
  0
LINE
  5
368
  8
0
  6
CONTINUOUS
 62
     2
 10
107.4665464017583
 20
42.30152693368752
 30
0.0
 11
109.5017126105652
 21
43.47652781434051
 31
0.0
  0
LINE
  5
369
  8
0
  6
CONTINUOUS
 62
     2
 10
109.5016941904688
 20
43.47652724726328
 30
0.0
 11
111.5368509906058
 21
42.30152520878625
 31
0.0
  0
LINE
  5
36A
  8
0
  6
CONTINUOUS
 62
     2
 10
111.5368591809566
 20
42.30152105861095
 30
0.0
 11
111.5368591809566
 21
39.95152067714123
 31
0.0
  0
LINE
  5
36B
  8
0
  6
CONTINUOUS
 62
     2
 10
111.5368860174943
 20
39.95153126147768
 30
0.0
 11
109.5017198086874
 21
38.77653031078905
 31
0.0
  0
LINE
  5
36C
  8
0
  6
CONTINUOUS
 62
     2
 10
109.5016906965376
 20
38.77652269129437
 30
0.0
 11
107.4665333361173
 21
39.95152360920481
 31
0.0
  0
LINE
  5
36D
  8
0
  6
CONTINUOUS
 62
     2
 10
107.4665466809566
 20
39.95152449183849
 30
0.0
 11
107.4665466809566
 21
42.30152487330822
 31
0.0
  0
LINE
  5
36E
  8
0
  6
CONTINUOUS
 62
     2
 10
168.0883419783244
 20
42.30158410832843
 30
0.0
 11
170.1235081871313
 21
43.47658498898142
 31
0.0
  0
LINE
  5
36F
  8
0
  6
CONTINUOUS
 62
     2
 10
170.1234914608323
 20
43.47656723735606
 30
0.0
 11
172.1586548682136
 21
42.30156138417267
 31
0.0
  0
LINE
  5
370
  8
0
  6
CONTINUOUS
 62
     2
 10
172.1586548352535
 20
42.30157064967541
 30
0.0
 11
172.1586548352535
 21
39.95157026820568
 31
0.0
  0
LINE
  5
371
  8
0
  6
CONTINUOUS
 62
     2
 10
172.1586948951364
 20
39.95156852716907
 30
0.0
 11
170.1235286863295
 21
38.77656757648044
 31
0.0
  0
LINE
  5
372
  8
0
  6
CONTINUOUS
 62
     2
 10
170.1235010153288
 20
38.77655986147335
 30
0.0
 11
168.0883370476623
 21
39.95156459408651
 31
0.0
  0
LINE
  5
373
  8
0
  6
CONTINUOUS
 62
     2
 10
168.0883423352535
 20
39.95157408290294
 30
0.0
 11
168.0883423352535
 21
42.30157446437267
 31
0.0
  0
CIRCLE
  5
374
  8
0
  6
CONTINUOUS
 62
     2
 10
109.5017105603512
 20
76.12656950526622
 30
0.0
 40
4.25
  0
CIRCLE
  5
375
  8
0
  6
CONTINUOUS
 62
     2
 10
170.1234833264645
 20
76.12652372889903
 30
0.0
 40
4.25
  0
CIRCLE
  5
376
  8
0
  6
CONTINUOUS
 62
     2
 10
139.812585499316
 20
106.1265389876881
 30
0.0
 40
8.0
  0
CIRCLE
  5
377
  8
0
  6
CONTINUOUS
 62
     2
 10
139.812585499316
 20
126.1265389876881
 30
0.0
 40
8.0
  0
CIRCLE
  5
378
  8
0
  6
CONTINUOUS
 62
     2
 10
139.8126160168941
 20
11.12653135829357
 30
0.0
 40
8.0
  0
CIRCLE
  5
379
  8
0
  6
CONTINUOUS
 62
     2
 10
139.8126312756832
 20
-8.873468641706431
 30
0.0
 40
8.0
  0
CIRCLE
  5
37A
  8
0
  6
CONTINUOUS
 62
     2
 10
94.44585576298789
 20
32.43402647548107
 30
0.0
 40
8.0
  0
CIRCLE
  5
37B
  8
0
  6
CONTINUOUS
 62
     2
 10
109.5017029309566
 20
41.12652372889904
 30
0.0
 40
4.25
  0
CIRCLE
  5
37C
  8
0
  6
CONTINUOUS
 62
     2
 10
170.1234985852535
 20
41.12657331996349
 30
0.0
 40
4.25
  0
LINE
  5
37D
  8
0
  6
CONTINUOUS
 62
     4
 10
105.8125808491215
 20
116.6265309811816
 30
0.0
 11
107.812588955355
 21
120.0906455102241
 31
0.0
  0
LINE
  5
37E
  8
0
  6
CONTINUOUS
 62
     4
 10
107.812585499316
 20
120.0906426864186
 30
0.0
 11
111.812585499316
 21
120.0906426864186
 31
0.0
  0
LINE
  5
37F
  8
0
  6
CONTINUOUS
 62
     4
 10
111.8126186706023
 20
120.0906601417051
 30
0.0
 11
113.8126162864172
 21
116.6265592868803
 31
0.0
  0
LINE
  5
380
  8
0
  6
CONTINUOUS
 62
     4
 10
113.8125928845276
 20
116.6265137799529
 30
0.0
 11
111.8125981297454
 21
113.1624266335767
 31
0.0
  0
LINE
  5
381
  8
0
  6
CONTINUOUS
 62
     4
 10
111.812585499316
 20
113.1624352889576
 30
0.0
 11
107.812585499316
 21
113.1624352889576
 31
0.0
  0
LINE
  5
382
  8
0
  6
CONTINUOUS
 62
     4
 10
107.8126111722141
 20
113.1624652447068
 30
0.0
 11
105.8126121258885
 21
116.6265672745072
 31
0.0
  0
LINE
  5
383
  8
0
  6
CONTINUOUS
 62
     4
 10
165.8125765735859
 20
0.626543150318021
 30
0.0
 11
167.8125770504231
 21
4.090644464862699
 31
0.0
  0
LINE
  5
384
  8
0
  6
CONTINUOUS
 62
     4
 10
167.812585499316
 20
4.090642686418569
 30
0.0
 11
171.812585499316
 21
4.090642686418569
 31
0.0
  0
LINE
  5
385
  8
0
  6
CONTINUOUS
 62
     4
 10
171.8125908229578
 20
4.09064556655364
 30
0.0
 11
173.8125893924463
 21
0.6265430599160666
 31
0.0
  0
LINE
  5
386
  8
0
  6
CONTINUOUS
 62
     4
 10
173.8125999779423
 20
0.6265373130264109
 30
0.0
 11
171.8125975937566
 21
-2.83756304784395
 31
0.0
  0
LINE
  5
387
  8
0
  6
CONTINUOUS
 62
     4
 10
171.812585499316
 20
-2.837564711042369
 30
0.0
 11
167.812585499316
 21
-2.837564711042369
 31
0.0
  0
LINE
  5
388
  8
0
  6
CONTINUOUS
 62
     4
 10
167.8125940112178
 20
-2.83755534225741
 30
0.0
 11
165.8125949648921
 21
0.626546687543005
 31
0.0
  0
CIRCLE
  5
389
  8
0
  6
CONTINUOUS
 62
     4
 10
109.812585499316
 20
116.6265389876881
 30
0.0
 40
3.299999952316284
  0
CIRCLE
  5
38A
  8
0
  6
CONTINUOUS
 62
     4
 10
109.812585499316
 20
116.6265389876881
 30
0.0
 40
0.75
  0
CIRCLE
  5
38B
  8
0
  6
CONTINUOUS
 62
     4
 10
109.812585499316
 20
116.6265389876881
 30
0.0
 40
2.400000095367432
  0
CIRCLE
  5
38C
  8
0
  6
CONTINUOUS
 62
     4
 10
169.812585499316
 20
0.6265389876881002
 30
0.0
 40
3.299999952316284
  0
CIRCLE
  5
38D
  8
0
  6
CONTINUOUS
 62
     4
 10
169.812585499316
 20
0.6265389876881002
 30
0.0
 40
0.75
  0
CIRCLE
  5
38E
  8
0
  6
CONTINUOUS
 62
     4
 10
169.812585499316
 20
0.6265389876881002
 30
0.0
 40
2.400000095367432
  0
LINE
  5
38F
  8
0
  6
CONTINUOUS
 62
     4
 10
-143.6798614000981
 20
-13.8734610123119
 30
0.0
 11
-142.6798614000981
 21
-13.8734610123119
 31
0.0
  0
LINE
  5
390
  8
0
  6
CONTINUOUS
 62
     4
 10
-143.6798614000981
 20
131.1265389876881
 30
0.0
 11
-142.6798614000981
 21
131.1265389876881
 31
0.0
  0
LINE
  5
391
  8
0
  6
CONTINUOUS
 62
     3
 10
122.3125630254152
 20
137.1168933256632
 30
0.0
 11
129.8125784224693
 21
139.1265161799657
 31
0.0
  0
LINE
  5
392
  8
0
  6
CONTINUOUS
 62
     3
 10
146.8126160168941
 20
7.253530259660757
 30
0.0
 11
146.8126160168941
 21
-5.000482801862681
 31
0.0
  0
LINE
  5
393
  8
0
  6
CONTINUOUS
 62
     3
 10
132.8126160168941
 20
7.253545518449819
 30
0.0
 11
132.8126160168941
 21
-5.000498060651744
 31
0.0
  0
LINE
  5
394
  8
0
  6
CONTINUOUS
 62
     3
 10
146.8126160168941
 20
26.1265389876881
 30
0.0
 11
146.8126160168941
 21
14.99952482753185
 31
0.0
  0
CIRCLE
  5
395
  8
0
  6
CONTINUOUS
 62
     3
 10
170.1234833264645
 20
76.12652372889903
 30
0.0
 40
4.900000095367432
  0
CIRCLE
  5
396
  8
0
  6
CONTINUOUS
 62
     3
 10
109.5017105603512
 20
76.12656950526622
 30
0.0
 40
4.900000095367432
  0
CIRCLE
  5
397
  8
0
  6
CONTINUOUS
 62
     3
 10
164.5613190198238
 20
83.37527250819591
 30
0.0
 40
2.0
  0
CIRCLE
  5
398
  8
0
  6
CONTINUOUS
 62
     3
 10
170.1234985852535
 20
41.12657331996349
 30
0.0
 40
4.75
  0
CIRCLE
  5
399
  8
0
  6
CONTINUOUS
 62
     3
 10
109.5017029309566
 20
41.12652372889904
 30
0.0
 40
4.75
  0
CIRCLE
  5
39A
  8
0
  6
CONTINUOUS
 62
     3
 10
164.5613190198238
 20
33.87780355983166
 30
0.0
 40
2.0
  0
CIRCLE
  5
39B
  8
0
  6
CONTINUOUS
 62
     3
 10
115.0638443494137
 20
33.87780165248302
 30
0.0
 40
2.0
  0
CIRCLE
  5
39C
  8
0
  6
CONTINUOUS
 62
     3
 10
115.0638443494137
 20
83.37527250819591
 30
0.0
 40
2.0
  0
LINE
  5
39D
  8
0
  6
CONTINUOUS
 62
     3
 10
-44.67986140009806
 20
135.1265389876881
 30
0.0
 11
-44.67986140009806
 21
131.1265389876881
 31
0.0
  0
LINE
  5
39E
  8
0
  6
CONTINUOUS
 62
     3
 10
-38.67986140009806
 20
114.1265389876881
 30
0.0
 11
-38.67986140009806
 21
98.12653898768809
 31
0.0
  0
LINE
  5
39F
  8
0
  6
CONTINUOUS
 62
     3
 10
-38.67986140009806
 20
134.1265389876881
 30
0.0
 11
-38.67986140009806
 21
118.1265389876881
 31
0.0
  0
LINE
  5
3A0
  8
0
  6
CONTINUOUS
 62
     3
 10
-28.67986140009806
 20
134.1265389876881
 30
0.0
 11
-28.67986140009806
 21
118.1265389876881
 31
0.0
  0
LINE
  5
3A1
  8
0
  6
CONTINUOUS
 62
     3
 10
-28.67986140009806
 20
114.1265389876881
 30
0.0
 11
-28.67986140009806
 21
98.12653898768809
 31
0.0
  0
LINE
  5
3A2
  8
0
  6
CONTINUOUS
 62
     3
 10
-38.67986140009806
 20
98.12653898768809
 30
0.0
 11
-28.67986140009806
 21
98.12653898768809
 31
0.0
  0
LINE
  5
3A3
  8
0
  6
CONTINUOUS
 62
     3
 10
-38.67986140009806
 20
114.1265389876881
 30
0.0
 11
-28.67986140009806
 21
114.1265389876881
 31
0.0
  0
LINE
  5
3A4
  8
0
  6
CONTINUOUS
 62
     3
 10
-38.67986140009806
 20
118.1265389876881
 30
0.0
 11
-28.67986140009806
 21
118.1265389876881
 31
0.0
  0
LINE
  5
3A5
  8
0
  6
CONTINUOUS
 62
     3
 10
-38.67986140009806
 20
134.1265389876881
 30
0.0
 11
-28.67986140009806
 21
134.1265389876881
 31
0.0
  0
LINE
  5
3A6
  8
0
  6
CONTINUOUS
 62
     3
 10
-44.67986140009806
 20
101.1265389876881
 30
0.0
 11
-44.67986140009806
 21
97.12653898768809
 31
0.0
  0
LINE
  5
3A7
  8
0
  6
CONTINUOUS
 62
     3
 10
-44.67986140009806
 20
121.1265389876881
 30
0.0
 11
-44.67986140009806
 21
111.1265389876881
 31
0.0
  0
LINE
  5
3A8
  8
0
  6
CONTINUOUS
 62
     5
 10
196.7929779553707
 20
59.20564817958263
 30
0.0
 11
196.7929779553707
 21
54.70564817958263
 31
0.0
  0
LINE
  5
3A9
  8
0
  6
CONTINUOUS
 62
     5
 10
196.7929502739809
 20
54.70567341456633
 30
0.0
 11
196.0429494777887
 21
55.45567421075845
 31
0.0
  0
LINE
  5
3AA
  8
0
  6
CONTINUOUS
 62
     5
 10
196.792989716767
 20
54.70560437637875
 30
0.0
 11
197.5429958445349
 21
55.45561063058819
 31
0.0
  0
LINE
  5
3AB
  8
0
  6
CONTINUOUS
 62
     5
 10
196.0429832096762
 20
58.4556136889151
 30
0.0
 11
196.7929893374441
 21
59.20561994312454
 31
0.0
  0
LINE
  5
3AC
  8
0
  6
CONTINUOUS
 62
     5
 10
197.5429564649695
 20
58.45568279032347
 30
0.0
 11
196.7929664583704
 21
59.20567279692256
 31
0.0
  0
LINE
  5
3AD
  8
0
  6
CONTINUOUS
 62
     5
 10
196.0429660685296
 20
69.80589331986181
 30
0.0
 11
196.7929721962975
 21
70.55589957407125
 31
0.0
  0
LINE
  5
3AE
  8
0
  6
CONTINUOUS
 62
     5
 10
196.7929664583704
 20
70.55595782266715
 30
0.0
 11
196.0429656621783
 21
71.30595861885928
 31
0.0
  0
LINE
  5
3AF
  8
0
  6
CONTINUOUS
 62
     5
 10
193.833322193652
 20
70.55590986781505
 30
0.0
 11
196.7929474377926
 21
70.55590986781505
 31
0.0
  0
LINE
  5
3B0
  8
0
  6
CONTINUOUS
 62
     5
 10
198.6687422113228
 20
65.48272140075761
 30
0.0
 11
197.6943162657026
 21
65.3283875878854
 31
0.0
  0
LINE
  5
3B1
  8
0
  6
CONTINUOUS
 62
     5
 10
198.6687612184017
 20
65.48270900972187
 30
0.0
 11
198.514429660221
 21
66.45711988441366
 31
0.0
  0
ARC
  5
3B2
  8
0
  6
CONTINUOUS
 62
     5
 10
196.812585499316
 20
63.62654280238537
 30
0.0
 40
2.625001907348633
 50
45.00010712017122
 51
339.9999593733081
  0
LINE
  5
3B3
  8
0
  6
CONTINUOUS
 62
     5
 10
189.2929474377926
 20
59.9556519942799
 30
0.0
 11
204.2929474377926
 21
59.9556519942799
 31
0.0
  0
LINE
  5
3B4
  8
0
  6
CONTINUOUS
 62
     5
 10
189.2929626965816
 20
59.95564817958263
 30
0.0
 11
189.2929626965816
 21
71.20565199427989
 31
0.0
  0
LINE
  5
3B5
  8
0
  6
CONTINUOUS
 62
     5
 10
189.2929626965816
 20
71.20565199427989
 30
0.0
 11
191.5429626965816
 21
71.20565199427989
 31
0.0
  0
LINE
  5
3B6
  8
0
  6
CONTINUOUS
 62
     5
 10
191.5429626965816
 20
70.08064817958262
 30
0.0
 11
191.5429626965816
 21
71.20564436488536
 31
0.0
  0
LINE
  5
3B7
  8
0
  6
CONTINUOUS
 62
     5
 10
191.5429474377926
 20
70.08064817958262
 30
0.0
 11
193.0429474377926
 21
70.08064817958262
 31
0.0
  0
LINE
  5
3B8
  8
0
  6
CONTINUOUS
 62
     5
 10
193.0429626965816
 20
68.95564817958262
 30
0.0
 11
193.0429626965816
 21
70.08064817958262
 31
0.0
  0
LINE
  5
3B9
  8
0
  6
CONTINUOUS
 62
     5
 10
194.5429626965816
 20
67.45564817958262
 30
0.0
 11
194.5429626965816
 21
68.95564817958262
 31
0.0
  0
LINE
  5
3BA
  8
0
  6
CONTINUOUS
 62
     5
 10
193.0429474377926
 20
68.95565199427989
 30
0.0
 11
194.5429626965816
 21
68.95565199427989
 31
0.0
  0
LINE
  5
3BB
  8
0
  6
CONTINUOUS
 62
     5
 10
189.2929626965816
 20
67.45564817958262
 30
0.0
 11
204.2929474377926
 21
67.45564817958262
 31
0.0
  0
LINE
  5
3BC
  8
0
  6
CONTINUOUS
 62
     5
 10
204.2929626965816
 20
59.95564817958263
 30
0.0
 11
204.2929626965816
 21
67.45564817958262
 31
0.0
  0
CIRCLE
  5
3BD
  8
0
  6
CONTINUOUS
 62
     4
 10
164.5613190198238
 20
83.37527250819591
 30
0.0
 40
2.5
  0
CIRCLE
  5
3BE
  8
0
  6
CONTINUOUS
 62
     4
 10
115.0638443494137
 20
33.87780165248302
 30
0.0
 40
2.5
  0
CIRCLE
  5
3BF
  8
0
  6
CONTINUOUS
 62
     4
 10
164.5613190198238
 20
33.87780355983166
 30
0.0
 40
2.5
  0
CIRCLE
  5
3C0
  8
0
  6
CONTINUOUS
 62
     4
 10
115.0638443494137
 20
83.37527250819591
 30
0.0
 40
2.5
  0
ARC
  5
3C1
  8
0
  6
CONTINUOUS
 62
     4
 10
139.812585499316
 20
58.6265389876881
 30
0.0
 40
45.0
 50
294.9749803466453
 51
321.6044228449481
  0
ARC
  5
3C2
  8
0
  6
CONTINUOUS
 62
     4
 10
139.812585499316
 20
58.6265389876881
 30
0.0
 40
45.0
 50
338.3956250042713
 51
381.183099173006
  0
ARC
  5
3C3
  8
0
  6
CONTINUOUS
 62
     4
 10
139.812585499316
 20
58.6265389876881
 30
0.0
 40
45.0
 50
38.81688712872042
 51
65.02506063448971
  0
ARC
  5
3C4
  8
0
  6
CONTINUOUS
 62
     4
 10
139.812585499316
 20
58.6265389876881
 30
0.0
 40
45.0
 50
114.9750058461692
 51
141.1831656915601
  0
ARC
  5
3C5
  8
0
  6
CONTINUOUS
 62
     4
 10
139.812585499316
 20
58.6265389876881
 30
0.0
 40
45.0
 50
158.8169246189705
 51
201.6043987877052
  0
ARC
  5
3C6
  8
0
  6
CONTINUOUS
 62
     4
 10
139.812585499316
 20
58.6265389876881
 30
0.0
 40
45.0
 50
218.3955892215685
 51
245.0250351349659
  0
LINE
  5
3C7
  8
0
  6
CONTINUOUS
 62
     4
 10
-121.4857238268559
 20
83.62653898768809
 30
0.0
 11
-104.5517638659184
 21
83.62653898768809
 31
0.0
  0
LINE
  5
3C8
  8
0
  6
CONTINUOUS
 62
     4
 10
-121.4857390856449
 20
33.6265389876881
 30
0.0
 11
-104.5517638659184
 21
33.6265389876881
 31
0.0
  0
LINE
  5
3C9
  8
0
  6
CONTINUOUS
 62
     4
 10
-45.67986140009806
 20
139.1265389876881
 30
0.0
 11
-45.67986140009806
 21
135.1265389876881
 31
0.0
  0
LINE
  5
3CA
  8
0
  6
CONTINUOUS
 62
     4
 10
-46.67986140009806
 20
139.1265389876881
 30
0.0
 11
-46.67986140009806
 21
135.1265389876881
 31
0.0
  0
LINE
  5
3CB
  8
0
  6
CONTINUOUS
 62
     4
 10
-45.67986140009806
 20
97.12653898768809
 30
0.0
 11
-45.67986140009806
 21
91.12653898768809
 31
0.0
  0
LINE
  5
3CC
  8
0
  6
CONTINUOUS
 62
     4
 10
-46.67986140009806
 20
97.12653898768809
 30
0.0
 11
-46.67986140009806
 21
91.12653898768809
 31
0.0
  0
LINE
  5
3CD
  8
0
  6
CONTINUOUS
 62
     4
 10
-59.67986140009806
 20
102.1265389876881
 30
0.0
 11
-38.67986140009806
 21
102.1265389876881
 31
0.0
  0
LINE
  5
3CE
  8
0
  6
CONTINUOUS
 62
     4
 10
-59.67986140009806
 20
110.1265389876881
 30
0.0
 11
-38.67986140009806
 21
110.1265389876881
 31
0.0
  0
LINE
  5
3CF
  8
0
  6
CONTINUOUS
 62
     4
 10
-59.67986140009806
 20
130.1265389876881
 30
0.0
 11
-38.67986140009806
 21
130.1265389876881
 31
0.0
  0
LINE
  5
3D0
  8
0
  6
CONTINUOUS
 62
     4
 10
-59.67986140009806
 20
122.1265389876881
 30
0.0
 11
-38.67986140009806
 21
122.1265389876881
 31
0.0
  0
TEXT
  5
3D1
  8
0
 62
     5
 10
77.0125824475582
 20
87.11225115828898
 30
0.0
 40
5.0
  1
NIKKO
 50
-90.0
 41
0.7674421159044379
  7
FDASTYLE1
 72
     5
 11
77.0125824475582
 21
63.54081975989726
 31
0.0
  0
TEXT
  5
3D2
  8
0
 62
     5
 10
77.5125824475582
 20
51.75511574321178
 30
0.0
 40
4.0
  1
MAC2-165A5
 50
-90.0
 41
0.7727275194893263
  7
FDASTYLE1
 72
     5
 11
77.5125824475582
 21
12.89796924167064
 31
0.0
  0
TEXT
  5
3D3
  8
0
 62
     5
 10
71.0125824475582
 20
51.39797257953075
 30
0.0
 40
3.0
  1
0001
 50
-90.0
 41
0.7647060767727455
  7
FDASTYLE1
 72
     5
 11
71.0125824475582
 21
40.25511490874676
 31
0.0
  0
TEXT
  5
3D4
  8
0
 62
     5
 10
200.1125885510738
 20
21.67654251628307
 30
0.0
 40
2.5
  1
F MAX  13KN
 50
90.0
 41
0.8450706795411388
  7
FDASTYLE1
 72
     5
 11
200.1125885510738
 21
51.67654418521313
 31
0.0
  0
TEXT
  5
3D5
  8
0
 62
     5
 10
204.1125885510738
 20
21.67654251628307
 30
0.0
 40
2.5
  1
ΣSMAX  37KN
 50
90.0
 41
0.8522729669151645
  7
FDASTYLE1
 72
     5
 11
204.1125885510738
 21
51.67654418521313
 31
0.0
  0
TEXT
  5
3D6
  8
0
 62
     5
 10
208.1125885510738
 20
21.67654251628307
 30
0.0
 40
2.5
  1
N MAX 7000 AT ΣS MAX
 50
90.0
 41
0.8505395349476591
  7
FDASTYLE1
 72
     5
 11
208.1125885510738
 21
76.87654482894328
 31
0.0
  0
TEXT
  5
3D7
  8
0
 62
     5
 10
194.9130798840816
 20
56.00164401107219
 30
0.0
 40
2.5
  1
F
 50
90.0
 41
0.8791213035583496
  7
FDASTYLE1
 72
     5
 11
194.9130798840816
 21
58.19944726996807
 31
0.0
  0
TEXT
  5
3D8
  8
0
 62
     5
 10
196.6155182385738
 20
72.25991808944133
 30
0.0
 40
2.5
  1
ΣS
 50
90.0
 41
0.9590411728078668
  7
FDASTYLE1
 72
     5
 11
196.6155182385738
 21
77.5346445398846
 31
0.0
  0
TEXT
  5
3D9
  8
0
 62
     5
 10
202.4321838879879
 20
63.79562890105632
 30
0.0
 40
2.5
  1
N min
 50
90.0
 41
0.7983872809842204
  7
FDASTYLE1
 72
     5
 11
202.4321838879879
 21
76.17062890105632
 31
0.0
  0
TEXT
  5
3DA
  8
0
 62
     5
 10
200.7233973796895
 20
75.83902927443495
 30
0.0
 40
1.25
  1
-1
 50
90.0
 41
0.7826089106345556
  7
FDASTYLE1
 72
     5
 11
200.7233973796895
 21
78.08902954265585
 31
0.0
  0
INSERT
  5
3DB
  8
LAYER0014
  6
CONTINUOUS
  2
DA_IMAGEDIMGROUP_1
 10
0.0
 20
0.0
 30
0.0
  0
INSERT
  5
3DC
  8
LAYER0014
  6
CONTINUOUS
  2
DA_IMAGEDIMGROUP_2
 10
0.0
 20
0.0
 30
0.0
  0
INSERT
  5
3DD
  8
LAYER0014
  6
CONTINUOUS
  2
DA_IMAGEDIMGROUP_3
 10
0.0
 20
0.0
 30
0.0
  0
INSERT
  5
3DE
  8
LAYER0014
  6
CONTINUOUS
  2
DA_IMAGEDIMGROUP_4
 10
0.0
 20
0.0
 30
0.0
  0
INSERT
  5
3DF
  8
LAYER0014
  6
CONTINUOUS
  2
DA_IMAGEDIMGROUP_5
 10
0.0
 20
0.0
 30
0.0
  0
INSERT
  5
3E0
  8
LAYER0014
  6
CONTINUOUS
  2
DC_GROUP_1
 10
0.0
 20
0.0
 30
0.0
  0
INSERT
  5
3E1
  8
LAYER0014
  6
CONTINUOUS
  2
DC_GROUP_2
 10
0.0
 20
0.0
 30
0.0
  0
INSERT
  5
3E2
  8
LAYER0014
  6
CONTINUOUS
  2
DA_IMAGEDIMGROUP_6
 10
0.0
 20
0.0
 30
0.0
  0
INSERT
  5
3E3
  8
LAYER0014
  6
CONTINUOUS
  2
DA_IMAGEDIMGROUP_7
 10
0.0
 20
0.0
 30
0.0
  0
INSERT
  5
3E4
  8
LAYER0014
  6
CONTINUOUS
  2
DA_IMAGEDIMGROUP_8
 10
0.0
 20
0.0
 30
0.0
  0
INSERT
  5
3E5
  8
LAYER0014
  6
CONTINUOUS
  2
DA_IMAGEDIMGROUP_9
 10
0.0
 20
0.0
 30
0.0
  0
INSERT
  5
3E6
  8
LAYER0014
  6
CONTINUOUS
  2
DA_IMAGEDIMGROUP_10
 10
0.0
 20
0.0
 30
0.0
  0
INSERT
  5
3E7
  8
LAYER0014
  6
CONTINUOUS
  2
DA_IMAGEDIMGROUP_11
 10
0.0
 20
0.0
 30
0.0
  0
INSERT
  5
3E8
  8
LAYER0014
  6
CONTINUOUS
  2
DA_IMAGEDIMGROUP_12
 10
0.0
 20
0.0
 30
0.0
  0
INSERT
  5
3E9
  8
LAYER0014
  6
CONTINUOUS
  2
DA_IMAGEDIMGROUP_13
 10
0.0
 20
0.0
 30
0.0
  0
INSERT
  5
3EA
  8
LAYER0014
  6
CONTINUOUS
  2
DA_IMAGEDIMGROUP_14
 10
0.0
 20
0.0
 30
0.0
  0
INSERT
  5
3EB
  8
LAYER0014
  6
CONTINUOUS
  2
DA_IMAGEDIMGROUP_15
 10
0.0
 20
0.0
 30
0.0
  0
INSERT
  5
3EC
  8
LAYER0014
  6
CONTINUOUS
  2
DA_IMAGEDIMGROUP_16
 10
0.0
 20
0.0
 30
0.0
  0
INSERT
  5
3ED
  8
LAYER0014
  6
CONTINUOUS
  2
DA_IMAGEDIMGROUP_17
 10
0.0
 20
0.0
 30
0.0
  0
INSERT
  5
3EE
  8
LAYER0014
  6
CONTINUOUS
  2
DA_IMAGEDIMGROUP_18
 10
0.0
 20
0.0
 30
0.0
  0
INSERT
  5
3EF
  8
LAYER0014
  6
CONTINUOUS
  2
DA_IMAGEDIMGROUP_19
 10
0.0
 20
0.0
 30
0.0
  0
INSERT
  5
3F0
  8
LAYER0014
  6
CONTINUOUS
  2
DA_IMAGEDIMGROUP_20
 10
0.0
 20
0.0
 30
0.0
  0
INSERT
  5
3F1
  8
LAYER0014
  6
CONTINUOUS
  2
DA_IMAGEDIMGROUP_21
 10
0.0
 20
0.0
 30
0.0
  0
INSERT
  5
3F2
  8
LAYER0014
  6
CONTINUOUS
  2
DA_IMAGEDIMGROUP_22
 10
0.0
 20
0.0
 30
0.0
  0
INSERT
  5
3F3
  8
LAYER0014
  6
CONTINUOUS
  2
DA_IMAGEDIMGROUP_23
 10
0.0
 20
0.0
 30
0.0
  0
INSERT
  5
3F4
  8
LAYER0014
  6
CONTINUOUS
  2
DA_IMAGEDIMGROUP_24
 10
0.0
 20
0.0
 30
0.0
  0
INSERT
  5
3F5
  8
LAYER0014
  6
CONTINUOUS
  2
DA_IMAGEDIMGROUP_25
 10
0.0
 20
0.0
 30
0.0
  0
INSERT
  5
3F6
  8
LAYER0014
  6
CONTINUOUS
  2
DA_IMAGEDIMGROUP_26
 10
0.0
 20
0.0
 30
0.0
  0
INSERT
  5
3F7
  8
LAYER0014
  6
CONTINUOUS
  2
DC_GROUP_3
 10
0.0
 20
0.0
 30
0.0
  0
LINE
  5
3F8
  8
0
  6
CONTINUOUS
 62
     6
 10
-41.23482157528481
 20
-107.5184602228626
 30
0.0
 11
-26.38682963192544
 21
-107.5184602228626
 31
0.0
  0
LINE
  5
3F9
  8
0
  6
CONTINUOUS
 62
     6
 10
-41.23482157528481
 20
-114.3184632746204
 30
0.0
 11
82.47742818057456
 21
-114.3184632746204
 31
0.0
  0
LINE
  5
3FA
  8
0
  6
CONTINUOUS
 62
     6
 10
-41.23482157528481
 20
-121.1184586969837
 30
0.0
 11
82.47742818057456
 21
-121.1184586969837
 31
0.0
  0
LINE
  5
3FB
  8
0
  6
CONTINUOUS
 62
     6
 10
-41.23482157528481
 20
-127.9184617487416
 30
0.0
 11
82.47742818057456
 21
-127.9184617487416
 31
0.0
  0
LINE
  5
3FC
  8
0
  6
CONTINUOUS
 62
     6
 10
-41.23482157528481
 20
-134.7184800592884
 30
0.0
 11
82.47742818057456
 21
-134.7184800592884
 31
0.0
  0
LINE
  5
3FD
  8
0
  6
CONTINUOUS
 62
     6
 10
-41.23482157528481
 20
-141.5184678522572
 30
0.0
 11
82.47742818057456
 21
-141.5184678522572
 31
0.0
  0
LINE
  5
3FE
  8
0
  6
CONTINUOUS
 62
     6
 10
-41.23482157528481
 20
-148.318470904015
 30
0.0
 11
82.47742818057456
 21
-148.318470904015
 31
0.0
  0
LINE
  5
3FF
  8
0
  6
CONTINUOUS
 62
     6
 10
-41.23482157528481
 20
-155.1184739557728
 30
0.0
 11
82.47742818057456
 21
-155.1184739557728
 31
0.0
  0
LINE
  5
400
  8
0
  6
CONTINUOUS
 62
     6
 10
-41.23482157528481
 20
-175.5184678522572
 30
0.0
 11
82.47742818057456
 21
-175.5184678522572
 31
0.0
  0
LINE
  5
401
  8
0
  6
CONTINUOUS
 62
     6
 10
-41.23482157528481
 20
-161.9184770075306
 30
0.0
 11
82.47742818057456
 21
-161.9184770075306
 31
0.0
  0
LINE
  5
402
  8
0
  6
CONTINUOUS
 62
     6
 10
-41.23482157528481
 20
-168.7184800592884
 30
0.0
 11
82.47742818057456
 21
-168.7184800592884
 31
0.0
  0
TEXT
  5
403
  8
0
 62
     6
 10
-20.61636524282146
 20
-181.0140428034291
 30
0.0
 40
4.0
  1
※最高使用回転数は、ﾁｬｯｸ及びシリンダーの低い方で制限されます
 41
0.6808510638297872
  7
FDASTYLE1
 72
     5
 11
81.78363475717855
 21
-181.0140428034291
 31
0.0
  0
TEXT
  5
404
  8
0
 62
     6
 10
69.36408436953941
 20
-113.1833848444447
 30
0.0
 40
4.0
  1
A5型
 41
0.7500000000000007
  7
FDASTYLE1
 72
     5
 11
78.96408436953942
 21
-113.1833848444447
 31
0.0
  0
TEXT
  5
405
  8
0
 62
     6
 10
-5.333607522570503
 20
-140.4364823786244
 30
0.0
 40
3.0
  1
(36TS-TA1型 引側油圧力 2.4MPa)
 41
0.7619047619047621
  7
FDASTYLE1
 72
     5
 11
52.26639247742951
 21
-140.4364823786244
 31
0.0
  0
TEXT
  5
406
  8
0
 62
     6
 10
35.44743258078785
 20
-174.4017838922962
 30
0.0
 40
4.0
  1
外周ﾆﾃ    　　1g以内
 41
0.736842105263158
  7
FDASTYLE1
 72
     5
 11
80.24743258078786
 21
-174.4017838922962
 31
0.0
  0
TEXT
  5
407
  8
0
 62
     6
 10
60.82194916041512
 20
-167.599165566325
 30
0.0
 40
4.0
  1
12.5kg
 41
0.8000000000000004
  7
FDASTYLE1
 72
     5
 11
80.02194916041513
 21
-167.599165566325
 31
0.0
  0
TEXT
  5
408
  8
0
 62
     6
 10
51.06851776949339
 20
-160.6222308341038
 30
0.0
 40
4.0
  1
0.043kg・m
 41
0.7826086956521741
  7
FDASTYLE1
 72
     5
 11
79.86851776949339
 21
-160.6222308341038
 31
0.0
  0
TEXT
  5
409
  8
0
 62
     6
 10
79.83418464301884
 20
-157.6900649182278
 30
0.0
 40
2.0
  1
2
 41
0.7999999999999972
  7
FDASTYLE1
 72
     5
 11
81.43418464301884
 21
-157.6900649182278
 31
0.0
  0
TEXT
  5
40A
  8
0
 62
     6
 10
57.23940965728146
 20
-153.9287919489369
 30
0.0
 40
4.0
  1
7000min
 41
0.8000000000000005
  7
FDASTYLE1
 72
     5
 11
79.63940965728148
 21
-153.9287919489369
 31
0.0
  0
TEXT
  5
40B
  8
0
 62
     6
 10
79.33303679635414
 20
-151.3904121192171
 30
0.0
 40
2.0
  1
-1
 41
0.8000000000000007
  7
FDASTYLE1
 72
     5
 11
82.53303679635414
 21
-151.3904121192171
 31
0.0
  0
TEXT
  5
40C
  8
0
 62
     6
 10
53.72915422366237
 20
-147.1344956842884
 30
0.0
 40
4.0
  1
  37.8kN
 41
0.8000000000000005
  7
FDASTYLE1
 72
     5
 11
79.32915422366239
 21
-147.1344956842884
 31
0.0
  0
TEXT
  5
40D
  8
0
 62
     6
 10
53.55994629552669
 20
-140.3295182672962
 30
0.0
 40
4.0
  1
  13.6kN
 41
0.8000000000000005
  7
FDASTYLE1
 72
     5
 11
79.15994629552671
 21
-140.3295182672962
 31
0.0
  0
TEXT
  5
40E
  8
0
 62
     6
 10
49.7633718675256
 20
-133.524525591515
 30
0.0
 40
4.0
  1
36TS-ＴＡ1型
 41
0.7500000000000001
  7
FDASTYLE1
 72
     5
 11
78.5633718675256
 21
-133.524525591515
 31
0.0
  0
TEXT
  5
40F
  8
0
 62
     6
 10
65.38978779971519
 20
-126.7145585504994
 30
0.0
 40
4.0
  1
13mm
 41
0.7999999999999998
  7
FDASTYLE1
 72
     5
 11
78.18978779971519
 21
-126.7145585504994
 31
0.0
  0
TEXT
  5
410
  8
0
 62
     6
 10
61.73019888779689
 20
-119.9145554987415
 30
0.0
 40
4.0
  1
6.4mm
 41
0.8
  7
FDASTYLE1
 72
     5
 11
77.73019888779689
 21
-119.9145554987415
 31
0.0
  0
TEXT
  5
411
  8
0
 62
     6
 10
-39.85194193661294
 20
-174.3145799128041
 30
0.0
 40
4.0
  1
アンバランス量
 41
0.6666666666666667
  7
FDASTYLE1
 72
     5
 11
-17.45194193661294
 21
-174.3145799128041
 31
0.0
  0
TEXT
  5
412
  8
0
 62
     6
 10
-39.85194193661294
 20
-167.5145616022572
 30
0.0
 40
4.0
  1
質 量
 41
0.7058823529411766
  7
FDASTYLE1
 72
     5
 11
-30.25194193661294
 21
-167.5145616022572
 31
0.0
  0
TEXT
  5
413
  8
0
 62
     6
 10
-39.85194193661294
 20
-160.7145585504994
 30
0.0
 40
4.0
  1
慣性モ－メント
 41
0.6666666666666667
  7
FDASTYLE1
 72
     5
 11
-17.45194193661294
 21
-160.7145585504994
 31
0.0
  0
TEXT
  5
414
  8
0
 62
     6
 10
-39.85194193661294
 20
-153.9145554987416
 30
0.0
 40
4.0
  1
最高使用回転速度
 41
0.6666666666666667
  7
FDASTYLE1
 72
     5
 11
-14.25194193661294
 21
-153.9145554987416
 31
0.0
  0
TEXT
  5
415
  8
0
 62
     6
 10
-39.85194193661294
 20
-147.1145524469837
 30
0.0
 40
4.0
  1
最大静的把握力
 41
0.6666666666666667
  7
FDASTYLE1
 72
     5
 11
-17.45194193661294
 21
-147.1145524469837
 31
0.0
  0
TEXT
  5
416
  8
0
 62
     6
 10
-39.85194193661294
 20
-140.3145493952259
 30
0.0
 40
4.0
  1
許容シリンダー力
 41
0.6666666666666667
  7
FDASTYLE1
 72
     5
 11
-14.25194193661294
 21
-140.3145493952259
 31
0.0
  0
TEXT
  5
417
  8
0
 62
     6
 10
-39.85194193661294
 20
-133.5145616022572
 30
0.0
 40
4.0
  1
適用シリンダー
 41
0.6666666666666667
  7
FDASTYLE1
 72
     5
 11
-17.45194193661294
 21
-133.5145616022572
 31
0.0
  0
TEXT
  5
418
  8
0
 62
     6
 10
-39.85194193661294
 20
-126.7145585504994
 30
0.0
 40
4.0
  1
ピストンストローク
 41
0.6666666666666669
  7
FDASTYLE1
 72
     5
 11
-11.05194193661293
 21
-126.7145585504994
 31
0.0
  0
TEXT
  5
419
  8
0
 62
     6
 10
-39.85194193661294
 20
-113.1145524469837
 30
0.0
 40
4.0
  1
主軸端番号
 41
0.6666666666666666
  7
FDASTYLE1
 72
     5
 11
-23.85194193661294
 21
-113.1145524469837
 31
0.0
  0
TEXT
  5
41A
  8
0
 62
     6
 10
-39.85194193661294
 20
-119.9145554987415
 30
0.0
 40
4.0
  1
爪ﾉｽﾄﾛｰｸ       (直径ﾆﾃ)
 41
0.7766990291262136
  7
FDASTYLE1
 72
     5
 11
24.14805806338706
 21
-119.9145554987415
 31
0.0
  0
TEXT
  5
41B
  8
0
 62
     6
 10
-39.85194193661294
 20
-106.3145570246204
 30
0.0
 40
4.0
  1
仕 様
 41
0.7058823529411766
  7
FDASTYLE1
 72
     5
 11
-30.25194193661294
 21
-106.3145570246204
 31
0.0
  0
TEXT
  5
41C
  8
0
 62
     6
 10
-220.2878432079477
 20
-169.2941329058479
 30
0.0
 40
4.0
  1
1000
 41
0.8000000000000007
  7
FDASTYLE1
 72
     5
 11
-207.4878432079477
 21
-169.2941329058479
 31
0.0
  0
TEXT
  5
41D
  8
0
 62
     6
 10
-200.2878432079477
 20
-169.2941329058479
 30
0.0
 40
4.0
  1
2000
 41
0.8000000000000007
  7
FDASTYLE1
 72
     5
 11
-187.4878432079477
 21
-169.2941329058479
 31
0.0
  0
TEXT
  5
41E
  8
0
 62
     6
 10
-180.2878432079477
 20
-169.2941329058479
 30
0.0
 40
4.0
  1
3000
 41
0.8000000000000007
  7
FDASTYLE1
 72
     5
 11
-167.4878432079477
 21
-169.2941329058479
 31
0.0
  0
TEXT
  5
41F
  8
0
 62
     6
 10
-160.2878432079477
 20
-169.2941329058479
 30
0.0
 40
4.0
  1
4000
 41
0.8000000000000007
  7
FDASTYLE1
 72
     5
 11
-147.4878432079477
 21
-169.2941329058479
 31
0.0
  0
TEXT
  5
420
  8
0
 62
     6
 10
-140.2878432079477
 20
-169.2941329058479
 30
0.0
 40
4.0
  1
5000
 41
0.7999999999999998
  7
FDASTYLE1
 72
     5
 11
-127.4878432079477
 21
-169.2941329058479
 31
0.0
  0
TEXT
  5
421
  8
0
 62
     6
 10
-120.2878432079477
 20
-169.2941329058479
 30
0.0
 40
4.0
  1
6000
 41
0.7999999999999998
  7
FDASTYLE1
 72
     5
 11
-107.4878432079477
 21
-169.2941329058479
 31
0.0
  0
TEXT
  5
422
  8
0
 62
     6
 10
-100.2878432079477
 20
-169.2941329058479
 30
0.0
 40
4.0
  1
7000
 41
0.7999999999999998
  7
FDASTYLE1
 72
     5
 11
-87.48784320794773
 21
-169.2941329058479
 31
0.0
  0
TEXT
  5
423
  8
0
 62
     6
 10
-238.6416172210388
 20
-168.0762089031033
 30
0.0
 40
4.0
  1
0
 41
0.7999999999999972
  7
FDASTYLE1
 72
     5
 11
-235.4416172210389
 21
-168.0762089031033
 31
0.0
  0
TEXT
  5
424
  8
0
 62
     6
 10
-243.7468554036646
 20
-157.2941176470589
 30
0.0
 40
4.0
  1
10
 41
0.8000000000000007
  7
FDASTYLE1
 72
     5
 11
-237.3468554036646
 21
-157.2941176470589
 31
0.0
  0
TEXT
  5
425
  8
0
 62
     6
 10
-243.7468554036646
 20
-149.2941176470589
 30
0.0
 40
4.0
  1
20
 41
0.8000000000000007
  7
FDASTYLE1
 72
     5
 11
-237.3468554036646
 21
-149.2941176470589
 31
0.0
  0
TEXT
  5
426
  8
0
 62
     6
 10
-243.7468554036646
 20
-141.2941176470589
 30
0.0
 40
4.0
  1
30
 41
0.8000000000000007
  7
FDASTYLE1
 72
     5
 11
-237.3468554036646
 21
-141.2941176470589
 31
0.0
  0
TEXT
  5
427
  8
0
 62
     6
 10
-243.7468554036646
 20
-133.2941176470589
 30
0.0
 40
4.0
  1
40
 41
0.8000000000000007
  7
FDASTYLE1
 72
     5
 11
-237.3468554036646
 21
-133.2941176470589
 31
0.0
  0
TEXT
  5
428
  8
0
 62
     6
 10
-243.7468554036646
 20
-125.2941176470589
 30
0.0
 40
4.0
  1
50
 41
0.8000000000000007
  7
FDASTYLE1
 72
     5
 11
-237.3468554036646
 21
-125.2941176470589
 31
0.0
  0
TEXT
  5
429
  8
0
 62
     6
 10
-243.7468554036646
 20
-117.2941176470589
 30
0.0
 40
4.0
  1
60
 41
0.8000000000000007
  7
FDASTYLE1
 72
     5
 11
-237.3468554036646
 21
-117.2941176470589
 31
0.0
  0
TEXT
  5
42A
  8
0
 62
     6
 10
-243.7468554036646
 20
-109.2941176470589
 30
0.0
 40
4.0
  1
70
 41
0.8000000000000007
  7
FDASTYLE1
 72
     5
 11
-237.3468554036646
 21
-109.2941176470589
 31
0.0
  0
TEXT
  5
42B
  8
0
 62
     6
 10
-229.2299055858774
 20
-104.6877715166878
 30
0.0
 40
4.0
  1
把　握　力　特　性　表
 41
0.6666666666666671
  7
FDASTYLE1
 72
     5
 11
-194.0299055858774
 21
-104.6877715166878
 31
0.0
  0
TEXT
  5
42C
  8
0
 62
     6
 10
-181.5504161130276
 20
-176.4140777222513
 30
0.0
 40
4.0
  1
回　転　速　度　min
 41
0.6984126984126988
  7
FDASTYLE1
 72
     5
 11
-146.3504161130275
 21
-176.4140777222513
 31
0.0
  0
TEXT
  5
42D
  8
0
 62
     6
 10
-246.9367425524893
 20
-147.4661832222628
 30
0.0
 40
4.0
  1
把　握　力　kN
 50
90.0
 41
0.6956521739130434
  7
FDASTYLE1
 72
     5
 11
-246.9367425524893
 21
-121.8661832222628
 31
0.0
  0
TEXT
  5
42E
  8
0
 62
     6
 10
-176.7796339794321
 20
-104.8864485796761
 30
0.0
 40
4.0
  1
(爪ﾉ回転ﾓｰﾒﾝﾄ10.4N･cm)
 41
0.7755102040816327
  7
FDASTYLE1
 72
     5
 11
-115.9796339794321
 21
-104.8864485796761
 31
0.0
  0
TEXT
  5
42F
  8
0
 62
     6
 10
-146.8707112923081
 20
-172.7807711578366
 30
0.0
 40
2.0
  1
-1
 41
0.7999999999999972
  7
FDASTYLE1
 72
     5
 11
-143.6707112923081
 21
-172.7807711578366
 31
0.0
  0
LINE
  5
430
  8
0
  6
DASHED2
 62
     7
 10
-58.67986140009806
 20
14.9915406661549
 30
0.0
 11
-47.67986140009806
 21
14.9915406661549
 31
0.0
  0
LINE
  5
431
  8
0
  6
DASHED2
 62
     7
 10
-58.67986140009806
 20
-2.508459333845105
 30
0.0
 11
-47.67986140009806
 21
-2.508459333845105
 31
0.0
  0
LINE
  5
432
  8
0
  6
DASHED2
 62
     7
 10
-58.67986140009806
 20
14.9915406661549
 30
0.0
 11
-58.67986140009806
 21
-2.508459333845105
 31
0.0
  0
LINE
  5
433
  8
0
  6
DASHED2
 62
     7
 10
-158.6798614000981
 20
1.241540666154895
 30
0.0
 11
-58.67986140009806
 21
1.241540666154895
 31
0.0
  0
LINE
  5
434
  8
0
  6
DASHED2
 62
     7
 10
-158.6798614000981
 20
11.2415406661549
 30
0.0
 11
-58.67986140009806
 21
11.2415406661549
 31
0.0
  0
LINE
  5
435
  8
0
  6
DASHED2
 62
     7
 10
-58.67986140009806
 20
-1.758459333845105
 30
0.0
 11
-48.67986140009806
 21
-1.758459333845105
 31
0.0
  0
LINE
  5
436
  8
0
  6
DASHED2
 62
     7
 10
-58.67986140009806
 20
14.2415406661549
 30
0.0
 11
-48.67986140009806
 21
14.2415406661549
 31
0.0
  0
LINE
  5
437
  8
0
  6
DASHED2
 62
     7
 10
-48.67986140009806
 20
14.2415406661549
 30
0.0
 11
-48.67986140009806
 21
-1.758459333845105
 31
0.0
  0
LINE
  5
438
  8
0
  6
DASHED2
 62
     7
 10
-158.6798614000981
 20
1.941541429094349
 30
0.0
 11
-126.6798614000981
 21
1.941541429094349
 31
0.0
  0
LINE
  5
439
  8
0
  6
DASHED2
 62
     7
 10
-158.6798614000981
 20
10.54153990321544
 30
0.0
 11
-126.6798614000981
 21
10.54153990321544
 31
0.0
  0
LINE
  5
43A
  8
0
  6
DASHED2
 62
     7
 10
-158.679846141309
 20
11.2415406661549
 30
0.0
 11
-158.679846141309
 21
1.241540666154895
 31
0.0
  0
LINE
  5
43B
  8
0
  6
DASHED2
 62
     7
 10
-136.179846141309
 20
119.16654753261
 30
0.0
 11
-136.179846141309
 21
102.8865411239186
 31
0.0
  0
LINE
  5
43C
  8
0
  6
DASHED2
 62
     7
 10
-142.6798614000981
 20
119.16654753261
 30
0.0
 11
-136.1798614000981
 21
119.16654753261
 31
0.0
  0
LINE
  5
43D
  8
0
  6
DASHED2
 62
     7
 10
-142.6798614000981
 20
102.8865411239186
 30
0.0
 11
-136.1798614000981
 21
102.8865411239186
 31
0.0
  0
LINE
  5
43E
  8
0
  6
DASHED2
 62
     7
 10
-136.1798678317226
 20
116.1265450657321
 30
0.0
 11
-133.2353789553216
 21
111.026541428988
 31
0.0
  0
LINE
  5
43F
  8
0
  6
DASHED2
 62
     7
 10
-136.1798695037409
 20
105.9265316417678
 30
0.0
 11
-133.2353782431538
 21
111.0265394080428
 31
0.0
  0
LINE
  5
440
  8
0
  6
DASHED2
 62
     7
 10
-72.67986140009806
 20
25.6265389876881
 30
0.0
 11
-72.67986140009806
 21
21.6265389876881
 31
0.0
  0
LINE
  5
441
  8
0
  6
DASHED2
 62
     7
 10
-69.67986140009806
 20
26.1265389876881
 30
0.0
 11
-69.67986140009806
 21
21.1265389876881
 31
0.0
  0
LINE
  5
442
  8
0
  6
DASHED2
 62
     7
 10
-69.67986140009806
 20
26.1265389876881
 30
0.0
 11
-54.67986140009806
 21
26.1265389876881
 31
0.0
  0
LINE
  5
443
  8
0
  6
DASHED2
 62
     7
 10
-69.67986140009806
 20
21.1265389876881
 30
0.0
 11
-54.67986140009806
 21
21.1265389876881
 31
0.0
  0
LINE
  5
444
  8
0
  6
DASHED2
 62
     7
 10
-73.83456546413869
 20
23.62655022035137
 30
0.0
 11
-72.67986886194957
 21
25.626543128356
 31
0.0
  0
LINE
  5
445
  8
0
  6
DASHED2
 62
     7
 10
-73.83456505661196
 20
23.6265331210762
 30
0.0
 11
-72.6798636860507
 21
21.62653195400987
 31
0.0
  0
LINE
  5
446
  8
0
  6
DASHED2
 62
     7
 10
-54.67986140009806
 20
28.3765389876881
 30
0.0
 11
-54.67986140009806
 21
18.8765389876881
 31
0.0
  0
LINE
  5
447
  8
0
  6
DASHED2
 62
     7
 10
-49.67986140009806
 20
27.8765389876881
 30
0.0
 11
-49.67986140009806
 21
19.3765389876881
 31
0.0
  0
LINE
  5
448
  8
0
  6
DASHED2
 62
     7
 10
-54.67986140009806
 20
28.3765389876881
 30
0.0
 11
-48.67986140009806
 21
28.3765389876881
 31
0.0
  0
LINE
  5
449
  8
0
  6
DASHED2
 62
     7
 10
-54.67986140009806
 20
18.8765389876881
 30
0.0
 11
-48.67986140009806
 21
18.8765389876881
 31
0.0
  0
LINE
  5
44A
  8
0
  6
DASHED2
 62
     7
 10
-54.67986140009806
 20
19.3765389876881
 30
0.0
 11
-49.67986140009806
 21
19.3765389876881
 31
0.0
  0
LINE
  5
44B
  8
0
  6
DASHED2
 62
     7
 10
-54.67986140009806
 20
27.8765389876881
 30
0.0
 11
-49.67986140009806
 21
27.8765389876881
 31
0.0
  0
LINE
  5
44C
  8
0
  6
DASHED2
 62
     7
 10
-142.679846141309
 20
11.7415406661549
 30
0.0
 11
-58.67986140009806
 21
11.7415406661549
 31
0.0
  0
LINE
  5
44D
  8
0
  6
DASHED2
 62
     7
 10
-142.679846141309
 20
0.7415406661548953
 30
0.0
 11
-58.67986140009806
 21
0.7415406661548953
 31
0.0
  0
LINE
  5
44E
  8
0
  6
DASHED2
 62
     7
 10
-72.67986140009806
 20
25.6265389876881
 30
0.0
 11
-69.67986140009806
 21
25.6265389876881
 31
0.0
  0
LINE
  5
44F
  8
0
  6
DASHED2
 62
     7
 10
-69.67986140009806
 20
25.6265389876881
 30
0.0
 11
-54.67986140009806
 21
25.6265389876881
 31
0.0
  0
LINE
  5
450
  8
0
  6
DASHED2
 62
     7
 10
-72.67986140009806
 20
21.6265389876881
 30
0.0
 11
-69.67986140009806
 21
21.6265389876881
 31
0.0
  0
LINE
  5
451
  8
0
  6
DASHED2
 62
     7
 10
-69.67986140009806
 20
21.6265389876881
 30
0.0
 11
-54.67986140009806
 21
21.6265389876881
 31
0.0
  0
LINE
  5
452
  8
0
  6
DASHED2
 62
     7
 10
-97.67984614130899
 20
-7.873461012311893
 30
0.0
 11
-89.67984614130899
 21
-7.873461012311893
 31
0.0
  0
LINE
  5
453
  8
0
  6
DASHED2
 62
     7
 10
-97.67984614130899
 20
-7.873461012311893
 30
0.0
 11
-97.67984614130899
 21
-23.8734610123119
 31
0.0
  0
LINE
  5
454
  8
0
  6
DASHED2
 62
     7
 10
-96.87984308955117
 20
-3.873461012311893
 30
0.0
 11
-96.87984308955117
 21
-23.8734610123119
 31
0.0
  0
LINE
  5
455
  8
0
  6
DASHED2
 62
     7
 10
-89.67984614130899
 20
-7.873461012311893
 30
0.0
 11
-89.67984614130899
 21
-23.8734610123119
 31
0.0
  0
LINE
  5
456
  8
0
  6
DASHED2
 62
     7
 10
-90.4798491930668
 20
-3.873461012311893
 30
0.0
 11
-90.4798491930668
 21
-23.8734610123119
 31
0.0
  0
LINE
  5
457
  8
0
  6
DASHED2
 62
     7
 10
-96.87984308955117
 20
-3.873461012311893
 30
0.0
 11
-90.4798491930668
 21
-3.873461012311893
 31
0.0
  0
LINE
  5
458
  8
0
  6
DASHED2
 62
     7
 10
-96.87984932182729
 20
-3.873462429447883
 30
0.0
 11
-93.67985252007924
 21
-2.025943618670155
 31
0.0
  0
LINE
  5
459
  8
0
  6
DASHED2
 62
     7
 10
-93.6798489544027
 20
-2.025942167219611
 30
0.0
 11
-90.47985215265464
 21
-3.87346097799734
 31
0.0
  0
TEXT
  5
45A
  8
0
 62
     7
 10
-199.4859679674809
 20
-3.555991987653691
 30
0.0
 40
4.0
  1
7ﾟ7′30″
 50
90.0
 41
0.7567567567567569
  7
FDASTYLE1
 72
     5
 11
-199.4859679674809
 21
18.84400801234632
 31
0.0
  0
TEXT
  5
45B
  8
0
 62
     7
 10
-140.0053569248446
 20
-58.57001289416878
 30
0.0
 40
4.0
  1
MIN15
 41
0.8
  7
FDASTYLE1
 72
     5
 11
-124.0053569248446
 21
-58.57001289416878
 31
0.0
  0
TEXT
  5
45C
  8
0
 62
     7
 10
9.704057012355163
 20
63.7436768834878
 30
0.0
 40
4.0
  1
MIN30.9
 50
90.0
 41
0.7999999999999999
  7
FDASTYLE1
 72
     5
 11
9.704057012355163
 21
86.1436768834878
 31
0.0
  0
TEXT
  5
45D
  8
0
 62
     7
 10
-13.72656284081486
 20
94.18952725792136
 30
0.0
 40
4.0
  1
MIN
 50
90.0
 41
0.7999999999999995
  7
FDASTYLE1
 72
     5
 11
-13.72656284081486
 21
103.7895272579214
 31
0.0
  0
ARC
  5
45E
  8
LAYER0014
  6
CONTINUOUS
 62
     7
 10
-142.679846141309
 20
17.34503721766857
 30
0.0
 40
53.80963897705078
 50
187.1249988039251
 51
193.8863933574779
  0
INSERT
  5
45F
  8
LAYER0014
 62
     7
  2
_OPEN30
 10
-196.0739624959607
 20
10.67078927902733
 30
0.0
 41
1.50000139391263
 42
1.499998500689492
 50
97.92358935075212
  0
LINE
  5
460
  8
LAYER0014
  6
CONTINUOUS
 62
     7
 10
-143.679846141309
 20
-65.79985261387441
 30
0.0
 11
-150.029846141309
 21
-65.79985261387441
 31
0.0
  0
INSERT
  5
461
  8
LAYER0014
 62
     7
  2
_OPEN30
 10
-143.679846141309
 20
-65.79985261387441
 30
0.0
 41
1.50000139391263
 42
1.499998500689492
 50
360.0
  0
LINE
  5
462
  8
LAYER0014
  6
CONTINUOUS
 62
     7
 10
-104.6857360338871
 20
44.40020155482677
 30
0.0
 11
-111.0357360338871
 21
44.40020155482677
 31
0.0
  0
INSERT
  5
463
  8
LAYER0014
 62
     7
  2
_OPEN30
 10
-104.6857360338871
 20
44.40020155482677
 30
0.0
 41
1.50000139391263
 42
1.499998500689492
 50
360.0
  0
LINE
  5
464
  8
LAYER0014
  6
CONTINUOUS
 62
     7
 10
-45.49599301047773
 20
136.957721966312
 30
0.0
 11
-13.24599660101366
 21
169.2077346866091
 31
0.0
  0
INSERT
  5
465
  8
LAYER0014
 62
     7
  2
_OPEN30
 10
-45.49599301047773
 20
136.957721966312
 30
0.0
 41
1.50000139391263
 42
1.499998500689492
 50
225.0000144890195
  0
LINE
  5
466
  8
LAYER0014
  6
CONTINUOUS
 62
     7
 10
-33.8846973569447
 20
130.8378931407556
 30
0.0
 11
-10.78030721167706
 21
154.5127742993378
 31
0.0
  0
INSERT
  5
467
  8
LAYER0014
 62
     7
  2
_OPEN30
 10
-33.8846973569447
 20
130.8378931407556
 30
0.0
 41
1.50000139391263
 42
1.499998500689492
 50
225.6987091948423
  0
ARC
  5
468
  8
LAYER0014
  6
CONTINUOUS
 62
     7
 10
-142.679846141309
 20
17.34503721766857
 30
0.0
 40
53.80963897705078
 50
179.9999776881997
 51
187.1249988039251
  0
LINE
  5
469
  8
LAYER0014
  6
CONTINUOUS
 62
     7
 10
-145.2002022917034
 20
17.02998043638123
 30
0.0
 11
-198.3422834944027
 21
10.38723026155953
 31
0.0
  0
LINE
  5
46A
  8
LAYER0014
  6
CONTINUOUS
 62
     7
 10
-143.679846141309
 20
-65.79985261387441
 30
0.0
 11
-151.6925109362309
 21
-65.79985261387441
 31
0.0
  0
LINE
  5
46B
  8
LAYER0014
  6
CONTINUOUS
 62
     7
 10
-143.679846141309
 20
-65.79985261387441
 30
0.0
 11
-142.679846141309
 21
-65.79985261387441
 31
0.0
  0
LINE
  5
46C
  8
LAYER0014
  6
CONTINUOUS
 62
     7
 10
-142.679846141309
 20
-16.4134610123119
 30
0.0
 11
-142.679846141309
 21
-68.08585572666738
 31
0.0
  0
LINE
  5
46D
  8
LAYER0014
  6
CONTINUOUS
 62
     7
 10
-104.6857360338871
 20
44.40020155482677
 30
0.0
 11
-101.6857360338871
 21
44.40020155482677
 31
0.0
  0
LINE
  5
46E
  8
LAYER0014
  6
CONTINUOUS
 62
     7
 10
-13.2459968065922
 20
169.2077462630787
 30
0.0
 11
33.38367238286092
 21
169.2077462630787
 31
0.0
  0
LINE
  5
46F
  8
LAYER0014
  6
CONTINUOUS
 62
     7
 10
-10.78030810114787
 20
154.5127694564381
 30
0.0
 11
0.6493616664703126
 21
154.5127694564381
 31
0.0
  0
LINE
  5
470
  8
LAYER0014
  6
CONTINUOUS
 62
     7
 10
-136.329846141309
 20
-65.79985261387441
 30
0.0
 11
-142.679846141309
 21
-65.79985261387441
 31
0.0
  0
INSERT
  5
471
  8
LAYER0014
 62
     7
  2
_OPEN30
 10
-142.679846141309
 20
-65.79985261387441
 30
0.0
 41
1.50000139391263
 42
1.499998500689492
 50
180.0
  0
TEXT
  5
472
  8
LAYER0014
 62
     7
 10
-150.8566572461807
 20
-64.82265860474311
 30
0.0
 40
4.0
  1
1
 50
-0.1000000000000078
 41
0.8000000000000025
  7
FDASTYLE1
 72
     5
 11
-147.6566621200581
 21
-64.82824365551399
 31
0.0
  0
TEXT
  5
473
  8
LAYER0014
 62
     7
 10
-104.8211778500514
 20
44.80392571528721
 30
0.0
 40
4.0
  1
3
 41
0.7999999999999972
  7
FDASTYLE1
 72
     5
 11
-101.6211778500514
 21
44.80392571528721
 31
0.0
  0
TEXT
  5
474
  8
LAYER0014
 62
     7
 10
-12.56449015775822
 20
169.8489194553971
 30
0.0
 40
4.0
  1
ｾﾚｰｼｮﾝP1.5山60ﾟ
 41
0.7887323943661971
  7
FDASTYLE1
 72
     5
 11
32.23550984224178
 21
169.8489194553971
 31
0.0
  0
TEXT
  5
475
  8
LAYER0014
 62
     7
 10
-9.924589488476968
 20
154.879992132276
 30
0.0
 40
4.0
  1
M10
 41
0.8000000000000002
  7
FDASTYLE1
 72
     5
 11
-0.3245894884769669
 21
154.879992132276
 31
0.0
  0
LINE
  5
476
  8
LAYER0014
  6
CONTINUOUS
 62
     3
 10
-95.33573603388713
 20
44.40020155482677
 30
0.0
 11
-101.6857360338871
 21
44.40020155482677
 31
0.0
  0
INSERT
  5
477
  8
LAYER0014
 62
     3
  2
_OPEN30
 10
-101.6857360338871
 20
44.40020155482677
 30
0.0
 41
1.50000139391263
 42
1.499998500689492
 50
180.0
  0
INSERT
  5
478
  8
0
  6
CONTINUOUS
  2
DA_IMAGEDIMGROUP_27
 10
0.0
 20
0.0
 30
0.0
  0
INSERT
  5
479
  8
0
  6
CONTINUOUS
  2
DA_IMAGEDIMGROUP_28
 10
0.0
 20
0.0
 30
0.0
  0
INSERT
  5
47A
  8
0
  6
CONTINUOUS
  2
DA_IMAGEDIMGROUP_29
 10
0.0
 20
0.0
 30
0.0
  0
INSERT
  5
47B
  8
0
  6
CONTINUOUS
  2
DA_IMAGEDIMGROUP_30
 10
0.0
 20
0.0
 30
0.0
  0
INSERT
  5
47C
  8
0
  6
CONTINUOUS
  2
DA_IMAGEDIMGROUP_31
 10
0.0
 20
0.0
 30
0.0
  0
INSERT
  5
47D
  8
0
  6
CONTINUOUS
  2
DA_IMAGEDIMGROUP_32
 10
0.0
 20
0.0
 30
0.0
  0
LINE
  5
47E
  8
0
  6
CENTER
 62
     7
 10
-93.67984614130899
 20
-1.028591382652638
 30
0.0
 11
-93.67984614130899
 21
-27.32145267989741
 31
0.0
  0
LINE
  5
47F
  8
0
  6
CONTINUOUS
 62
     7
 10
-234.8878248974009
 20
-163.2941176470589
 30
0.0
 11
-94.88782489740086
 21
-163.2941176470589
 31
0.0
  0
LINE
  5
480
  8
0
  6
CONTINUOUS
 62
     7
 10
-234.8878248974009
 20
-107.2941176470589
 30
0.0
 11
-234.8878248974009
 21
-163.2941176470589
 31
0.0
  0
LINE
  5
481
  8
LAYER0014
  6
CONTINUOUS
 62
     4
 10
-139.0381890261178
 20
-141.0804415365223
 30
0.0
 11
-150.533131633241
 21
-154.1126022653441
 31
0.0
  0
INSERT
  5
482
  8
LAYER0014
 62
     4
  2
_OPEN30
 10
-139.0381890261178
 20
-141.0804415365223
 30
0.0
 41
1.50000139391263
 42
1.499998500689492
 50
48.58627994316711
  0
LINE
  5
483
  8
LAYER0014
  6
CONTINUOUS
 62
     4
 10
-150.5331334721906
 20
-154.1125992041667
 30
0.0
 11
-231.8327895803985
 21
-154.1126005985405
 31
0.0
  0
TEXT
  5
484
  8
LAYER0014
 62
     4
 10
-231.0096996190298
 20
-153.6803316777196
 30
0.0
 40
4.0
  1
36ＴS-TA1型シリンダー（圧力2.4MPa)
 41
0.7384615384615386
  7
FDASTYLE1
 72
     5
 11
-154.2096996190298
 21
-153.6803316777196
 31
0.0
  0
INSERT
  5
485
  8
0
  6
CONTINUOUS
  2
DC_GROUP_4
 10
0.0
 20
0.0
 30
0.0
  0
VIEWPORT
  5
48
 67
     1
  8
0
 10
0.0
 20
0.0
 30
0.0
 40
1662.0
 41
1140.0
 68
     1
 69
     1
1001
ACAD
1000
MVIEW
1002
{
1070
    16
1010
0.0
1020
0.0
1030
0.0
1020
0.0
1030
0.0
1010
0.0
1020
0.0
1030
1.0
1020
0.0
1030
1.0
1040
0.0
1040
1140.0
1040
0.0
1040
0.0
1040
50.0
1040
0.0
1040
0.0
1070
     0
1070
   100
1070
     0
1070
     1
1070
     0
1070
     0
1070
     0
1070
     0
1040
0.0
1040
0.0
1040
0.0
1040
0.5
1040
0.5
1040
0.0
1040
0.0
1070
     0
1002
{
1002
}
1002
}
  0
ENDSEC
  0
EOF
