  0
SECTION
  2
HEADER
  9
$ACADVER
  1
AC1009
  9
$DWGCODEPAGE
  3
ansi_932
  9
$INSBASE
 10
0.0
 20
0.0
 30
0.0
  9
$EXTMIN
 10
-831.0
 20
-569.9999999999999
 30
0.0
  9
$EXTMAX
 10
831.0
 20
569.9999999999999
 30
0.0
  9
$LIMMIN
 10
-297.0
 20
-210.0
  9
$LIMMAX
 10
297.0
 20
210.0
  9
$ORTHOMODE
 70
     0
  9
$REGENMODE
 70
     1
  9
$FILLMODE
 70
     1
  9
$QTEXTMODE
 70
     0
  9
$MIRRTEXT
 70
     1
  9
$DRAGMODE
 70
     2
  9
$LTSCALE
 40
1.0
  9
$OSMODE
 70
    37
  9
$ATTMODE
 70
     1
  9
$TEXTSIZE
 40
0.2
  9
$TRACEWID
 40
0.05
  9
$TEXTSTYLE
  7
STANDARD
  9
$CLAYER
  8
0
  9
$CELTYPE
  6
BYLAYER
  9
$CECOLOR
 62
   256
  9
$DIMSCALE
 40
1.0
  9
$DIMASZ
 40
2.5
  9
$DIMEXO
 40
0.0625
  9
$DIMDLI
 40
0.38
  9
$DIMRND
 40
0.0
  9
$DIMDLE
 40
0.0
  9
$DIMEXE
 40
0.18
  9
$DIMTP
 40
0.0
  9
$DIMTM
 40
0.0
  9
$DIMTXT
 40
0.18
  9
$DIMCEN
 40
0.09
  9
$DIMTSZ
 40
0.0
  9
$DIMTOL
 70
     0
  9
$DIMLIM
 70
     0
  9
$DIMTIH
 70
     1
  9
$DIMTOH
 70
     1
  9
$DIMSE1
 70
     0
  9
$DIMSE2
 70
     0
  9
$DIMTAD
 70
     3
  9
$DIMZIN
 70
     0
  9
$DIMBLK
  1

  9
$DIMASO
 70
     1
  9
$DIMSHO
 70
     1
  9
$DIMPOST
  1

  9
$DIMAPOST
  1

  9
$DIMALT
 70
     0
  9
$DIMALTD
 70
     2
  9
$DIMALTF
 40
25.4
  9
$DIMLFAC
 40
1.0
  9
$DIMTOFL
 70
     0
  9
$DIMTVP
 40
0.0
  9
$DIMTIX
 70
     0
  9
$DIMSOXD
 70
     0
  9
$DIMSAH
 70
     0
  9
$DIMBLK1
  1

  9
$DIMBLK2
  1

  9
$DIMSTYLE
  2
STANDARD
  9
$DIMCLRD
 70
     0
  9
$DIMCLRE
 70
     0
  9
$DIMCLRT
 70
     0
  9
$DIMTFAC
 40
1.0
  9
$DIMGAP
 40
0.09
  9
$LUNITS
 70
     2
  9
$LUPREC
 70
     4
  9
$SKETCHINC
 40
0.1
  9
$FILLETRAD
 40
0.5
  9
$AUNITS
 70
     0
  9
$AUPREC
 70
     0
  9
$MENU
  1
.
  9
$ELEVATION
 40
0.0
  9
$PELEVATION
 40
0.0
  9
$THICKNESS
 40
0.0
  9
$LIMCHECK
 70
     0
  9
$CHAMFERA
 40
0.5
  9
$CHAMFERB
 40
0.5
  9
$SKPOLY
 70
     0
  9
$TDCREATE
 40
2456272.472689514
  9
$TDUPDATE
 40
2456272.472689526
  9
$TDINDWG
 40
0.0000000116
  9
$TDUSRTIMER
 40
0.0000000116
  9
$USRTIMER
 70
     1
  9
$ANGBASE
 50
0.0
  9
$ANGDIR
 70
     0
  9
$PDMODE
 70
     0
  9
$PDSIZE
 40
1.0
  9
$PLINEWID
 40
0.0
  9
$COORDS
 70
     1
  9
$SPLFRAME
 70
     0
  9
$SPLINETYPE
 70
     6
  9
$SPLINESEGS
 70
     8
  9
$ATTDIA
 70
     0
  9
$ATTREQ
 70
     1
  9
$HANDLING
 70
     1
  9
$HANDSEED
  5
4A3
  9
$SURFTAB1
 70
     6
  9
$SURFTAB2
 70
     6
  9
$SURFTYPE
 70
     6
  9
$SURFU
 70
     6
  9
$SURFV
 70
     6
  9
$UCSNAME
  2

  9
$UCSORG
 10
0.0
 20
0.0
 30
0.0
  9
$UCSXDIR
 10
1.0
 20
0.0
 30
0.0
  9
$UCSYDIR
 10
0.0
 20
1.0
 30
0.0
  9
$PUCSNAME
  2

  9
$PUCSORG
 10
0.0
 20
0.0
 30
0.0
  9
$PUCSXDIR
 10
1.0
 20
0.0
 30
0.0
  9
$PUCSYDIR
 10
0.0
 20
1.0
 30
0.0
  9
$USERI1
 70
     0
  9
$USERI2
 70
     0
  9
$USERI3
 70
     0
  9
$USERI4
 70
     0
  9
$USERI5
 70
     0
  9
$USERR1
 40
0.0
  9
$USERR2
 40
0.0
  9
$USERR3
 40
0.0
  9
$USERR4
 40
0.0
  9
$USERR5
 40
0.0
  9
$WORLDVIEW
 70
     1
  9
$SHADEDGE
 70
     3
  9
$SHADEDIF
 70
    70
  9
$TILEMODE
 70
     1
  9
$MAXACTVP
 70
    64
  9
$PLIMCHECK
 70
     0
  9
$PEXTMIN
 10
1.000000000000000E+20
 20
1.000000000000000E+20
 30
1.000000000000000E+20
  9
$PEXTMAX
 10
-1.000000000000000E+20
 20
-1.000000000000000E+20
 30
-1.000000000000000E+20
  9
$PLIMMIN
 10
0.0
 20
0.0
  9
$PLIMMAX
 10
12.0
 20
9.0
  9
$UNITMODE
 70
     0
  9
$VISRETAIN
 70
     0
  9
$PLINEGEN
 70
     1
  9
$PSLTSCALE
 70
     0
  0
ENDSEC
  0
SECTION
  2
TABLES
  0
TABLE
  2
VPORT
 70
     1
  0
VPORT
  2
*ACTIVE
 70
     0
 10
0.0
 20
0.0
 11
1.0
 21
1.0
 12
0.0
 22
0.0
 13
0.0
 23
0.0
 14
0.5
 24
0.5
 15
0.5
 25
0.5
 16
0.0
 26
0.0
 36
1.0
 17
-0.0000000000000036
 27
0.0
 37
0.0
 40
387.6
 41
1.457894736842106
 42
50.0
 43
0.0
 44
0.0
 50
0.0
 51
0.0
 71
     0
 72
  1000
 73
     1
 74
     1
 75
     0
 76
     0
 77
     0
 78
     0
  0
ENDTAB
  0
TABLE
  2
LTYPE
 70
    28
  0
LTYPE
  2
CONTINUOUS
 70
     0
  3
Solid line
 72
    65
 73
     0
 40
0.0
  0
LTYPE
  2
HIDDENX2
 70
     0
  3
CADPAC LINETYPE
 72
    65
 73
     2
 40
9.893992932862261
 49
7.420494699646696
 49
-2.473498233215565
  0
LTYPE
  2
HIDDEN
 70
     0
  3
CADPAC LINETYPE
 72
    65
 73
     2
 40
7.420494699646696
 49
4.946996466431131
 49
-2.473498233215565
  0
LTYPE
  2
HIDDEN2
 70
     0
  3
CADPAC LINETYPE
 72
    65
 73
     2
 40
6.183745583038913
 49
3.710247349823348
 49
-2.473498233215565
  0
LTYPE
  2
DASHED
 70
     0
  3
CADPAC LINETYPE
 72
    65
 73
     2
 40
6.925795053003583
 49
4.946996466431131
 49
-1.978798586572452
  0
LTYPE
  2
DASHED2
 70
     0
  3
CADPAC LINETYPE
 72
    65
 73
     2
 40
4.452296819787989
 49
2.968197879858678
 49
-1.484098939929311
  0
LTYPE
  2
DASHEDX2
 70
     0
  3
CADPAC LINETYPE
 72
    65
 73
     2
 40
11.87279151943466
 49
9.893992932862204
 49
-1.978798586572452
  0
LTYPE
  2
DOTX2
 70
     0
  3
CADPAC LINETYPE
 72
    65
 73
     2
 40
4.328621908127204
 49
0.0
 49
-4.328621908127204
  0
LTYPE
  2
DOT
 70
     0
  3
CADPAC LINETYPE
 72
    65
 73
     2
 40
3.462897526501763
 49
0.0
 49
-3.462897526501763
  0
LTYPE
  2
DOT2
 70
     0
  3
CADPAC LINETYPE
 72
    65
 73
     2
 40
2.597173144876322
 49
0.0
 49
-2.597173144876322
  0
LTYPE
  2
CENTERX2
 70
     0
  3
CADPAC LINETYPE
 72
    65
 73
     4
 40
14.84098939929339
 49
6.183745583038913
 49
-3.091872791519457
 49
2.473498233215565
 49
-3.091872791519457
  0
LTYPE
  2
CENTER
 70
     0
  3
CADPAC LINETYPE
 72
    65
 73
     4
 40
11.3780918727916
 49
4.946996466431131
 49
-2.473498233215565
 49
1.484098939929339
 49
-2.473498233215565
  0
LTYPE
  2
CENTER2
 70
     0
  3
CADPAC LINETYPE
 72
    65
 73
     4
 40
7.915194346289809
 49
3.710247349823348
 49
-1.855123674911674
 49
0.4946996466431131
 49
-1.855123674911674
  0
LTYPE
  2
DASHDOTX2
 70
     0
  3
CADPAC LINETYPE
 72
    65
 73
     4
 40
23.7455830388692
 49
11.87279151943466
 49
-3.957597173144848
 49
3.957597173144848
 49
-3.957597173144848
  0
LTYPE
  2
DASHDOT
 70
     0
  3
CADPAC LINETYPE
 72
    65
 73
     4
 40
11.87279151943466
 49
5.9363957597173
 49
-1.978798586572452
 49
1.978798586572452
 49
-1.978798586572452
  0
LTYPE
  2
DASHDOT2
 70
     0
  3
CADPAC LINETYPE
 72
    65
 73
     4
 40
7.618374558303898
 49
4.452296819787975
 49
-1.484098939929339
 49
0.1978798586572452
 49
-1.484098939929339
  0
LTYPE
  2
DIVIDEX2
 70
     0
  3
CADPAC LINETYPE
 72
    65
 73
     6
 40
31.6607773851589
 49
11.87279151943466
 49
-3.957597173144848
 49
3.957597173144848
 49
-3.957597173144848
 49
3.957597173144848
 49
-3.957597173144848
  0
LTYPE
  2
DIVIDE
 70
     0
  3
CADPAC LINETYPE
 72
    65
 73
     6
 40
15.83038869257956
 49
5.9363957597173
 49
-1.978798586572452
 49
1.978798586572452
 49
-1.978798586572452
 49
1.978798586572452
 49
-1.978798586572452
  0
LTYPE
  2
DIVIDE2
 70
     0
  3
CADPAC LINETYPE
 72
    65
 73
     6
 40
11.87279151943467
 49
4.452296819787975
 49
-1.484098939929339
 49
1.484098939929339
 49
-1.484098939929339
 49
1.484098939929339
 49
-1.484098939929339
  0
LTYPE
  2
BORDERX2
 70
     0
  3
CADPAC LINETYPE
 72
    65
 73
     6
 40
21.6431095406362
 49
6.183745583038913
 49
-3.091872791519457
 49
6.183745583038913
 49
-3.091872791519457
 49
0.0
 49
-3.091872791519457
  0
LTYPE
  2
BORDER
 70
     0
  3
CADPAC LINETYPE
 72
    65
 73
     6
 40
17.31448763250896
 49
4.946996466431131
 49
-2.473498233215565
 49
4.946996466431131
 49
-2.473498233215565
 49
0.0
 49
-2.473498233215565
  0
LTYPE
  2
BORDER2
 70
     0
  3
CADPAC LINETYPE
 72
    65
 73
     6
 40
12.86219081272091
 49
3.957597173144848
 49
-2.473498233215594
 49
1.484098939929311
 49
-2.473498233215594
 49
0.0
 49
-2.473498233215565
  0
LTYPE
  2
PHANTOMX2
 70
     0
  3
CADPAC LINETYPE
 72
    65
 73
     6
 40
18.55123674911674
 49
6.183745583038913
 49
-2.473498233215565
 49
2.473498233215565
 49
-2.473498233215565
 49
2.473498233215565
 49
-2.473498233215565
  0
LTYPE
  2
PHANTOM
 70
     0
  3
CADPAC LINETYPE
 72
    65
 73
     6
 40
15.33568904593651
 49
4.946996466431131
 49
-2.473498233215565
 49
1.484098939929339
 49
-2.473498233215565
 49
1.484098939929339
 49
-2.473498233215565
  0
LTYPE
  2
PHANTOM2
 70
     0
  3
CADPAC LINETYPE
 72
    65
 73
     6
 40
13.1095406360425
 49
3.710247349823348
 49
-2.473498233215565
 49
0.9893992932862261
 49
-2.473498233215565
 49
0.9893992932862261
 49
-2.473498233215565
  0
LTYPE
  2
ACAD_ISO06W100
 70
     0
  3
CADPAC LINETYPE
 72
    65
 73
     8
 40
26.21908127208496
 49
11.87279151943466
 49
-2.473498233215594
 49
1.484098939929311
 49
-2.473498233215594
 49
1.484098939929311
 49
-2.473498233215594
 49
1.484098939929311
 49
-2.473498233215594
  0
LTYPE
  2
ACAD_ISO13W100
 70
     0
  3
CADPAC LINETYPE
 72
    65
 73
     8
 40
19.78798586572452
 49
4.946996466431131
 49
-2.473498233215565
 49
4.946996466431131
 49
-2.473498233215565
 49
0.0
 49
-2.473498233215565
 49
0.0
 49
-2.473498233215565
  0
LTYPE
  2
ACAD_ISO14W100
 70
     0
  3
CADPAC LINETYPE
 72
    65
 73
     8
 40
14.84098939929339
 49
4.946996466431131
 49
-2.473498233215565
 49
0.0
 49
-2.473498233215565
 49
0.0
 49
-2.473498233215565
 49
0.0
 49
-2.473498233215565
  0
ENDTAB
  0
TABLE
  2
LAYER
 70
     3
  0
LAYER
  2
0
 70
     0
 62
     7
  6
CONTINUOUS
  0
LAYER
  2
LAYER0014
 70
     0
 62
     7
  6
CONTINUOUS
  0
LAYER
  2
ZUWAKU
 70
     0
 62
     7
  6
CONTINUOUS
  0
ENDTAB
  0
TABLE
  2
STYLE
 70
     5
  0
STYLE
  2
STANDARD
 70
     0
 40
0.0
 41
1.0
 50
0.0
 71
     0
 42
0.2
  3
txt
  4

  0
STYLE
  2
FDASTYLE1
 70
     0
 40
0.0
 41
0.7804878048780496
 50
0.0
 71
     0
 42
0.2
  3
txt.shx
  4
bigfont
  0
STYLE
  2
FDASTYLE0
 70
     4
 40
0.0
 41
0.8
 50
0.0
 71
     0
 42
0.2
  3
txt.shx
  4
bigfont
  0
STYLE
  2
FDASTYLE2
 70
     0
 40
0.0
 41
0.8123476848090983
 50
0.0
 71
     0
 42
0.2
  3
MSMINCHO.TTC
  4

  0
STYLE
  2
FDASTYLE3
 70
     0
 40
0.0
 41
0.77
 50
0.0
 71
     0
 42
0.2
  3
MSGOTHIC.TTC
  4

  0
ENDTAB
  0
TABLE
  2
VIEW
 70
     0
  0
ENDTAB
  0
TABLE
  2
UCS
 70
     0
  0
ENDTAB
  0
TABLE
  2
APPID
 70
     2
  0
APPID
  2
ACAD
 70
     0
  0
APPID
  2
DAFUSIONOUT
 70
     0
  0
ENDTAB
  0
TABLE
  2
DIMSTYLE
 70
     1
  0
DIMSTYLE
  2
STANDARD
 70
     0
  3

  4

  5

  6

  7

 40
1.0
 41
0.18
 42
0.0625
 43
0.38
 44
0.18
 45
0.0
 46
0.0
 47
0.0
 48
0.0
140
0.18
141
0.09
142
0.0
143
25.4
144
1.0
145
0.0
146
1.0
147
0.09
 71
     0
 72
     0
 73
     1
 74
     1
 75
     0
 76
     0
 77
     0
 78
     0
170
     0
171
     2
172
     0
173
     0
174
     0
175
     0
176
     0
177
     0
178
     0
  0
ENDTAB
  0
ENDSEC
  0
SECTION
  2
BLOCKS
  0
BLOCK
  8
0
  2
$MODEL_SPACE
 70
     0
 10
0.0
 20
0.0
 30
0.0
  3
$MODEL_SPACE
  1

  0
ENDBLK
  5
21
  8
0
  0
BLOCK
 67
     1
  8
0
  2
$PAPER_SPACE
 70
     0
 10
0.0
 20
0.0
 30
0.0
  3
$PAPER_SPACE
  1

  0
ENDBLK
  5
1D
 67
     1
  8
0
  0
BLOCK
  8
0
  2
DA_IMAGEDIMGROUP_1
 70
     0
 10
0.0
 20
0.0
 30
0.0
  3
DA_IMAGEDIMGROUP_1
  1

  0
LINE
  5
C7
  8
LAYER0014
  6
CONTINUOUS
 62
     7
 10
-149.2834260202509
 20
70.88030820841757
 30
0.0
 11
-198.8853632761102
 21
70.88030820841757
 31
0.0
  0
LINE
  5
C8
  8
LAYER0014
  6
CONTINUOUS
 62
     7
 10
-149.2834260202509
 20
10.88030820841758
 30
0.0
 11
-198.8853632761102
 21
10.88030820841758
 31
0.0
  0
LINE
  5
C9
  8
LAYER0014
  6
CONTINUOUS
 62
     7
 10
-196.5993830515009
 20
70.88030820841757
 30
0.0
 11
-196.5993830515009
 21
10.88031011576621
 31
0.0
  0
INSERT
  5
D0
  8
LAYER0014
 62
     7
  2
_OPEN30
 10
-196.5993830515009
 20
70.88030820841757
 30
0.0
 41
1.50000139391263
 42
1.499998500689492
 50
90.0
  0
INSERT
  5
D1
  8
LAYER0014
 62
     7
  2
_OPEN30
 10
-196.5993830515009
 20
10.88031011576621
 30
0.0
 41
1.50000139391263
 42
1.499998500689492
 50
270.0
  0
TEXT
  5
D3
  8
LAYER0014
 62
     7
 10
-197.1217232545844
 20
28.0803286576018
 30
0.0
 40
4.0
  1
M60×P1.5
 50
89.90000000000001
 41
0.7804878048780496
  7
FDASTYLE1
 72
     5
 11
-197.0770428484174
 21
53.68028966658198
 31
0.0
  0
ENDBLK
  5
4E
  8
0
  0
BLOCK
  8
0
  2
DA_IMAGEDIMGROUP_2
 70
     0
 10
0.0
 20
0.0
 30
0.0
  3
DA_IMAGEDIMGROUP_2
  1

  0
LINE
  5
D4
  8
LAYER0014
  6
CONTINUOUS
 62
     7
 10
-158.3364655710321
 20
77.88030820841757
 30
0.0
 11
-213.983690912829
 21
77.88030820841757
 31
0.0
  0
LINE
  5
D5
  8
LAYER0014
  6
CONTINUOUS
 62
     7
 10
-157.2834260202509
 20
3.880308208417581
 30
0.0
 11
-213.983690912829
 21
3.880308208417581
 31
0.0
  0
LINE
  5
D6
  8
LAYER0014
  6
CONTINUOUS
 62
     7
 10
-211.6977106882196
 20
77.88030820841757
 30
0.0
 11
-211.6977106882196
 21
3.880310115766214
 31
0.0
  0
INSERT
  5
D7
  8
LAYER0014
 62
     7
  2
_OPEN30
 10
-211.6977106882196
 20
77.88030820841757
 30
0.0
 41
1.50000139391263
 42
1.499998500689492
 50
90.0
  0
INSERT
  5
D8
  8
LAYER0014
 62
     7
  2
_OPEN30
 10
-211.6977106882196
 20
3.880310115766214
 30
0.0
 41
1.50000139391263
 42
1.499998500689492
 50
270.0
  0
TEXT
  5
D9
  8
LAYER0014
 62
     7
 10
-212.2116733151468
 20
32.88032134678559
 30
0.0
 40
4.0
  1
φ74H7
 50
89.90000000000001
 41
0.7692307692307688
  7
FDASTYLE1
 72
     5
 11
-212.1837480612924
 21
48.88029697739819
 31
0.0
  0
ENDBLK
  5
51
  8
0
  0
BLOCK
  8
0
  2
DC_GROUP_1
 70
     0
 10
0.0
 20
0.0
 30
0.0
  3
DC_GROUP_1
  1

  0
LINE
  5
DA
  8
LAYER0014
  6
CONTINUOUS
 62
     7
 10
-54.49512914200255
 20
136.7288723911832
 30
0.0
 11
-25.52266309921112
 21
167.3335742982197
 31
0.0
  0
INSERT
  5
DB
  8
LAYER0014
 62
     7
  2
_OPEN30
 10
-54.49512914200255
 20
136.7288723911832
 30
0.0
 41
1.50000139391263
 42
1.499998500689492
 50
226.5693400896918
  0
LINE
  5
DC
  8
LAYER0014
  6
CONTINUOUS
 62
     7
 10
-25.52266376744325
 20
167.3335705375191
 30
0.0
 11
22.23192722071593
 21
167.3335705375191
 31
0.0
  0
TEXT
  5
DD
  8
LAYER0014
 62
     7
 10
-23.48235767613465
 20
168.9335705375191
 30
0.0
 40
4.0
  1
ｾﾚｰｼｮﾝP1.5山60ﾟ
 41
0.7887323943661972
  7
FDASTYLE1
 72
     5
 11
21.31764232386535
 21
168.9335705375191
 31
0.0
  0
ENDBLK
  5
54
  8
0
  0
BLOCK
  8
0
  2
DA_IMAGEDIMGROUP_3
 70
     0
 10
0.0
 20
0.0
 30
0.0
  3
DA_IMAGEDIMGROUP_3
  1

  0
LINE
  5
DE
  8
LAYER0014
  6
CONTINUOUS
 62
     7
 10
-54.20342602025087
 20
68.88030820841757
 30
0.0
 11
-14.25927608738954
 21
68.88030820841757
 31
0.0
  0
LINE
  5
DF
  8
LAYER0014
  6
CONTINUOUS
 62
     7
 10
-54.20342602025087
 20
12.88030820841758
 30
0.0
 11
-14.25927608738954
 21
12.88030820841758
 31
0.0
  0
LINE
  5
E0
  8
LAYER0014
  6
CONTINUOUS
 62
     7
 10
-16.54527538548524
 20
68.88030820841757
 30
0.0
 11
-16.54527538548524
 21
12.88031011576621
 31
0.0
  0
INSERT
  5
E1
  8
LAYER0014
 62
     7
  2
_OPEN30
 10
-16.54527538548524
 20
68.88030820841757
 30
0.0
 41
1.50000139391263
 42
1.499998500689492
 50
90.0
  0
INSERT
  5
E2
  8
LAYER0014
 62
     7
  2
_OPEN30
 10
-16.54527538548524
 20
12.88031011576621
 30
0.0
 41
1.50000139391263
 42
1.499998500689492
 50
270.0
  0
TEXT
  5
E3
  8
LAYER0014
 62
     7
 10
-17.05365296164155
 20
36.08031647290811
 30
0.0
 40
4.0
  1
φ56
 50
89.90000000000001
 41
0.7500000000000001
  7
FDASTYLE1
 72
     5
 11
-17.03689780932893
 21
45.68030185127567
 31
0.0
  0
ENDBLK
  5
57
  8
0
  0
BLOCK
  8
0
  2
DA_IMAGEDIMGROUP_4
 70
     0
 10
0.0
 20
0.0
 30
0.0
  3
DA_IMAGEDIMGROUP_4
  1

  0
LINE
  5
E4
  8
LAYER0014
  6
CONTINUOUS
 62
     7
 10
-54.20342602025087
 20
-7.119691791582419
 30
0.0
 11
0.8390525030035292
 21
-7.119691791582419
 31
0.0
  0
LINE
  5
E5
  8
LAYER0014
  6
CONTINUOUS
 62
     7
 10
-1.44694774876649
 20
-7.119689884233786
 30
0.0
 11
-1.44694774876649
 21
68.88030820841757
 31
0.0
  0
INSERT
  5
E6
  8
LAYER0014
 62
     7
  2
_OPEN30
 10
-1.44694774876649
 20
-7.119689884233786
 30
0.0
 41
1.50000139391263
 42
1.499998500689492
 50
270.0
  0
TEXT
  5
E7
  8
LAYER0014
 62
     7
 10
-1.94694774876649
 20
36.03796464620521
 30
0.0
 40
4.0
  1
φ96
 50
90.0
 41
0.7499999999999996
  7
FDASTYLE1
 72
     5
 11
-1.94694774876649
 21
45.63796464620521
 31
0.0
  0
ENDBLK
  5
5A
  8
0
  0
BLOCK
  8
0
  2
DA_IMAGEDIMGROUP_5
 70
     0
 10
0.0
 20
0.0
 30
0.0
  3
DA_IMAGEDIMGROUP_5
  1

  0
LINE
  5
E8
  8
LAYER0014
  6
CONTINUOUS
 62
     7
 10
2.129906995191029
 20
40.88030820841758
 30
0.0
 11
15.93737918604796
 21
40.88030820841758
 31
0.0
  0
LINE
  5
E9
  8
LAYER0014
  6
CONTINUOUS
 62
     7
 10
-52.20342602025087
 20
82.88030820841757
 30
0.0
 11
15.93737918604796
 21
82.88030820841757
 31
0.0
  0
LINE
  5
EA
  8
LAYER0014
  6
CONTINUOUS
 62
     7
 10
13.65137988795226
 20
40.88030820841758
 30
0.0
 11
13.65137988795226
 21
82.88030820841757
 31
0.0
  0
INSERT
  5
EB
  8
LAYER0014
 62
     7
  2
_OPEN30
 10
13.65137988795226
 20
40.88030820841758
 30
0.0
 41
1.50000139391263
 42
1.499998500689492
 50
270.0
  0
INSERT
  5
EC
  8
LAYER0014
 62
     7
  2
_OPEN30
 10
13.65137988795226
 20
82.88030820841757
 30
0.0
 41
1.50000139391263
 42
1.499998500689492
 50
90.0
  0
TEXT
  5
ED
  8
LAYER0014
 62
     7
 10
13.1318322102542
 20
51.999696002371
 30
0.0
 40
4.0
  1
MAX44.5
 50
89.90000000000001
 41
0.7999999999999999
  7
FDASTYLE1
 72
     5
 11
13.17092756565032
 21
74.39966188522864
 31
0.0
  0
ENDBLK
  5
5D
  8
0
  0
BLOCK
  8
0
  2
DA_IMAGEDIMGROUP_6
 70
     0
 10
0.0
 20
0.0
 30
0.0
  3
DA_IMAGEDIMGROUP_6
  1

  0
LINE
  5
EE
  8
LAYER0014
  6
CONTINUOUS
 62
     7
 10
-52.20342602025087
 20
140.8803082084176
 30
0.0
 11
15.93737918604796
 21
140.8803082084176
 31
0.0
  0
LINE
  5
EF
  8
LAYER0014
  6
CONTINUOUS
 62
     7
 10
13.65137988795226
 20
82.88030820841757
 30
0.0
 11
13.65137988795226
 21
140.8803082084176
 31
0.0
  0
INSERT
  5
F0
  8
LAYER0014
 62
     7
  2
_OPEN30
 10
13.65137988795226
 20
82.88030820841757
 30
0.0
 41
1.50000139391263
 42
1.499998500689492
 50
270.0
  0
INSERT
  5
F1
  8
LAYER0014
 62
     7
  2
_OPEN30
 10
13.65137988795226
 20
140.8803082084176
 30
0.0
 41
1.50000139391263
 42
1.499998500689492
 50
90.0
  0
TEXT
  5
F2
  8
LAYER0014
 62
     7
 10
13.14579483718138
 20
108.680313082295
 30
0.0
 40
4.0
  1
58
 50
89.90000000000001
 41
0.8000000000000007
  7
FDASTYLE1
 72
     5
 11
13.15696493872313
 21
115.0803033345401
 31
0.0
  0
ENDBLK
  5
60
  8
0
  0
BLOCK
  8
0
  2
DA_IMAGEDIMGROUP_7
 70
     0
 10
0.0
 20
0.0
 30
0.0
  3
DA_IMAGEDIMGROUP_7
  1

  0
LINE
  5
F3
  8
LAYER0014
  6
CONTINUOUS
 62
     7
 10
-170.7434260202509
 20
26.29948240275352
 30
0.0
 11
-156.7434260202509
 21
26.29948240275352
 31
0.0
  0
INSERT
  5
F4
  8
LAYER0014
 62
     7
  2
_OPEN30
 10
-170.7434260202509
 20
26.29948240275352
 30
0.0
 41
1.50000139391263
 42
1.499998500689492
 50
180.0
  0
INSERT
  5
F5
  8
LAYER0014
 62
     7
  2
_OPEN30
 10
-156.7434260202509
 20
26.29948240275352
 30
0.0
 41
1.50000139391263
 42
1.499998500689492
 50
360.0
  0
TEXT
  5
F6
  8
LAYER0014
 62
     7
 10
-166.9434260202509
 20
26.79948240275352
 30
0.0
 40
4.0
  1
14
 41
0.7999999999999972
  7
FDASTYLE1
 72
     5
 11
-160.5434260202509
 21
26.79948240275352
 31
0.0
  0
ENDBLK
  5
63
  8
0
  0
BLOCK
  8
0
  2
DA_IMAGEDIMGROUP_8
 70
     0
 10
0.0
 20
0.0
 30
0.0
  3
DA_IMAGEDIMGROUP_8
  1

  0
LINE
  5
F7
  8
LAYER0014
  6
CONTINUOUS
 62
     7
 10
-156.7434260202509
 20
26.29948240275352
 30
0.0
 11
-146.7434260202509
 21
26.29948240275352
 31
0.0
  0
INSERT
  5
F8
  8
LAYER0014
 62
     7
  2
_OPEN30
 10
-156.7434260202509
 20
26.29948240275352
 30
0.0
 41
1.50000139391263
 42
1.499998500689492
 50
180.0
  0
INSERT
  5
F9
  8
LAYER0014
 62
     7
  2
_OPEN30
 10
-146.7434260202509
 20
26.29948240275352
 30
0.0
 41
1.50000139391263
 42
1.499998500689492
 50
360.0
  0
TEXT
  5
FA
  8
LAYER0014
 62
     7
 10
-154.4071497606736
 20
26.79948240275352
 30
0.0
 40
4.0
  1
10
 41
0.7999999999999972
  7
FDASTYLE1
 72
     5
 11
-148.0071497606737
 21
26.79948240275352
 31
0.0
  0
ENDBLK
  5
66
  8
0
  0
BLOCK
  8
0
  2
DA_IMAGEDIMGROUP_9
 70
     0
 10
0.0
 20
0.0
 30
0.0
  3
DA_IMAGEDIMGROUP_9
  1

  0
LINE
  5
FB
  8
LAYER0014
  6
CONTINUOUS
 62
     7
 10
-146.7434260202509
 20
26.29948240275352
 30
0.0
 11
-121.7434260202509
 21
26.29948240275352
 31
0.0
  0
INSERT
  5
FC
  8
LAYER0014
 62
     7
  2
_OPEN30
 10
-146.7434260202509
 20
26.29948240275352
 30
0.0
 41
1.50000139391263
 42
1.499998500689492
 50
180.0
  0
INSERT
  5
FD
  8
LAYER0014
 62
     7
  2
_OPEN30
 10
-121.7434260202509
 20
26.29948240275352
 30
0.0
 41
1.50000139391263
 42
1.499998500689492
 50
360.0
  0
TEXT
  5
FE
  8
LAYER0014
 62
     7
 10
-137.4434260202509
 20
26.79948240275352
 30
0.0
 40
4.0
  1
25
 41
0.7999999999999972
  7
FDASTYLE1
 72
     5
 11
-131.0434260202509
 21
26.79948240275352
 31
0.0
  0
ENDBLK
  5
69
  8
0
  0
BLOCK
  8
0
  2
DA_IMAGEDIMGROUP_10
 70
     0
 10
0.0
 20
0.0
 30
0.0
  3
DA_IMAGEDIMGROUP_10
  1

  0
LINE
  5
FF
  8
LAYER0014
  6
CONTINUOUS
 62
     7
 10
-121.7434260202509
 20
26.29948240275352
 30
0.0
 11
-66.74342602025087
 21
26.29948240275352
 31
0.0
  0
INSERT
  5
100
  8
LAYER0014
 62
     7
  2
_OPEN30
 10
-121.7434260202509
 20
26.29948240275352
 30
0.0
 41
1.50000139391263
 42
1.499998500689492
 50
180.0
  0
INSERT
  5
101
  8
LAYER0014
 62
     7
  2
_OPEN30
 10
-66.74342602025087
 20
26.29948240275352
 30
0.0
 41
1.50000139391263
 42
1.499998500689492
 50
360.0
  0
TEXT
  5
102
  8
LAYER0014
 62
     7
 10
-97.44342602025087
 20
26.79948240275352
 30
0.0
 40
4.0
  1
55
 41
0.8000000000000007
  7
FDASTYLE1
 72
     5
 11
-91.04342602025086
 21
26.79948240275352
 31
0.0
  0
ENDBLK
  5
6C
  8
0
  0
BLOCK
  8
0
  2
DA_IMAGEDIMGROUP_11
 70
     0
 10
0.0
 20
0.0
 30
0.0
  3
DA_IMAGEDIMGROUP_11
  1

  0
LINE
  5
103
  8
LAYER0014
  6
CONTINUOUS
 62
     7
 10
-66.74342602025087
 20
26.29948240275352
 30
0.0
 11
-56.74342602025087
 21
26.29948240275352
 31
0.0
  0
INSERT
  5
104
  8
LAYER0014
 62
     7
  2
_OPEN30
 10
-66.74342602025087
 20
26.29948240275352
 30
0.0
 41
1.50000139391263
 42
1.499998500689492
 50
180.0
  0
INSERT
  5
105
  8
LAYER0014
 62
     7
  2
_OPEN30
 10
-56.74342602025087
 20
26.29948240275352
 30
0.0
 41
1.50000139391263
 42
1.499998500689492
 50
360.0
  0
TEXT
  5
106
  8
LAYER0014
 62
     7
 10
-64.94342602025087
 20
26.79948240275352
 30
0.0
 40
4.0
  1
10
 41
0.8000000000000007
  7
FDASTYLE1
 72
     5
 11
-58.54342602025086
 21
26.79948240275352
 31
0.0
  0
ENDBLK
  5
6F
  8
0
  0
BLOCK
  8
0
  2
DA_IMAGEDIMGROUP_12
 70
     0
 10
0.0
 20
0.0
 30
0.0
  3
DA_IMAGEDIMGROUP_12
  1

  0
LINE
  5
107
  8
LAYER0014
  6
CONTINUOUS
 62
     7
 10
-56.74342602025087
 20
-62.15969179158242
 30
0.0
 11
-56.74342602025087
 21
-111.7390307808402
 31
0.0
  0
LINE
  5
108
  8
LAYER0014
  6
CONTINUOUS
 62
     7
 10
-171.7434260202509
 20
-64.15969179158242
 30
0.0
 11
-171.7434260202509
 21
-111.7390307808402
 31
0.0
  0
LINE
  5
109
  8
LAYER0014
  6
CONTINUOUS
 62
     7
 10
-56.74342602025087
 20
-109.4530276680473
 30
0.0
 11
-171.7434260202509
 21
-109.4530276680473
 31
0.0
  0
INSERT
  5
10A
  8
LAYER0014
 62
     7
  2
_OPEN30
 10
-56.74342602025087
 20
-109.4530276680473
 30
0.0
 41
1.50000139391263
 42
1.499998500689492
 50
360.0
  0
INSERT
  5
10B
  8
LAYER0014
 62
     7
  2
_OPEN30
 10
-171.7434260202509
 20
-109.4530276680473
 30
0.0
 41
1.50000139391263
 42
1.499998500689492
 50
180.0
  0
TEXT
  5
10C
  8
LAYER0014
 62
     7
 10
-119.0434260202509
 20
-108.9530276680473
 30
0.0
 40
4.0
  1
115
 41
0.7999999999999995
  7
FDASTYLE1
 72
     5
 11
-109.4434260202509
 21
-108.9530276680473
 31
0.0
  0
ENDBLK
  5
72
  8
0
  0
BLOCK
  8
0
  2
DA_IMAGEDIMGROUP_13
 70
     0
 10
0.0
 20
0.0
 30
0.0
  3
DA_IMAGEDIMGROUP_13
  1

  0
LINE
  5
10D
  8
LAYER0014
  6
CONTINUOUS
 62
     7
 10
-146.7434260202509
 20
79.9203082084176
 30
0.0
 11
-146.7434260202509
 21
170.0276775931832
 31
0.0
  0
LINE
  5
10E
  8
LAYER0014
  6
CONTINUOUS
 62
     7
 10
-170.7434260202509
 20
135.9203082084176
 30
0.0
 11
-170.7434260202509
 21
170.0276775931832
 31
0.0
  0
LINE
  5
10F
  8
LAYER0014
  6
CONTINUOUS
 62
     7
 10
-146.7434260202509
 20
167.7416668509957
 30
0.0
 11
-170.7434260202509
 21
167.7416668509957
 31
0.0
  0
INSERT
  5
110
  8
LAYER0014
 62
     7
  2
_OPEN30
 10
-146.7434260202509
 20
167.7416668509957
 30
0.0
 41
1.50000139391263
 42
1.499998500689492
 50
360.0
  0
INSERT
  5
111
  8
LAYER0014
 62
     7
  2
_OPEN30
 10
-170.7434260202509
 20
167.7416668509957
 30
0.0
 41
1.50000139391263
 42
1.499998500689492
 50
180.0
  0
TEXT
  5
112
  8
LAYER0014
 62
     7
 10
-168.3434260202509
 20
168.2416668509957
 30
0.0
 40
4.0
  1
MAX 34
 41
0.7999999999999995
  7
FDASTYLE1
 72
     5
 11
-149.1434260202509
 21
168.2416668509957
 31
0.0
  0
ENDBLK
  5
75
  8
0
  0
BLOCK
  8
0
  2
DC_GROUP_2
 70
     0
 10
0.0
 20
0.0
 30
0.0
  3
DC_GROUP_2
  1

  0
LINE
  5
113
  8
LAYER0014
  6
CONTINUOUS
 62
     7
 10
-36.37273969914583
 20
128.89802886547
 30
0.0
 11
-16.98237280009295
 21
152.46734685561
 31
0.0
  0
INSERT
  5
114
  8
LAYER0014
 62
     7
  2
_OPEN30
 10
-36.37273969914583
 20
128.89802886547
 30
0.0
 41
1.50000139391263
 42
1.499998500689492
 50
230.5560297256653
  0
LINE
  5
115
  8
LAYER0014
  6
CONTINUOUS
 62
     7
 10
-16.98237484227235
 20
152.4673443412301
 30
0.0
 11
-5.552704508410045
 21
152.4673443412301
 31
0.0
  0
TEXT
  5
116
  8
LAYER0014
 62
     7
 10
-16.48089855443055
 20
154.0673443412301
 30
0.0
 40
4.0
  1
M12
 41
0.8000000000000002
  7
FDASTYLE1
 72
     5
 11
-6.880898554430551
 21
154.0673443412301
 31
0.0
  0
ENDBLK
  5
78
  8
0
  0
BLOCK
  8
0
  2
DA_IMAGEDIMGROUP_14
 70
     0
 10
0.0
 20
0.0
 30
0.0
  3
DA_IMAGEDIMGROUP_14
  1

  0
LINE
  5
117
  8
LAYER0014
  6
CONTINUOUS
 62
     7
 10
-170.7434260202509
 20
-97.45302766804727
 30
0.0
 11
-56.74342602025087
 21
-97.45302766804727
 31
0.0
  0
INSERT
  5
118
  8
LAYER0014
 62
     7
  2
_OPEN30
 10
-170.7434260202509
 20
-97.45302766804727
 30
0.0
 41
1.50000139391263
 42
1.499998500689492
 50
180.0
  0
INSERT
  5
119
  8
LAYER0014
 62
     7
  2
_OPEN30
 10
-56.74342602025087
 20
-97.45302766804727
 30
0.0
 41
1.50000139391263
 42
1.499998500689492
 50
360.0
  0
TEXT
  5
11A
  8
LAYER0014
 62
     7
 10
-118.5434187094347
 20
-96.94465009189095
 30
0.0
 40
4.0
  1
114
 50
-0.1000000000000078
 41
0.8000000000000002
  7
FDASTYLE1
 72
     5
 11
-108.9434333310671
 21
-96.96140524420358
 31
0.0
  0
ENDBLK
  5
7B
  8
0
  0
BLOCK
  8
0
  2
DC_GROUP_3
 70
     0
 10
0.0
 20
0.0
 30
0.0
  3
DC_GROUP_3
  1

  0
LINE
  5
11B
  8
LAYER0014
  6
CONTINUOUS
 62
     7
 10
-121.2095203287291
 20
-61.95057281076353
 30
0.0
 11
-109.1062799028269
 21
-73.68705324745881
 31
0.0
  0
INSERT
  5
11C
  8
LAYER0014
 62
     7
  2
_OPEN30
 10
-121.2095203287291
 20
-61.95057281076353
 30
0.0
 41
1.50000139391263
 42
1.499998500689492
 50
135.8813921095632
  0
LINE
  5
11D
  8
LAYER0014
  6
CONTINUOUS
 62
     7
 10
-109.1062800241571
 20
-73.68705171589883
 30
0.0
 11
-91.77233242577412
 21
-73.68705171589883
 31
0.0
  0
TEXT
  5
11E
  8
LAYER0014
 62
     7
 10
-108.7395121408563
 20
-72.08705171589884
 30
0.0
 40
4.0
  1
M8×16
 41
0.7692307692307692
  7
FDASTYLE1
 72
     5
 11
-92.73951214085633
 21
-72.08705171589884
 31
0.0
  0
ENDBLK
  5
7E
  8
0
  0
BLOCK
  8
0
  2
DA_IMAGEDIMGROUP_15
 70
     0
 10
0.0
 20
0.0
 30
0.0
  3
DA_IMAGEDIMGROUP_15
  1

  0
LINE
  5
11F
  8
0
  6
CONTINUOUS
 62
     7
 10
-121.7434260202509
 20
-65.3271253010317
 30
0.0
 11
-121.7434260202509
 21
-87.12765985684048
 31
0.0
  0
LINE
  5
120
  8
0
  6
CONTINUOUS
 62
     7
 10
-56.74342602025087
 20
-60.61969179158243
 30
0.0
 11
-56.74342602025087
 21
-87.12765985684048
 31
0.0
  0
LINE
  5
121
  8
0
  6
CONTINUOUS
 62
     7
 10
-121.7434260202509
 20
-86.12765985684048
 30
0.0
 11
-56.74342602025087
 21
-86.12765985684048
 31
0.0
  0
INSERT
  5
122
  8
0
 62
     7
  2
_OPEN30
 10
-121.7434260202509
 20
-86.12765985684048
 30
0.0
 41
1.50000139391263
 42
1.499998500689492
 50
180.0
  0
INSERT
  5
123
  8
0
 62
     7
  2
_OPEN30
 10
-56.74342602025087
 20
-86.12765985684048
 30
0.0
 41
1.50000139391263
 42
1.499998500689492
 50
360.0
  0
TEXT
  5
124
  8
0
 62
     7
 10
-92.44342602025087
 20
-85.62765985684048
 30
0.0
 40
4.0
  1
65
 41
0.8000000000000007
  7
FDASTYLE1
 72
     5
 11
-86.04342602025086
 21
-85.62765985684048
 31
0.0
  0
ENDBLK
  5
81
  8
0
  0
BLOCK
  8
0
  2
DA_IMAGEDIMGROUP_16
 70
     0
 10
0.0
 20
0.0
 30
0.0
  3
DA_IMAGEDIMGROUP_16
  1

  0
LINE
  5
125
  8
0
  6
CONTINUOUS
 62
     7
 10
-65.74342602025087
 20
15.88030820841758
 30
0.0
 11
-30.90900889073054
 21
15.88030820841758
 31
0.0
  0
LINE
  5
126
  8
0
  6
CONTINUOUS
 62
     7
 10
-65.74342602025087
 20
65.88030820841757
 30
0.0
 11
-30.90900889073054
 21
65.88030820841757
 31
0.0
  0
LINE
  5
127
  8
0
  6
CONTINUOUS
 62
     7
 10
-31.90900889073054
 20
15.88030820841758
 30
0.0
 11
-31.90900889073054
 21
65.88030820841757
 31
0.0
  0
INSERT
  5
128
  8
0
 62
     7
  2
_OPEN30
 10
-31.90900889073054
 20
15.88030820841758
 30
0.0
 41
1.50000139391263
 42
1.499998500689492
 50
270.0
  0
INSERT
  5
129
  8
0
 62
     7
  2
_OPEN30
 10
-31.90900889073054
 20
65.88030820841757
 30
0.0
 41
1.50000139391263
 42
1.499998500689492
 50
90.0
  0
TEXT
  5
12A
  8
0
 62
     7
 10
-32.40900889073055
 20
33.14913074173122
 30
0.0
 40
4.0
  1
φ50
 50
90.0
 41
0.7500000000000001
  7
FDASTYLE1
 72
     5
 11
-32.40900889073055
 21
42.74913074173122
 31
0.0
  0
TEXT
  5
12B
  8
0
 62
     7
 10
-34.90900889073055
 20
43.24913074173122
 30
0.0
 40
2.6
  1
+0.3
 50
90.0
 41
0.8
  7
FDASTYLE1
 72
     5
 11
-34.90900889073055
 21
51.56913074173122
 31
0.0
  0
TEXT
  5
12C
  8
0
 62
     7
 10
-32.20900889073054
 20
43.24913074173122
 30
0.0
 40
2.6
  1
　0
 50
90.0
 41
0.7272727272727266
  7
FDASTYLE1
 72
     5
 11
-32.20900889073054
 21
47.40913074173122
 31
0.0
  0
ENDBLK
  5
84
  8
0
  0
BLOCK
  8
0
  2
DA_IMAGEDIMGROUP_17
 70
     0
 10
0.0
 20
0.0
 30
0.0
  3
DA_IMAGEDIMGROUP_17
  1

  0
LINE
  5
12D
  8
0
  6
CONTINUOUS
 62
     7
 10
-75.04342907200868
 20
89.38031278605429
 30
0.0
 11
-91.81539933150579
 21
89.38031278605429
 31
0.0
  0
LINE
  5
12E
  8
0
  6
CONTINUOUS
 62
     7
 10
-75.04342907200868
 20
133.3803204154488
 30
0.0
 11
-91.81539933150579
 21
133.3803204154488
 31
0.0
  0
LINE
  5
12F
  8
0
  6
CONTINUOUS
 62
     7
 10
-90.81539933150579
 20
89.38031278605429
 30
0.0
 11
-90.81539933150579
 21
133.3803204154488
 31
0.0
  0
INSERT
  5
130
  8
0
 62
     7
  2
_OPEN30
 10
-90.81539933150579
 20
89.38031278605429
 30
0.0
 41
1.50000139391263
 42
1.499998500689492
 50
270.0
  0
INSERT
  5
131
  8
0
 62
     7
  2
_OPEN30
 10
-90.81539933150579
 20
133.3803204154488
 30
0.0
 41
1.50000139391263
 42
1.499998500689492
 50
90.0
  0
TEXT
  5
132
  8
0
 62
     7
 10
-91.31539933150579
 20
108.1803166007516
 30
0.0
 40
4.0
  1
44
 50
90.0
 41
0.8000000000000007
  7
FDASTYLE1
 72
     5
 11
-91.31539933150579
 21
114.5803166007516
 31
0.0
  0
ENDBLK
  5
87
  8
0
  0
BLOCK
  8
0
  2
DA_IMAGEDIMGROUP_18
 70
     0
 10
0.0
 20
0.0
 30
0.0
  3
DA_IMAGEDIMGROUP_18
  1

  0
LINE
  5
133
  8
0
  6
CONTINUOUS
 62
     7
 10
-53.74342602025087
 20
82.88030820841757
 30
0.0
 11
-0.4469477487664904
 21
82.88030820841757
 31
0.0
  0
LINE
  5
134
  8
0
  6
CONTINUOUS
 62
     7
 10
-21.94749325047548
 20
98.88031278605429
 30
0.0
 11
-0.4469477487664904
 21
98.88031278605429
 31
0.0
  0
LINE
  5
135
  8
0
  6
CONTINUOUS
 62
     7
 10
-21.94749325047548
 20
123.8803127860543
 30
0.0
 11
-0.4469477487664904
 21
123.8803127860543
 31
0.0
  0
LINE
  5
136
  8
0
  6
CONTINUOUS
 62
     7
 10
-1.44694774876649
 20
82.88030820841757
 30
0.0
 11
-1.44694774876649
 21
98.88031278605429
 31
0.0
  0
INSERT
  5
137
  8
0
 62
     7
  2
_OPEN30
 10
-1.44694774876649
 20
82.88030820841757
 30
0.0
 41
1.50000139391263
 42
1.499998500689492
 50
270.0
  0
INSERT
  5
138
  8
0
 62
     7
  2
_OPEN30
 10
-1.44694774876649
 20
98.88031278605429
 30
0.0
 41
1.50000139391263
 42
1.499998500689492
 50
90.0
  0
LINE
  5
139
  8
0
  6
CONTINUOUS
 62
     7
 10
-1.44694774876649
 20
98.88031278605429
 30
0.0
 11
-1.44694774876649
 21
123.8803127860543
 31
0.0
  0
INSERT
  5
13A
  8
0
 62
     7
  2
_OPEN30
 10
-1.44694774876649
 20
98.88031278605429
 30
0.0
 41
1.50000139391263
 42
1.499998500689492
 50
270.0
  0
INSERT
  5
13B
  8
0
 62
     7
  2
_OPEN30
 10
-1.44694774876649
 20
123.8803127860543
 30
0.0
 41
1.50000139391263
 42
1.499998500689492
 50
90.0
  0
TEXT
  5
13C
  8
0
 62
     7
 10
-1.94694774876649
 20
84.48031049723593
 30
0.0
 40
4.0
  1
15.5
 50
90.0
 41
0.8000000000000007
  7
FDASTYLE1
 72
     5
 11
-1.94694774876649
 21
97.28031049723595
 31
0.0
  0
TEXT
  5
13D
  8
0
 62
     7
 10
-1.94694774876649
 20
108.1803127860543
 30
0.0
 40
4.0
  1
25
 50
90.0
 41
0.8000000000000007
  7
FDASTYLE1
 72
     5
 11
-1.94694774876649
 21
114.5803127860543
 31
0.0
  0
ENDBLK
  5
8A
  8
0
  0
BLOCK
  8
0
  2
DA_IMAGEDIMGROUP_19
 70
     0
 10
0.0
 20
0.0
 30
0.0
  3
DA_IMAGEDIMGROUP_19
  1

  0
LINE
  5
13E
  8
LAYER0014
  6
CONTINUOUS
 62
     7
 10
-174.2834260202509
 20
133.380300579023
 30
0.0
 11
-248.9934260202509
 21
133.380300579023
 31
0.0
  0
LINE
  5
13F
  8
LAYER0014
  6
CONTINUOUS
 62
     7
 10
-174.2834260202509
 20
-51.61969942097695
 30
0.0
 11
-248.9934260202509
 21
-51.61969942097695
 31
0.0
  0
LINE
  5
140
  8
LAYER0014
  6
CONTINUOUS
 62
     7
 10
-247.9934260202509
 20
133.380300579023
 30
0.0
 11
-247.9934260202509
 21
-51.61969179158242
 31
0.0
  0
INSERT
  5
141
  8
LAYER0014
 62
     7
  2
_OPEN30
 10
-247.9934260202509
 20
133.380300579023
 30
0.0
 41
1.50000139391263
 42
1.499998500689492
 50
90.0
  0
INSERT
  5
142
  8
LAYER0014
 62
     7
  2
_OPEN30
 10
-247.9934260202509
 20
-51.61969179158242
 30
0.0
 41
1.50000139391263
 42
1.499998500689492
 50
270.0
  0
TEXT
  5
143
  8
LAYER0014
 62
     7
 10
-248.9934260202509
 20
35.61959867315733
 30
0.0
 40
4.0
  1
φ185
 50
90.0
 41
0.7619047619047625
  7
FDASTYLE1
 72
     5
 11
-248.9934260202509
 21
48.41959867315735
 31
0.0
  0
ENDBLK
  5
8D
  8
0
  0
BLOCK
  8
0
  2
DA_IMAGEDIMGROUP_20
 70
     0
 10
0.0
 20
0.0
 30
0.0
  3
DA_IMAGEDIMGROUP_20
  1

  0
LINE
  5
144
  8
LAYER0014
  6
CONTINUOUS
 62
     7
 10
-177.334237787829
 20
107.5803051566598
 30
0.0
 11
-239.9934260202509
 21
107.5803051566598
 31
0.0
  0
LINE
  5
145
  8
LAYER0014
  6
CONTINUOUS
 62
     7
 10
-238.9934260202509
 20
107.5803051566598
 30
0.0
 11
-238.9934260202509
 21
-1.52906028256583
 31
0.0
  0
INSERT
  5
146
  8
LAYER0014
 62
     7
  2
_OPEN30
 10
-238.9934260202509
 20
107.5803051566598
 30
0.0
 41
1.50000139391263
 42
1.499998500689492
 50
90.0
  0
LINE
  5
147
  8
LAYER0014
  6
CONTINUOUS
 62
     7
 10
-157.2834260202509
 20
3.880308208417581
 30
0.0
 11
-213.7299230429372
 21
3.880308208417581
 31
0.0
  0
TEXT
  5
148
  8
LAYER0014
 62
     7
 10
-239.9934260202509
 20
34.30071010950513
 30
0.0
 40
4.0
  1
PCD133.4
 50
90.0
 41
0.8000000000000007
  7
FDASTYLE1
 72
     5
 11
-239.9934260202509
 21
59.90071010950515
 31
0.0
  0
ENDBLK
  5
90
  8
0
  0
BLOCK
  8
0
  2
DA_IMAGEDIMGROUP_21
 70
     0
 10
0.0
 20
0.0
 30
0.0
  3
DA_IMAGEDIMGROUP_21
  1

  0
LINE
  5
149
  8
LAYER0014
  6
CONTINUOUS
 62
     7
 10
-173.2834260202509
 20
94.06030088419882
 30
0.0
 11
-221.9934260202509
 21
94.06030088419882
 31
0.0
  0
LINE
  5
14A
  8
LAYER0014
  6
CONTINUOUS
 62
     7
 10
-173.2834260202509
 20
-12.29969018940957
 30
0.0
 11
-221.9934260202509
 21
-12.29969018940957
 31
0.0
  0
LINE
  5
14B
  8
LAYER0014
  6
CONTINUOUS
 62
     7
 10
-220.9934260202509
 20
94.06030088419882
 30
0.0
 11
-220.9934260202509
 21
-12.29969018940957
 31
0.0
  0
INSERT
  5
14C
  8
LAYER0014
 62
     7
  2
_OPEN30
 10
-220.9934260202509
 20
94.06030088419882
 30
0.0
 41
1.50000139391263
 42
1.499998500689492
 50
90.0
  0
INSERT
  5
14D
  8
LAYER0014
 62
     7
  2
_OPEN30
 10
-220.9934260202509
 20
-12.29969018940957
 30
0.0
 41
1.50000139391263
 42
1.499998500689492
 50
270.0
  0
TEXT
  5
14E
  8
LAYER0014
 62
     7
 10
-222.5934260202509
 20
13.6803043937203
 30
0.0
 40
4.0
  1
φ106.375（A2-6テ－パ）
 50
90.0
 41
0.7472527472527477
  7
FDASTYLE1
 72
     5
 11
-222.5934260202509
 21
68.08030439372033
 31
0.0
  0
ENDBLK
  5
93
  8
0
  0
BLOCK
  8
0
  2
DA_IMAGEDIMGROUP_22
 70
     0
 10
0.0
 20
0.0
 30
0.0
  3
DA_IMAGEDIMGROUP_22
  1

  0
LINE
  5
14F
  8
LAYER0014
  6
CONTINUOUS
 62
     7
 10
-172.901165656521
 20
-61.61969942097695
 30
0.0
 11
-257.9934260202509
 21
-61.61969942097695
 31
0.0
  0
LINE
  5
150
  8
LAYER0014
  6
CONTINUOUS
 62
     7
 10
-174.2834260202509
 20
143.380300579023
 30
0.0
 11
-257.9934260202509
 21
143.380300579023
 31
0.0
  0
LINE
  5
151
  8
LAYER0014
  6
CONTINUOUS
 62
     7
 10
-256.9934260202509
 20
-61.61969179158242
 30
0.0
 11
-256.9934260202509
 21
143.380300579023
 31
0.0
  0
INSERT
  5
152
  8
LAYER0014
 62
     7
  2
_OPEN30
 10
-256.9934260202509
 20
-61.61969179158242
 30
0.0
 41
1.50000139391263
 42
1.499998500689492
 50
270.0
  0
INSERT
  5
153
  8
LAYER0014
 62
     7
  2
_OPEN30
 10
-256.9934260202509
 20
143.380300579023
 30
0.0
 41
1.50000139391263
 42
1.499998500689492
 50
90.0
  0
TEXT
  5
154
  8
LAYER0014
 62
     7
 10
-257.9934260202509
 20
35.76074065750036
 30
0.0
 40
4.0
  1
φ205
 50
90.0
 41
0.7619047619047609
  7
FDASTYLE1
 72
     5
 11
-257.9934260202509
 21
48.56074065750035
 31
0.0
  0
ENDBLK
  5
96
  8
0
  0
BLOCK
  8
0
  2
DA_IMAGEDIMGROUP_23
 70
     0
 10
0.0
 20
0.0
 30
0.0
  3
DA_IMAGEDIMGROUP_23
  1

  0
LINE
  5
155
  8
0
  6
CONTINUOUS
 62
     9
 10
-171.7434260202509
 20
97.85030179972617
 30
0.0
 11
-230.9084064628092
 21
97.85030179972617
 31
0.0
  0
LINE
  5
156
  8
0
  6
CONTINUOUS
 62
     9
 10
-171.7434260202509
 20
117.3103085135934
 30
0.0
 11
-230.9084064628092
 21
117.3103085135934
 31
0.0
  0
LINE
  5
157
  8
0
  6
CONTINUOUS
 62
     9
 10
-229.9084064628092
 20
97.85030179972617
 30
0.0
 11
-229.9084064628092
 21
117.3103085135934
 31
0.0
  0
LINE
  5
158
  8
0
  6
CONTINUOUS
 62
     9
 10
-229.9084064628092
 20
66.67845179972616
 30
0.0
 11
-229.9084064628092
 21
97.85030179972617
 31
0.0
  0
INSERT
  5
159
  8
0
 62
     9
  2
_OPEN30
 10
-229.9084064628092
 20
97.85030179972617
 30
0.0
 41
1.50000139391263
 42
1.499998500689492
 50
90.0
  0
LINE
  5
15A
  8
0
  6
CONTINUOUS
 62
     9
 10
-229.9084064628092
 20
122.3103085135934
 30
0.0
 11
-229.9084064628092
 21
117.3103085135934
 31
0.0
  0
INSERT
  5
15B
  8
0
 62
     9
  2
_OPEN30
 10
-229.9084064628092
 20
117.3103085135934
 30
0.0
 41
1.50000139391263
 42
1.499998500689492
 50
270.0
  0
TEXT
  5
15C
  8
0
 62
     7
 10
-230.9084064628092
 20
67.67845179972616
 30
0.0
 40
4.0
  1
φ19.46
 50
90.0
 41
0.7741935483870974
  7
FDASTYLE1
 72
     5
 11
-230.9084064628092
 21
86.87845179972618
 31
0.0
  0
TEXT
  5
15D
  8
0
 62
     7
 10
-233.1084064628092
 20
87.87845179972618
 30
0.0
 40
2.2
  1
+0.1
 50
90.0
 41
0.7999999999999991
  7
FDASTYLE1
 72
     5
 11
-233.1084064628092
 21
94.91845179972617
 31
0.0
  0
TEXT
  5
15E
  8
0
 62
     7
 10
-230.7084064628092
 20
87.87845179972618
 30
0.0
 40
2.2
  1
 0
 50
90.0
 41
0.8000000000000023
  7
FDASTYLE1
 72
     5
 11
-230.7084064628092
 21
91.39845179972619
 31
0.0
  0
ENDBLK
  5
99
  8
0
  0
BLOCK
  8
0
  2
DA_IMAGEDIMGROUP_24
 70
     0
 10
0.0
 20
0.0
 30
0.0
  3
DA_IMAGEDIMGROUP_24
  1

  0
LINE
  5
15F
  8
LAYER0014
  6
CONTINUOUS
 62
     7
 10
-222.3245045114619
 20
-12.29969018940881
 30
0.0
 11
-219.9934260202509
 21
-12.29969018940882
 31
0.0
  0
ARC
  5
160
  8
LAYER0014
  6
CONTINUOUS
 62
     7
 10
-170.7434260202509
 20
-12.29969018940957
 30
0.0
 40
50.25
 50
180.000008651422
 51
187.1250024463909
  0
ENDBLK
  5
9C
  8
0
  0
BLOCK
  8
0
  2
DA_IMAGEDIMGROUP_25
 70
     0
 10
0.0
 20
0.0
 30
0.0
  3
DA_IMAGEDIMGROUP_25
  1

  0
LINE
  5
161
  8
LAYER0014
  6
CONTINUOUS
 62
     7
 10
-170.7434260202509
 20
-72.75550815409264
 30
0.0
 11
-154.7434260202509
 21
-72.75550815409264
 31
0.0
  0
INSERT
  5
162
  8
LAYER0014
 62
     7
  2
_OPEN30
 10
-170.7434260202509
 20
-72.75550815409264
 30
0.0
 41
1.50000139391263
 42
1.499998500689492
 50
180.0
  0
INSERT
  5
163
  8
LAYER0014
 62
     7
  2
_OPEN30
 10
-154.7434260202509
 20
-72.75550815409264
 30
0.0
 41
1.50000139391263
 42
1.499998500689492
 50
360.0
  0
LINE
  5
164
  8
LAYER0014
  6
CONTINUOUS
 62
     7
 10
-170.7434260202509
 20
-54.15969179158242
 30
0.0
 11
-170.7434260202509
 21
-73.75550815409264
 31
0.0
  0
LINE
  5
165
  8
LAYER0014
  6
CONTINUOUS
 62
     7
 10
-154.7434260202509
 20
-12.83969591145547
 30
0.0
 11
-154.7434260202509
 21
-73.75550815409264
 31
0.0
  0
TEXT
  5
166
  8
LAYER0014
 62
     7
 10
-166.269835655049
 20
-71.75550815409264
 30
0.0
 40
4.0
  1
16
 41
0.7999999999999972
  7
FDASTYLE1
 72
     5
 11
-159.869835655049
 21
-71.75550815409264
 31
0.0
  0
ENDBLK
  5
9F
  8
0
  0
BLOCK
  8
0
  2
DA_IMAGEDIMGROUP_26
 70
     0
 10
0.0
 20
0.0
 30
0.0
  3
DA_IMAGEDIMGROUP_26
  1

  0
LINE
  5
167
  8
LAYER0014
  6
CONTINUOUS
 62
     7
 10
-170.7434260202509
 20
155.2221332611694
 30
0.0
 11
-164.2434260202509
 21
155.2221332611694
 31
0.0
  0
LINE
  5
168
  8
LAYER0014
  6
CONTINUOUS
 62
     7
 10
-170.7434260202509
 20
135.9203005790231
 30
0.0
 11
-170.7434260202509
 21
156.2221332611694
 31
0.0
  0
LINE
  5
169
  8
LAYER0014
  6
CONTINUOUS
 62
     7
 10
-164.2434260202509
 20
119.8503085135934
 30
0.0
 11
-164.2434260202509
 21
156.2221332611694
 31
0.0
  0
LINE
  5
16A
  8
LAYER0014
  6
CONTINUOUS
 62
     7
 10
-185.8394111939561
 20
155.2221332611694
 30
0.0
 11
-170.7434260202509
 21
155.2221332611694
 31
0.0
  0
INSERT
  5
16B
  8
LAYER0014
 62
     7
  2
_OPEN30
 10
-170.7434260202509
 20
155.2221332611694
 30
0.0
 41
1.50000139391263
 42
1.499998500689492
 50
360.0
  0
LINE
  5
16C
  8
LAYER0014
  6
CONTINUOUS
 62
     7
 10
-159.2434260202509
 20
155.2221332611694
 30
0.0
 11
-164.2434260202509
 21
155.2221332611694
 31
0.0
  0
INSERT
  5
16D
  8
LAYER0014
 62
     7
  2
_OPEN30
 10
-164.2434260202509
 20
155.2221332611694
 30
0.0
 41
1.50000139391263
 42
1.499998500689492
 50
180.0
  0
TEXT
  5
16E
  8
LAYER0014
 62
     7
 10
-184.8394111939561
 20
156.2221332611694
 30
0.0
 40
4.0
  1
6.5
 41
0.7999999999999995
  7
FDASTYLE1
 72
     5
 11
-175.2394111939561
 21
156.2221332611694
 31
0.0
  0
ENDBLK
  5
A2
  8
0
  0
BLOCK
  8
0
  2
DA_IMAGEDIMGROUP_27
 70
     0
 10
0.0
 20
0.0
 30
0.0
  3
DA_IMAGEDIMGROUP_27
  1

  0
LINE
  5
16F
  8
0
  6
CONTINUOUS
 62
     7
 10
-121.7434260202509
 20
10.38031011576621
 30
0.0
 11
-121.7434260202509
 21
-5.819136522753719
 31
0.0
  0
LINE
  5
170
  8
0
  6
CONTINUOUS
 62
     7
 10
-170.7434260202509
 20
-4.819136522753719
 30
0.0
 11
-121.7434260202509
 21
-4.819136522753719
 31
0.0
  0
INSERT
  5
171
  8
0
 62
     7
  2
_OPEN30
 10
-170.7434260202509
 20
-4.819136522753719
 30
0.0
 41
1.50000139391263
 42
1.499998500689492
 50
180.0
  0
INSERT
  5
172
  8
0
 62
     7
  2
_OPEN30
 10
-121.7434260202509
 20
-4.819136522753719
 30
0.0
 41
1.50000139391263
 42
1.499998500689492
 50
360.0
  0
TEXT
  5
173
  8
0
 62
     7
 10
-150.7435239206529
 20
-4.319136522753719
 30
0.0
 40
4.0
  1
MAX 59
 41
0.7999999999999995
  7
FDASTYLE1
 72
     5
 11
-131.5435239206529
 21
-4.319136522753719
 31
0.0
  0
ENDBLK
  5
A5
  8
0
  0
BLOCK
  8
0
  2
DA_IMAGEDIMGROUP_28
 70
     0
 10
0.0
 20
0.0
 30
0.0
  3
DA_IMAGEDIMGROUP_28
  1

  0
LINE
  5
174
  8
LAYER0014
  6
CONTINUOUS
 62
     7
 10
82.91105338013462
 20
-33.11969179158242
 30
0.0
 11
31.15986609375767
 21
-33.11969179158242
 31
0.0
  0
LINE
  5
175
  8
LAYER0014
  6
CONTINUOUS
 62
     7
 10
33.44587302124791
 20
40.88030820841758
 30
0.0
 11
33.44587302124791
 21
-33.11969179158242
 31
0.0
  0
INSERT
  5
176
  8
LAYER0014
 62
     7
  2
_OPEN30
 10
33.44587302124791
 20
40.88030820841758
 30
0.0
 41
1.50000139391263
 42
1.499998500689492
 50
90.0
  0
INSERT
  5
177
  8
LAYER0014
 62
     7
  2
_OPEN30
 10
33.44587302124791
 20
-33.11969179158242
 30
0.0
 41
1.50000139391263
 42
1.499998500689492
 50
270.0
  0
TEXT
  5
178
  8
LAYER0014
 62
     7
 10
32.94028797047703
 20
0.6803130822950605
 30
0.0
 40
4.0
  1
74
 50
89.90000000000001
 41
0.8000000000000004
  7
FDASTYLE1
 72
     5
 11
32.95145807201878
 21
7.080303334540105
 31
0.0
  0
ENDBLK
  5
A8
  8
0
  0
BLOCK
  8
0
  2
DA_IMAGEDIMGROUP_29
 70
     0
 10
0.0
 20
0.0
 30
0.0
  3
DA_IMAGEDIMGROUP_29
  1

  0
LINE
  5
179
  8
LAYER0014
  6
CONTINUOUS
 62
     7
 10
178.5387218541845
 20
7.792540445868914
 30
0.0
 11
228.5480762551903
 21
-42.21681817061036
 31
0.0
  0
ARC
  5
17A
  8
LAYER0014
  6
CONTINUOUS
 62
     7
 10
145.4510610095292
 20
40.88030820841758
 30
0.0
 40
115.2310409545898
 50
315.0000055779501
 51
360.0
  0
INSERT
  5
17B
  8
LAYER0014
 62
     7
  2
_OPEN30
 10
226.9317194041382
 20
-40.6003343213231
 30
0.0
 41
1.50000139391263
 42
1.499998500689492
 50
225.372924790163
  0
INSERT
  5
17C
  8
LAYER0014
 62
     7
  2
_OPEN30
 10
260.682101964119
 20
40.88030820841755
 30
0.0
 41
1.50000139391263
 42
1.499998500689492
 50
89.62708078778674
  0
TEXT
  5
17D
  8
LAYER0014
 62
     7
 10
248.7705393310469
 20
-6.616683343883105
 30
0.0
 40
4.0
  1
45ﾟ
 50
67.5
 41
0.800000000000002
  7
FDASTYLE1
 72
     5
 11
252.4443002817518
 21
2.252560168225275
 31
0.0
  0
ENDBLK
  5
AB
  8
0
  0
BLOCK
  8
0
  2
DA_IMAGEDIMGROUP_30
 70
     0
 10
0.0
 20
0.0
 30
0.0
  3
DA_IMAGEDIMGROUP_30
  1

  0
LINE
  5
17E
  8
LAYER0014
  6
CONTINUOUS
 62
     7
 10
205.1418707350368
 20
75.34282237361265
 30
0.0
 11
247.223820634634
 21
99.63881782897832
 31
0.0
  0
ARC
  5
17F
  8
LAYER0014
  6
CONTINUOUS
 62
     7
 10
145.451030491951
 20
40.88030820841758
 30
0.0
 40
115.2310562133789
 50
0.0
 51
29.9999905895423
  0
INSERT
  5
180
  8
LAYER0014
 62
     7
  2
_OPEN30
 10
260.6820867053299
 20
40.88030820841758
 30
0.0
 41
1.50000139391263
 42
1.499998500689492
 50
270.3729191628324
  0
INSERT
  5
181
  8
LAYER0014
 62
     7
  2
_OPEN30
 10
245.2440619406228
 20
98.49581992475395
 30
0.0
 41
1.50000139391263
 42
1.499998500689492
 50
119.6270714267105
  0
TEXT
  5
182
  8
LAYER0014
 62
     7
 10
257.1771850448158
 20
75.31327928042954
 30
0.0
 40
4.0
  1
30ﾟ
 50
-74.99999999999997
 41
0.8000000000000026
  7
FDASTYLE1
 72
     5
 11
259.6618478778
 21
66.04039134805446
 31
0.0
  0
ENDBLK
  5
AE
  8
0
  0
BLOCK
  8
0
  2
DA_IMAGEDIMGROUP_31
 70
     0
 10
0.0
 20
0.0
 30
0.0
  3
DA_IMAGEDIMGROUP_31
  1

  0
LINE
  5
183
  8
LAYER0014
  6
CONTINUOUS
 62
     7
 10
136.9510610095292
 20
-61.65969179158242
 30
0.0
 11
136.9510610095292
 21
-94.62791627888711
 31
0.0
  0
LINE
  5
184
  8
LAYER0014
  6
CONTINUOUS
 62
     7
 10
153.9510610095292
 20
-61.65969179158242
 30
0.0
 11
153.9510610095292
 21
-94.62791627888711
 31
0.0
  0
LINE
  5
185
  8
LAYER0014
  6
CONTINUOUS
 62
     7
 10
136.9510610095292
 20
-92.34191316609415
 30
0.0
 11
153.9510610095292
 21
-92.34191316609415
 31
0.0
  0
INSERT
  5
186
  8
LAYER0014
 62
     7
  2
_OPEN30
 10
136.9510610095292
 20
-92.34191316609415
 30
0.0
 41
1.50000139391263
 42
1.499998500689492
 50
180.0
  0
INSERT
  5
187
  8
LAYER0014
 62
     7
  2
_OPEN30
 10
153.9510610095292
 20
-92.34191316609415
 30
0.0
 41
1.50000139391263
 42
1.499998500689492
 50
360.0
  0
TEXT
  5
188
  8
LAYER0014
 62
     7
 10
139.0510707572841
 20
-91.83074306455239
 30
0.0
 40
4.0
  1
17H8
 50
-0.1000000000000078
 41
0.8000000000000025
  7
FDASTYLE1
 72
     5
 11
151.8510512617742
 21
-91.8530832676359
 31
0.0
  0
ENDBLK
  5
B1
  8
0
  0
BLOCK
  8
0
  2
DA_IMAGEDIMGROUP_32
 70
     0
 10
0.0
 20
0.0
 30
0.0
  3
DA_IMAGEDIMGROUP_32
  1

  0
LINE
  5
189
  8
LAYER0014
  6
CONTINUOUS
 62
     7
 10
125.4510610095292
 20
-62.18953798298867
 30
0.0
 11
125.4510610095292
 21
-106.7390231514457
 31
0.0
  0
LINE
  5
18A
  8
LAYER0014
  6
CONTINUOUS
 62
     7
 10
165.4510610095292
 20
-62.18953798298867
 30
0.0
 11
165.4510610095292
 21
-106.7390231514457
 31
0.0
  0
LINE
  5
18B
  8
LAYER0014
  6
CONTINUOUS
 62
     7
 10
125.4510533801346
 20
-104.4530200386527
 30
0.0
 11
165.4510610095292
 21
-104.4530200386527
 31
0.0
  0
INSERT
  5
18C
  8
LAYER0014
 62
     7
  2
_OPEN30
 10
125.4510533801346
 20
-104.4530200386527
 30
0.0
 41
1.50000139391263
 42
1.499998500689492
 50
180.0
  0
INSERT
  5
18D
  8
LAYER0014
 62
     7
  2
_OPEN30
 10
165.4510610095292
 20
-104.4530200386527
 30
0.0
 41
1.50000139391263
 42
1.499998500689492
 50
360.0
  0
TEXT
  5
18E
  8
LAYER0014
 62
     7
 10
142.2510620687094
 20
-103.9474349878819
 30
0.0
 40
4.0
  1
40
 50
-0.1000000000000078
 41
0.7999999999999954
  7
FDASTYLE1
 72
     5
 11
148.6510523209544
 21
-103.9586050894236
 31
0.0
  0
ENDBLK
  5
B4
  8
0
  0
BLOCK
  8
0
  2
DA_IMAGEDIMGROUP_33
 70
     0
 10
0.0
 20
0.0
 30
0.0
  3
DA_IMAGEDIMGROUP_33
  1

  0
LINE
  5
18F
  8
LAYER0014
  6
CONTINUOUS
 62
     7
 10
145.4510610095292
 20
-74.99302003865273
 30
0.0
 11
145.4510610095292
 21
-82.62791627888711
 31
0.0
  0
LINE
  5
190
  8
LAYER0014
  6
CONTINUOUS
 62
     7
 10
100.4510610095292
 20
-49.93045900349648
 30
0.0
 11
100.4510610095292
 21
-82.62791627888711
 31
0.0
  0
LINE
  5
191
  8
LAYER0014
  6
CONTINUOUS
 62
     7
 10
145.4510610095292
 20
-80.34191316609415
 30
0.0
 11
100.4510533801346
 21
-80.34191316609415
 31
0.0
  0
INSERT
  5
192
  8
LAYER0014
 62
     7
  2
_OPEN30
 10
145.4510610095292
 20
-80.34191316609415
 30
0.0
 41
1.50000139391263
 42
1.499998500689492
 50
360.0
  0
INSERT
  5
193
  8
LAYER0014
 62
     7
  2
_OPEN30
 10
100.4510533801346
 20
-80.34191316609415
 30
0.0
 41
1.50000139391263
 42
1.499998500689492
 50
180.0
  0
TEXT
  5
194
  8
LAYER0014
 62
     7
 10
115.9910979571585
 20
-79.84191316609415
 30
0.0
 40
4.0
  1
45
 41
0.8000000000000007
  7
FDASTYLE1
 72
     5
 11
122.3910979571585
 21
-79.84191316609415
 31
0.0
  0
ENDBLK
  5
B7
  8
0
  0
BLOCK
  8
0
  2
DC_GROUP_4
 70
     0
 10
0.0
 20
0.0
 30
0.0
  3
DC_GROUP_4
  1

  0
LINE
  5
195
  8
LAYER0014
  6
CONTINUOUS
 62
     7
 10
176.1124614858346
 20
8.402656955289277
 30
0.0
 11
207.9541965895751
 21
-79.45692240635691
 31
0.0
  0
INSERT
  5
196
  8
LAYER0014
 62
     7
  2
_OPEN30
 10
176.1124614858346
 20
8.402656955289277
 30
0.0
 41
1.50000139391263
 42
1.499998500689492
 50
109.9213369365953
  0
LINE
  5
197
  8
LAYER0014
  6
CONTINUOUS
 62
     7
 10
207.9541919036269
 20
-79.45692389825382
 30
0.0
 11
241.7838733001113
 21
-79.45692389825382
 31
0.0
  0
TEXT
  5
198
  8
LAYER0014
 62
     7
 10
208.5438525481581
 20
-77.85692389825383
 30
0.0
 40
4.0
  1
4-M6 PCD84
 41
0.8
  7
FDASTYLE1
 72
     5
 11
240.5438525481581
 21
-77.85692389825383
 31
0.0
  0
ENDBLK
  5
BA
  8
0
  0
BLOCK
  8
0
  2
DC_GROUP_5
 70
     0
 10
0.0
 20
0.0
 30
0.0
  3
DC_GROUP_5
  1

  0
LINE
  5
199
  8
LAYER0014
  6
CONTINUOUS
 62
     7
 10
207.1406070071247
 20
83.38982342264907
 30
0.0
 11
241.3354408412768
 21
156.4189951682803
 31
0.0
  0
INSERT
  5
19A
  8
LAYER0014
 62
     7
  2
_OPEN30
 10
207.1406070071247
 20
83.38982342264907
 30
0.0
 41
1.50000139391263
 42
1.499998500689492
 50
244.9093490431831
  0
LINE
  5
19B
  8
LAYER0014
  6
CONTINUOUS
 62
     7
 10
241.335450134199
 20
156.4189987098181
 30
0.0
 11
210.7057809447459
 21
156.4189987098181
 31
0.0
  0
TEXT
  5
19C
  8
LAYER0014
 62
     7
 10
212.8506442641429
 20
158.0189987098181
 30
0.0
 40
4.0
  1
PCD133.35
 41
0.8000000000000003
  7
FDASTYLE1
 72
     5
 11
241.6506442641429
 21
158.0189987098181
 31
0.0
  0
ENDBLK
  5
BD
  8
0
  0
BLOCK
  8
0
  2
DA_IMAGEDIMGROUP_34
 70
     0
 10
0.0
 20
0.0
 30
0.0
  3
DA_IMAGEDIMGROUP_34
  1

  0
LINE
  5
19D
  8
0
  6
CONTINUOUS
 62
     7
 10
-190.7434260202509
 20
-31.79469484334023
 30
0.0
 11
-197.9621045721931
 21
-31.79469484334023
 31
0.0
  0
LINE
  5
19E
  8
0
  6
CONTINUOUS
 62
     7
 10
-190.7434260202509
 20
-19.79469484334023
 30
0.0
 11
-197.9621045721931
 21
-19.79469484334023
 31
0.0
  0
LINE
  5
19F
  8
0
  6
CONTINUOUS
 62
     7
 10
-196.9621045721931
 20
-31.79469484334023
 30
0.0
 11
-196.9621045721931
 21
-19.79469484334023
 31
0.0
  0
INSERT
  5
1A0
  8
0
 62
     7
  2
_OPEN30
 10
-196.9621045721931
 20
-31.79469484334023
 30
0.0
 41
1.50000139391263
 42
1.499998500689492
 50
270.0
  0
INSERT
  5
1A1
  8
0
 62
     7
  2
_OPEN30
 10
-196.9621045721931
 20
-19.79469484334023
 30
0.0
 41
1.50000139391263
 42
1.499998500689492
 50
90.0
  0
TEXT
  5
1A2
  8
0
 62
     7
 10
-197.4621045721931
 20
-30.59469484334024
 30
0.0
 40
4.0
  1
M12
 50
90.0
 41
0.8000000000000019
  7
FDASTYLE1
 72
     5
 11
-197.4621045721931
 21
-20.99469484334022
 31
0.0
  0
ENDBLK
  5
C0
  8
0
  0
BLOCK
  8
0
  2
DA_IMAGEDIMGROUP_35
 70
     0
 10
0.0
 20
0.0
 30
0.0
  3
DA_IMAGEDIMGROUP_35
  1

  0
LINE
  5
1A3
  8
0
  6
CONTINUOUS
 62
     7
 10
-170.7434260202509
 20
-52.61969942097695
 30
0.0
 11
-170.7434260202509
 21
-73.73878045170129
 31
0.0
  0
LINE
  5
1A4
  8
0
  6
CONTINUOUS
 62
     7
 10
-189.7434260202509
 20
-32.79469484334023
 30
0.0
 11
-189.7434260202509
 21
-73.73878045170129
 31
0.0
  0
LINE
  5
1A5
  8
0
  6
CONTINUOUS
 62
     7
 10
-189.7434260202509
 20
-72.73878045170129
 30
0.0
 11
-170.7434260202509
 21
-72.73878045170129
 31
0.0
  0
INSERT
  5
1A6
  8
0
 62
     7
  2
_OPEN30
 10
-189.7434260202509
 20
-72.73878045170129
 30
0.0
 41
1.50000139391263
 42
1.499998500689492
 50
180.0
  0
INSERT
  5
1A7
  8
0
 62
     7
  2
_OPEN30
 10
-170.7434260202509
 20
-72.73878045170129
 30
0.0
 41
1.50000139391263
 42
1.499998500689492
 50
360.0
  0
TEXT
  5
1A8
  8
0
 62
     7
 10
-183.4434260202509
 20
-72.23878045170129
 30
0.0
 40
4.0
  1
19
 41
0.7999999999999972
  7
FDASTYLE1
 72
     5
 11
-177.0434260202509
 21
-72.23878045170129
 31
0.0
  0
ENDBLK
  5
C3
  8
0
  0
BLOCK
  8
0
  2
DC_GROUP_6
 70
     0
 10
0.0
 20
0.0
 30
0.0
  3
DC_GROUP_6
  1

  0
LINE
  5
1A9
  8
0
  6
CONTINUOUS
 62
     3
 10
-245.1399781438558
 20
-146.9386454983232
 30
0.0
 11
-242.8978039922195
 21
-146.9663606167125
 31
0.0
  0
LINE
  5
1AA
  8
0
  6
CONTINUOUS
 62
     3
 10
-242.8978039922195
 20
-146.9663606167125
 30
0.0
 11
-240.6556684938122
 21
-146.99538245731
 31
0.0
  0
LINE
  5
1AB
  8
0
  6
CONTINUOUS
 62
     3
 10
-240.6556684938122
 20
-146.99538245731
 30
0.0
 11
-238.4136103018624
 21
-147.0270177423239
 31
0.0
  0
LINE
  5
1AC
  8
0
  6
CONTINUOUS
 62
     3
 10
-238.4136103018624
 20
-147.0270177423239
 30
0.0
 11
-236.1716680695992
 21
-147.0625731939625
 31
0.0
  0
LINE
  5
1AD
  8
0
  6
CONTINUOUS
 62
     3
 10
-236.1716680695992
 20
-147.0625731939625
 30
0.0
 11
-233.9298804502514
 21
-147.1033555344339
 31
0.0
  0
LINE
  5
1AE
  8
0
  6
CONTINUOUS
 62
     3
 10
-233.9298804502514
 20
-147.1033555344339
 30
0.0
 11
-231.6882860970476
 21
-147.1506714859464
 31
0.0
  0
LINE
  5
1AF
  8
0
  6
CONTINUOUS
 62
     3
 10
-231.6882860970476
 20
-147.1506714859464
 30
0.0
 11
-229.4469236632169
 21
-147.2058277707081
 31
0.0
  0
LINE
  5
1B0
  8
0
  6
CONTINUOUS
 62
     3
 10
-229.4469236632169
 20
-147.2058277707081
 30
0.0
 11
-227.2058318019879
 21
-147.2701311109273
 31
0.0
  0
LINE
  5
1B1
  8
0
  6
CONTINUOUS
 62
     3
 10
-227.2058318019879
 20
-147.2701311109273
 30
0.0
 11
-224.965049167594
 21
-147.3448881080106
 31
0.0
  0
LINE
  5
1B2
  8
0
  6
CONTINUOUS
 62
     3
 10
-224.965049167594
 20
-147.3448881080106
 30
0.0
 11
-222.7246170547664
 21
-147.4310877644994
 31
0.0
  0
LINE
  5
1B3
  8
0
  6
CONTINUOUS
 62
     3
 10
-222.7246170547664
 20
-147.4310877644994
 30
0.0
 11
-220.4845851264182
 21
-147.5287125589318
 31
0.0
  0
LINE
  5
1B4
  8
0
  6
CONTINUOUS
 62
     3
 10
-220.4845851264182
 20
-147.5287125589318
 30
0.0
 11
-218.2450046993095
 21
-147.6375460452302
 31
0.0
  0
LINE
  5
1B5
  8
0
  6
CONTINUOUS
 62
     3
 10
-218.2450046993095
 20
-147.6375460452302
 30
0.0
 11
-216.0059270902007
 21
-147.7573717773173
 31
0.0
  0
LINE
  5
1B6
  8
0
  6
CONTINUOUS
 62
     3
 10
-216.0059270902007
 20
-147.7573717773173
 30
0.0
 11
-213.7674036158524
 21
-147.8879733091157
 31
0.0
  0
LINE
  5
1B7
  8
0
  6
CONTINUOUS
 62
     3
 10
-213.7674036158524
 20
-147.8879733091157
 30
0.0
 11
-211.5294855930246
 21
-148.0291341945479
 31
0.0
  0
LINE
  5
1B8
  8
0
  6
CONTINUOUS
 62
     3
 10
-211.5294855930246
 20
-148.0291341945479
 30
0.0
 11
-209.2922243384779
 21
-148.1806379875365
 31
0.0
  0
LINE
  5
1B9
  8
0
  6
CONTINUOUS
 62
     3
 10
-209.2922243384779
 20
-148.1806379875365
 30
0.0
 11
-207.0556711689727
 21
-148.3422682420041
 31
0.0
  0
LINE
  5
1BA
  8
0
  6
CONTINUOUS
 62
     3
 10
-207.0556711689727
 20
-148.3422682420041
 30
0.0
 11
-204.8198773899758
 21
-148.5138085799147
 31
0.0
  0
LINE
  5
1BB
  8
0
  6
CONTINUOUS
 62
     3
 10
-204.8198773899758
 20
-148.5138085799147
 30
0.0
 11
-202.584888605433
 21
-148.6950769745236
 31
0.0
  0
LINE
  5
1BC
  8
0
  6
CONTINUOUS
 62
     3
 10
-202.584888605433
 20
-148.6950769745236
 30
0.0
 11
-200.3507354728274
 21
-148.8859814505367
 31
0.0
  0
LINE
  5
1BD
  8
0
  6
CONTINUOUS
 62
     3
 10
-200.3507354728274
 20
-148.8859814505367
 30
0.0
 11
-198.1174462302329
 21
-149.0864446094421
 31
0.0
  0
LINE
  5
1BE
  8
0
  6
CONTINUOUS
 62
     3
 10
-198.1174462302329
 20
-149.0864446094421
 30
0.0
 11
-195.8850491157234
 21
-149.296389052728
 31
0.0
  0
LINE
  5
1BF
  8
0
  6
CONTINUOUS
 62
     3
 10
-195.8850491157234
 20
-149.296389052728
 30
0.0
 11
-193.6535723673727
 21
-149.5157373818825
 31
0.0
  0
LINE
  5
1C0
  8
0
  6
CONTINUOUS
 62
     3
 10
-193.6535723673727
 20
-149.5157373818825
 30
0.0
 11
-191.4230442232547
 21
-149.7444121983938
 31
0.0
  0
LINE
  5
1C1
  8
0
  6
CONTINUOUS
 62
     3
 10
-191.4230442232547
 20
-149.7444121983938
 30
0.0
 11
-189.1934929214431
 21
-149.9823361037499
 31
0.0
  0
LINE
  5
1C2
  8
0
  6
CONTINUOUS
 62
     3
 10
-189.1934929214431
 20
-149.9823361037499
 30
0.0
 11
-186.9649467000119
 21
-150.2294316994391
 31
0.0
  0
LINE
  5
1C3
  8
0
  6
CONTINUOUS
 62
     3
 10
-186.9649467000119
 20
-150.2294316994391
 30
0.0
 11
-184.7374338030446
 21
-150.4856216806641
 31
0.0
  0
LINE
  5
1C4
  8
0
  6
CONTINUOUS
 62
     3
 10
-184.7374338030446
 20
-150.4856216806641
 30
0.0
 11
-182.510984125902
 21
-150.7508544923522
 31
0.0
  0
LINE
  5
1C5
  8
0
  6
CONTINUOUS
 62
     3
 10
-182.510984125902
 20
-150.7508544923522
 30
0.0
 11
-180.2856314533128
 21
-151.0251392295571
 31
0.0
  0
LINE
  5
1C6
  8
0
  6
CONTINUOUS
 62
     3
 10
-180.2856314533128
 20
-151.0251392295571
 30
0.0
 11
-178.0614101296004
 21
-151.3084937135471
 31
0.0
  0
LINE
  5
1C7
  8
0
  6
CONTINUOUS
 62
     3
 10
-178.0614101296004
 20
-151.3084937135471
 30
0.0
 11
-175.8383544990879
 21
-151.6009357655903
 31
0.0
  0
LINE
  5
1C8
  8
0
  6
CONTINUOUS
 62
     3
 10
-175.8383544990879
 20
-151.6009357655903
 30
0.0
 11
-173.6164989060987
 21
-151.9024832069548
 31
0.0
  0
LINE
  5
1C9
  8
0
  6
CONTINUOUS
 62
     3
 10
-173.6164989060987
 20
-151.9024832069548
 30
0.0
 11
-171.3958776949558
 21
-152.2131538589088
 31
0.0
  0
LINE
  5
1CA
  8
0
  6
CONTINUOUS
 62
     3
 10
-171.3958776949558
 20
-152.2131538589088
 30
0.0
 11
-169.1765252099825
 21
-152.5329655427204
 31
0.0
  0
LINE
  5
1CB
  8
0
  6
CONTINUOUS
 62
     3
 10
-169.1765252099825
 20
-152.5329655427204
 30
0.0
 11
-166.958475795502
 21
-152.8619360796579
 31
0.0
  0
LINE
  5
1CC
  8
0
  6
CONTINUOUS
 62
     3
 10
-166.958475795502
 20
-152.8619360796579
 30
0.0
 11
-164.7417638717163
 21
-153.2000835419046
 31
0.0
  0
LINE
  5
1CD
  8
0
  6
CONTINUOUS
 62
     3
 10
-164.7417638717163
 20
-153.2000835419046
 30
0.0
 11
-162.5264450272366
 21
-153.5474960011056
 31
0.0
  0
LINE
  5
1CE
  8
0
  6
CONTINUOUS
 62
     3
 10
-162.5264450272366
 20
-153.5474960011056
 30
0.0
 11
-160.3126248601257
 21
-153.9044268996121
 31
0.0
  0
LINE
  5
1CF
  8
0
  6
CONTINUOUS
 62
     3
 10
-160.3126248601257
 20
-153.9044268996121
 30
0.0
 11
-158.1004161879819
 21
-154.2711535532536
 31
0.0
  0
LINE
  5
1D0
  8
0
  6
CONTINUOUS
 62
     3
 10
-158.1004161879819
 20
-154.2711535532536
 30
0.0
 11
-155.889931828403
 21
-154.6479532778602
 31
0.0
  0
LINE
  5
1D1
  8
0
  6
CONTINUOUS
 62
     3
 10
-155.889931828403
 20
-154.6479532778602
 30
0.0
 11
-153.6812845989873
 21
-155.0351033892615
 31
0.0
  0
LINE
  5
1D2
  8
0
  6
CONTINUOUS
 62
     3
 10
-153.6812845989873
 20
-155.0351033892615
 30
0.0
 11
-151.4745873173328
 21
-155.4328812032872
 31
0.0
  0
LINE
  5
1D3
  8
0
  6
CONTINUOUS
 62
     3
 10
-151.4745873173328
 20
-155.4328812032872
 30
0.0
 11
-149.2699528010374
 21
-155.8415640357672
 31
0.0
  0
LINE
  5
1D4
  8
0
  6
CONTINUOUS
 62
     3
 10
-149.2699528010374
 20
-155.8415640357672
 30
0.0
 11
-147.0674938676993
 21
-156.2614292025312
 31
0.0
  0
LINE
  5
1D5
  8
0
  6
CONTINUOUS
 62
     3
 10
-147.0674938676993
 20
-156.2614292025312
 30
0.0
 11
-144.8673232159738
 21
-156.6927535239161
 31
0.0
  0
LINE
  5
1D6
  8
0
  6
CONTINUOUS
 62
     3
 10
-144.8673232159738
 20
-156.6927535239161
 30
0.0
 11
-142.6694653997773
 21
-157.1354466260312
 31
0.0
  0
LINE
  5
1D7
  8
0
  6
CONTINUOUS
 62
     3
 10
-142.6694653997773
 20
-157.1354466260312
 30
0.0
 11
-140.4737007315671
 21
-157.5884006714942
 31
0.0
  0
LINE
  5
1D8
  8
0
  6
CONTINUOUS
 62
     3
 10
-140.4737007315671
 20
-157.5884006714942
 30
0.0
 11
-138.2797675678448
 21
-158.0503330423867
 31
0.0
  0
LINE
  5
1D9
  8
0
  6
CONTINUOUS
 62
     3
 10
-138.2797675678448
 20
-158.0503330423867
 30
0.0
 11
-136.0874042651124
 21
-158.51996112079
 31
0.0
  0
LINE
  5
1DA
  8
0
  6
CONTINUOUS
 62
     3
 10
-136.0874042651124
 20
-158.51996112079
 30
0.0
 11
-133.8963491798713
 21
-158.9960022887857
 31
0.0
  0
LINE
  5
1DB
  8
0
  6
CONTINUOUS
 62
     3
 10
-133.8963491798713
 20
-158.9960022887857
 30
0.0
 11
-131.7063406686234
 21
-159.4771739284554
 31
0.0
  0
LINE
  5
1DC
  8
0
  6
CONTINUOUS
 62
     3
 10
-131.7063406686234
 20
-159.4771739284554
 30
0.0
 11
-129.5171170878704
 21
-159.9621934218805
 31
0.0
  0
LINE
  5
1DD
  8
0
  6
CONTINUOUS
 62
     3
 10
-129.5171170878704
 20
-159.9621934218805
 30
0.0
 11
-127.328416794114
 21
-160.4497781511426
 31
0.0
  0
LINE
  5
1DE
  8
0
  6
CONTINUOUS
 62
     3
 10
-127.328416794114
 20
-160.4497781511426
 30
0.0
 11
-125.1399781438558
 21
-160.9386454983232
 31
0.0
  0
ENDBLK
  5
C6
  8
0
  0
BLOCK
  8
0
  2
_OPEN30
 70
     0
 10
0.0
 20
0.0
 30
0.0
  3
_OPEN30
  1

  0
LINE
  5
CD
  8
0
  6
BYBLOCK
 62
     0
 10
-1.0
 20
0.267949
 30
0.0
 11
0.0
 21
0.0
 31
0.0
  0
LINE
  5
CE
  8
0
  6
BYBLOCK
 62
     0
 10
0.0
 20
0.0
 30
0.0
 11
-1.0
 21
-0.267949
 31
0.0
  0
LINE
  5
CF
  8
0
  6
BYBLOCK
 62
     0
 10
0.0
 20
0.0
 30
0.0
 11
-1.0
 21
0.0
 31
0.0
  0
ENDBLK
  5
CC
  8
0
  0
ENDSEC
  0
SECTION
  2
ENTITIES
  0
LINE
  5
1DF
  8
ZUWAKU
  6
CONTINUOUS
 62
     3
 10
-277.0
 20
-190.0
 30
0.0
 11
-277.0
 21
190.0
 31
0.0
  0
LINE
  5
1E0
  8
ZUWAKU
  6
CONTINUOUS
 62
     3
 10
277.0
 20
-190.0
 30
0.0
 11
277.0
 21
190.0
 31
0.0
  0
LINE
  5
1E1
  8
ZUWAKU
  6
CONTINUOUS
 62
     3
 10
-277.0
 20
-190.0
 30
0.0
 11
277.0
 21
-190.0
 31
0.0
  0
LINE
  5
1E2
  8
ZUWAKU
  6
CONTINUOUS
 62
     3
 10
-277.0
 20
189.9999999999999
 30
0.0
 11
277.0
 21
189.9999999999999
 31
0.0
  0
LINE
  5
1E3
  8
ZUWAKU
  6
CONTINUOUS
 62
     3
 10
97.00000000000001
 20
-190.0
 30
0.0
 11
97.00000000000001
 21
-130.0
 31
0.0
  0
LINE
  5
1E4
  8
ZUWAKU
  6
CONTINUOUS
 62
     3
 10
97.00000000000001
 20
-176.0
 30
0.0
 11
277.0
 21
-176.0
 31
0.0
  0
LINE
  5
1E5
  8
ZUWAKU
  6
CONTINUOUS
 62
     3
 10
146.0
 20
-162.0
 30
0.0
 11
277.0
 21
-162.0
 31
0.0
  0
LINE
  5
1E6
  8
ZUWAKU
  6
CONTINUOUS
 62
     3
 10
146.0
 20
-148.0
 30
0.0
 11
277.0
 21
-148.0
 31
0.0
  0
LINE
  5
1E7
  8
ZUWAKU
  6
CONTINUOUS
 62
     3
 10
146.0
 20
-138.0
 30
0.0
 11
277.0
 21
-138.0
 31
0.0
  0
LINE
  5
1E8
  8
ZUWAKU
  6
CONTINUOUS
 62
     3
 10
146.0
 20
-176.0
 30
0.0
 11
146.0
 21
-130.0
 31
0.0
  0
LINE
  5
1E9
  8
ZUWAKU
  6
CONTINUOUS
 62
     3
 10
255.0
 20
-176.0
 30
0.0
 11
255.0
 21
-130.0
 31
0.0
  0
LINE
  5
1EA
  8
ZUWAKU
  6
CONTINUOUS
 62
     3
 10
171.0
 20
-190.0
 30
0.0
 11
171.0
 21
-176.0
 31
0.0
  0
LINE
  5
1EB
  8
ZUWAKU
  6
CONTINUOUS
 62
     3
 10
97.00000000000001
 20
-130.0
 30
0.0
 11
277.0
 21
-130.0
 31
0.0
  0
LINE
  5
1EC
  8
ZUWAKU
  6
CONTINUOUS
 62
     3
 10
226.0
 20
-176.0
 30
0.0
 11
226.0
 21
-148.0
 31
0.0
  0
LINE
  5
1ED
  8
ZUWAKU
  6
CONTINUOUS
 62
     4
 10
105.0
 20
-172.0
 30
0.0
 11
105.0
 21
-130.0
 31
0.0
  0
LINE
  5
1EE
  8
ZUWAKU
  6
CONTINUOUS
 62
     4
 10
109.0
 20
-172.0
 30
0.0
 11
109.0
 21
-130.0
 31
0.0
  0
LINE
  5
1EF
  8
ZUWAKU
  6
CONTINUOUS
 62
     4
 10
121.5
 20
-176.0
 30
0.0
 11
121.5
 21
-130.0
 31
0.0
  0
LINE
  5
1F0
  8
ZUWAKU
  6
CONTINUOUS
 62
     4
 10
97.00000000000001
 20
-137.0
 30
0.0
 11
146.0
 21
-137.0
 31
0.0
  0
LINE
  5
1F1
  8
ZUWAKU
  6
CONTINUOUS
 62
     4
 10
97.00000000000001
 20
-144.0
 30
0.0
 11
146.0
 21
-144.0
 31
0.0
  0
LINE
  5
1F2
  8
ZUWAKU
  6
CONTINUOUS
 62
     4
 10
97.00000000000001
 20
-165.0
 30
0.0
 11
146.0
 21
-165.0
 31
0.0
  0
LINE
  5
1F3
  8
ZUWAKU
  6
CONTINUOUS
 62
     4
 10
97.00000000000001
 20
-172.0
 30
0.0
 11
146.0
 21
-172.0
 31
0.0
  0
LINE
  5
1F4
  8
ZUWAKU
  6
CONTINUOUS
 62
     4
 10
255.0
 20
-166.0
 30
0.0
 11
277.0
 21
-166.0
 31
0.0
  0
LINE
  5
1F5
  8
ZUWAKU
  6
CONTINUOUS
 62
     4
 10
153.0
 20
-139.5
 30
0.0
 11
153.0
 21
-130.0
 31
0.0
  0
LINE
  5
1F6
  8
ZUWAKU
  6
CONTINUOUS
 62
     4
 10
202.0
 20
-148.0
 30
0.0
 11
202.0
 21
-146.5
 31
0.0
  0
LINE
  5
1F7
  8
ZUWAKU
  6
CONTINUOUS
 62
     4
 10
226.0
 20
-148.0
 30
0.0
 11
226.0
 21
-146.5
 31
0.0
  0
LINE
  5
1F8
  8
ZUWAKU
  6
CONTINUOUS
 62
     4
 10
243.0
 20
-148.0
 30
0.0
 11
243.0
 21
-146.5
 31
0.0
  0
LINE
  5
1F9
  8
ZUWAKU
  6
CONTINUOUS
 62
     4
 10
202.0
 20
-139.5
 30
0.0
 11
202.0
 21
-130.0
 31
0.0
  0
LINE
  5
1FA
  8
ZUWAKU
  6
CONTINUOUS
 62
     4
 10
226.0
 20
-139.5
 30
0.0
 11
226.0
 21
-130.0
 31
0.0
  0
LINE
  5
1FB
  8
ZUWAKU
  6
CONTINUOUS
 62
     4
 10
243.0
 20
-139.5
 30
0.0
 11
243.0
 21
-130.0
 31
0.0
  0
LINE
  5
1FC
  8
ZUWAKU
  6
CONTINUOUS
 62
     4
 10
97.00000000000001
 20
-151.0
 30
0.0
 11
146.0
 21
-151.0
 31
0.0
  0
LINE
  5
1FD
  8
ZUWAKU
  6
CONTINUOUS
 62
     4
 10
97.00000000000001
 20
-158.0
 30
0.0
 11
146.0
 21
-158.0
 31
0.0
  0
LINE
  5
1FE
  8
ZUWAKU
  6
CONTINUOUS
 62
     4
 10
101.0
 20
-130.5
 30
0.0
 11
98.00000000000001
 21
-136.5
 31
0.0
  0
LINE
  5
1FF
  8
ZUWAKU
  6
CONTINUOUS
 62
     4
 10
101.0
 20
-130.5
 30
0.0
 11
104.0
 21
-136.5
 31
0.0
  0
LINE
  5
200
  8
ZUWAKU
  6
CONTINUOUS
 62
     4
 10
98.00000000000001
 20
-136.5
 30
0.0
 11
104.0
 21
-136.5
 31
0.0
  0
LINE
  5
201
  8
ZUWAKU
  6
CONTINUOUS
 62
     4
 10
101.0
 20
-158.5
 30
0.0
 11
98.00000000000001
 21
-164.5
 31
0.0
  0
LINE
  5
202
  8
ZUWAKU
  6
CONTINUOUS
 62
     4
 10
101.0
 20
-158.5
 30
0.0
 11
104.0
 21
-164.5
 31
0.0
  0
LINE
  5
203
  8
ZUWAKU
  6
CONTINUOUS
 62
     4
 10
98.00000000000001
 20
-164.5
 30
0.0
 11
104.0
 21
-164.5
 31
0.0
  0
LINE
  5
204
  8
ZUWAKU
  6
CONTINUOUS
 62
     4
 10
101.0
 20
-151.5
 30
0.0
 11
98.00000000000001
 21
-157.5
 31
0.0
  0
LINE
  5
205
  8
ZUWAKU
  6
CONTINUOUS
 62
     4
 10
101.0
 20
-151.5
 30
0.0
 11
104.0
 21
-157.5
 31
0.0
  0
LINE
  5
206
  8
ZUWAKU
  6
CONTINUOUS
 62
     4
 10
98.00000000000001
 20
-157.5
 30
0.0
 11
104.0
 21
-157.5
 31
0.0
  0
LINE
  5
207
  8
ZUWAKU
  6
CONTINUOUS
 62
     4
 10
101.0
 20
-144.5
 30
0.0
 11
98.00000000000001
 21
-150.5
 31
0.0
  0
LINE
  5
208
  8
ZUWAKU
  6
CONTINUOUS
 62
     4
 10
101.0
 20
-144.5
 30
0.0
 11
104.0
 21
-150.5
 31
0.0
  0
LINE
  5
209
  8
ZUWAKU
  6
CONTINUOUS
 62
     4
 10
98.00000000000001
 20
-150.5
 30
0.0
 11
104.0
 21
-150.5
 31
0.0
  0
LINE
  5
20A
  8
ZUWAKU
  6
CONTINUOUS
 62
     4
 10
101.0
 20
-137.5
 30
0.0
 11
98.00000000000001
 21
-143.5
 31
0.0
  0
LINE
  5
20B
  8
ZUWAKU
  6
CONTINUOUS
 62
     4
 10
101.0
 20
-137.5
 30
0.0
 11
104.0
 21
-143.5
 31
0.0
  0
LINE
  5
20C
  8
ZUWAKU
  6
CONTINUOUS
 62
     4
 10
98.00000000000001
 20
-143.5
 30
0.0
 11
104.0
 21
-143.5
 31
0.0
  0
LINE
  5
20D
  8
ZUWAKU
  6
CONTINUOUS
 62
     4
 10
172.6666666666666
 20
-176.0
 30
0.0
 11
172.6666666666666
 21
-162.0
 31
0.0
  0
LINE
  5
20E
  8
ZUWAKU
  6
CONTINUOUS
 62
     4
 10
199.3333333333333
 20
-176.0
 30
0.0
 11
199.3333333333333
 21
-161.9509415757253
 31
0.0
  0
LINE
  5
20F
  8
ZUWAKU
  6
CONTINUOUS
 62
     4
 10
212.6666666666666
 20
-167.5
 30
0.0
 11
212.6666666666666
 21
-161.9509415757253
 31
0.0
  0
LINE
  5
210
  8
ZUWAKU
  6
CONTINUOUS
 62
     4
 10
226.0
 20
-155.0
 30
0.0
 11
255.0
 21
-155.0
 31
0.0
  0
LINE
  5
211
  8
ZUWAKU
  6
CONTINUOUS
 62
     4
 10
146.0
 20
-166.0
 30
0.0
 11
226.0
 21
-166.0
 31
0.0
  0
TEXT
  5
213
  8
ZUWAKU
 62
     7
 10
148.3132301474747
 20
-130.821188728956
 30
0.0
 40
2.6656
  1
符号
 41
0.8
  7
FDASTYLE0
  0
TEXT
  5
214
  8
ZUWAKU
 62
     7
 10
162.4141311219058
 20
-135.8245525019963
 30
0.0
 40
4.0
  1
品       名
 41
0.765957446808511
  7
FDASTYLE1
 72
     5
 11
191.2141311219058
 21
-135.8245525019963
 31
0.0
  0
TEXT
  5
215
  8
ZUWAKU
 62
     7
 10
207.2331564413096
 20
-135.8245525019963
 30
0.0
 40
4.0
  1
材  料
 41
0.7272727272727279
  7
FDASTYLE1
 72
     5
 11
220.0331564413096
 21
-135.8245525019963
 31
0.0
  0
TEXT
  5
216
  8
ZUWAKU
 62
     7
 10
229.516061684855
 20
-135.8245525019963
 30
0.0
 40
4.0
  1
個 数
 41
0.7058823529411761
  7
FDASTYLE1
 72
     5
 11
239.116061684855
 21
-135.8245525019963
 31
0.0
  0
TEXT
  5
217
  8
ZUWAKU
 62
     7
 10
245.721810952888
 20
-133.5649080050572
 30
0.0
 40
2.5
  1
単重量
 41
0.6666666666666666
  7
FDASTYLE1
 72
     5
 11
251.721810952888
 21
-133.5649080050572
 31
0.0
  0
TEXT
  5
218
  8
ZUWAKU
 62
     7
 10
244.7089516236359
 20
-137.3631304897525
 30
0.0
 40
2.5
  1
(kg)
 41
0.8
  7
FDASTYLE1
 72
     5
 11
252.7089516236359
 21
-137.3631304897525
 31
0.0
  0
TEXT
  5
219
  8
ZUWAKU
 62
     7
 10
259.1421970654778
 20
-135.8245525019963
 30
0.0
 40
4.0
  1
記  事
 41
0.7272727272727279
  7
FDASTYLE1
 72
     5
 11
271.9421970654778
 21
-135.8245525019963
 31
0.0
  0
TEXT
  5
21A
  8
ZUWAKU
 62
     7
 10
258.8450794551645
 20
-165.4873041997729
 30
0.0
 40
3.0
  1
コード番号
 41
0.6666666666666666
  7
FDASTYLE1
 72
     5
 11
270.8450794551645
 21
-165.4873041997729
 31
0.0
  0
TEXT
  5
21B
  8
ZUWAKU
 62
     7
 10
101.9119920158317
 20
-175.1879010540338
 30
0.0
 40
2.5
  1
訂 正 来 歴
 41
0.717948717948718
  7
FDASTYLE1
 72
     5
 11
115.9119920158317
 21
-175.1879010540338
 31
0.0
  0
TEXT
  5
21C
  8
ZUWAKU
 62
     7
 10
125.890334846765
 20
-175.2166697391651
 30
0.0
 40
2.5
  1
工 事 番 号
 41
0.717948717948718
  7
FDASTYLE1
 72
     5
 11
139.890334846765
 21
-175.2166697391651
 31
0.0
  0
TEXT
  5
21D
  8
ZUWAKU
 62
     7
 10
99.96483784660289
 20
-165.9634530565915
 30
0.0
 40
2.0825
  1
記号
 41
0.8
  7
FDASTYLE0
  0
TEXT
  5
21E
  8
ZUWAKU
 62
     7
 10
105.9042249067618
 20
-165.9634530565915
 30
0.0
 40
2.0825
  1
理由
 41
0.8
  7
FDASTYLE0
  0
TEXT
  5
21F
  8
ZUWAKU
 62
     7
 10
111.6193667909843
 20
-169.8786046700178
 30
0.0
 40
3.0
  1
日 付
 41
0.7058823529411754
  7
FDASTYLE1
 72
     5
 11
118.8193667909843
 21
-169.8786046700178
 31
0.0
  0
TEXT
  5
220
  8
ZUWAKU
 62
     7
 10
153.4481689819652
 20
-165.7187911464244
 30
0.0
 40
3.0
  1
承   認
 41
0.7407407407407408
  7
FDASTYLE1
 72
     5
 11
165.4481689819652
 21
-165.7187911464244
 31
0.0
  0
TEXT
  5
221
  8
ZUWAKU
 62
     7
 10
179.863228033234
 20
-165.4873041997729
 30
0.0
 40
3.0
  1
検   図
 41
0.7407407407407408
  7
FDASTYLE1
 72
     5
 11
191.863228033234
 21
-165.4873041997729
 31
0.0
  0
TEXT
  5
222
  8
ZUWAKU
 62
     7
 10
201.4771920983751
 20
-165.4873041997729
 30
0.0
 40
3.0
  1
担  当
 41
0.7272727272727269
  7
FDASTYLE1
 72
     5
 11
211.0771920983751
 21
-165.4873041997729
 31
0.0
  0
TEXT
  5
223
  8
ZUWAKU
 62
     7
 10
214.6770574841112
 20
-165.4873041997729
 30
0.0
 40
3.0
  1
製  図
 41
0.7272727272727269
  7
FDASTYLE1
 72
     5
 11
224.2770574841112
 21
-165.4873041997729
 31
0.0
  0
TEXT
  5
224
  8
ZUWAKU
 62
     7
 10
226.9462372304199
 20
-153.2184960272417
 30
0.0
 40
3.0
  1
作図
 41
0.6666666666666683
  7
FDASTYLE1
 72
     5
 11
231.7462372304199
 21
-153.2184960272417
 31
0.0
  0
TEXT
  5
225
  8
ZUWAKU
 62
     7
 10
228.1036719636776
 20
-160.2371566401815
 30
0.0
 40
4.0
  1
第 三 角 法
 41
0.7179487179487182
  7
FDASTYLE1
 72
     5
 11
250.5036719636776
 21
-160.2371566401815
 31
0.0
  0
TEXT
  5
226
  8
ZUWAKU
 62
     7
 10
227.409211123723
 20
-166.413251986379
 30
0.0
 40
3.0
  1
尺度
 41
0.6666666666666683
  7
FDASTYLE1
 72
     5
 11
232.209211123723
 21
-166.413251986379
 31
0.0
  0
TEXT
  5
228
  8
ZUWAKU
 62
     3
 10
105.379154370034
 20
-185.9272077185017
 30
0.0
 40
7.0
  1
株式会社 野村製作所
 41
0.5763738641280831
  7
FDASTYLE2
 72
     5
 11
161.379154370034
 21
-185.9272077185017
 31
0.0
  0
TEXT
  5
22A
  8
ZUWAKU
 62
     3
 10
183.6118217934165
 20
-187.1216685584563
 30
0.0
 40
8.0
  1
２－
 41
0.8244023083264632
  7
FDASTYLE3
 72
     5
 11
199.6118217934165
 21
-187.1216685584563
 31
0.0
  0
TEXT
  5
22B
  8
ZUWAKU
 62
     3
 10
200.5237794178233
 20
-187.1216685584563
 30
0.0
 40
8.0
  1
9308105
 41
1.564945226917058
  7
FDASTYLE3
 72
     5
 11
256.5237794178233
 21
-187.1216685584563
 31
0.0
  0
TEXT
  5
22C
  8
ZUWAKU
 62
     6
 10
165.7570051766932
 20
-145.3589000228561
 30
0.0
 40
5.0
  1
外　形　図
 41
0.5833333333333334
  7
FDASTYLE1
 72
     5
 11
183.2570051766932
 21
-145.3589000228561
 31
0.0
  0
TEXT
  5
22D
  8
ZUWAKU
 62
     6
 10
155.3545934631717
 20
-157.829135039116
 30
0.0
 40
6.0
  1
MAC2-205A6型チャック
 41
0.65625
  7
FDASTYLE1
 72
     5
 11
218.3545934631717
 21
-157.829135039116
 31
0.0
  0
TEXT
  5
22E
  8
ZUWAKU
 62
     4
 10
239.3011788906399
 20
-172.297487439201
 30
0.0
 40
3.0
  1
1/1
 41
0.7000000000000013
  7
FDASTYLE1
 72
     5
 11
245.6011788906399
 21
-172.297487439201
 31
0.0
  0
LINE
  5
22F
  8
0
  6
CENTER
 62
     7
 10
-185.4833399606806
 20
40.88030820841758
 30
0.0
 11
-45.74342602025087
 21
40.88030820841758
 31
0.0
  0
LINE
  5
230
  8
0
  6
CENTER
 62
     7
 10
-86.75985973607118
 20
-1.119691791582419
 30
0.0
 11
-51.01926677952821
 21
-1.119691791582419
 31
0.0
  0
LINE
  5
231
  8
0
  6
CENTER
 62
     7
 10
-77.25680797825868
 20
123.8803127860543
 30
0.0
 11
-22.94749325047548
 21
123.8803127860543
 31
0.0
  0
LINE
  5
232
  8
0
  6
CENTER
 62
     7
 10
-77.25680797825868
 20
98.88031278605429
 30
0.0
 11
-22.94749325047548
 21
98.88031278605429
 31
0.0
  0
LINE
  5
233
  8
0
  6
CENTER
 62
     7
 10
30.9837377063065
 20
40.88030820841758
 30
0.0
 11
263.0807301989823
 21
40.88030820841758
 31
0.0
  0
LINE
  5
234
  8
0
  6
CENTER
 62
     7
 10
72.30797934449009
 20
114.8803082084176
 30
0.0
 11
100.6889407138144
 21
114.8803082084176
 31
0.0
  0
LINE
  5
235
  8
0
  6
CENTER
 62
     7
 10
73.85238985275436
 20
82.21782406770365
 30
0.0
 11
119.470287090445
 21
55.88032172747652
 31
0.0
  0
ARC
  5
236
  8
0
  6
CENTER
 62
     7
 10
145.4510610095292
 20
40.88030820841758
 30
0.0
 40
66.67500305175781
 50
136.2175498630691
 51
163.7824994663264
  0
LINE
  5
237
  8
0
  6
CENTER
 62
     7
 10
73.85241467900067
 20
-0.4571936290656922
 30
0.0
 11
119.4703044835352
 21
25.88030441962727
 31
0.0
  0
ARC
  5
238
  8
0
  6
CENTER
 62
     7
 10
145.4510610095292
 20
40.88030820841758
 30
0.0
 40
66.67500305175781
 50
196.2175005336736
 51
223.7824501369309
  0
LINE
  5
239
  8
0
  6
CENTER
 62
     7
 10
-193.1014331759616
 20
-25.79469484334023
 30
0.0
 11
-48.40546673070008
 21
-25.79469484334023
 31
0.0
  0
LINE
  5
23A
  8
0
  6
CENTER
 62
     7
 10
145.4510610095292
 20
153.5469647025582
 30
0.0
 11
145.4510610095292
 21
-72.45302003865274
 31
0.0
  0
LINE
  5
23B
  8
0
  6
CENTER
 62
     7
 10
190.4510610095292
 20
128.7463970756051
 30
0.0
 11
190.4510610095292
 21
99.88030820841757
 31
0.0
  0
LINE
  5
23C
  8
0
  6
CENTER
 62
     7
 10
100.4510610095292
 20
-18.11969179158242
 30
0.0
 11
100.4510610095292
 21
-47.39045900349648
 31
0.0
  0
LINE
  5
23D
  8
0
  6
CENTER
 62
     7
 10
175.4510610095292
 20
114.8803082084176
 30
0.0
 11
205.4510610095292
 21
114.8803082084176
 31
0.0
  0
LINE
  5
23E
  8
0
  6
CENTER
 62
     7
 10
85.45105338013462
 20
-33.11969179158242
 30
0.0
 11
115.4510533801346
 21
-33.11969179158242
 31
0.0
  0
LINE
  5
23F
  8
0
  6
CENTER
 62
     7
 10
130.4510610095292
 20
123.8803127860543
 30
0.0
 11
160.4510610095292
 21
123.8803127860543
 31
0.0
  0
LINE
  5
240
  8
0
  6
CENTER
 62
     7
 10
130.4510610095292
 20
98.88031278605429
 30
0.0
 11
160.4510610095292
 21
98.88031278605429
 31
0.0
  0
LINE
  5
241
  8
0
  6
CENTER
 62
     7
 10
130.4510610095292
 20
-42.11969636921913
 30
0.0
 11
160.4510610095292
 21
-42.11969636921913
 31
0.0
  0
LINE
  5
242
  8
0
  6
CENTER
 62
     7
 10
130.4510610095292
 20
-17.11969636921913
 30
0.0
 11
160.4510610095292
 21
-17.11969636921913
 31
0.0
  0
LINE
  5
243
  8
0
  6
CENTER
 62
     7
 10
110.8028282630268
 20
75.52857138850632
 30
0.0
 11
120.7023252133801
 21
65.62907527261817
 31
0.0
  0
ARC
  5
244
  8
0
  6
CENTER
 62
     7
 10
145.4510610095292
 20
40.88030820841758
 30
0.0
 40
42.0
 50
125.4396342961941
 51
166.42645203366
  0
LINE
  5
245
  8
0
  6
CENTER
 62
     7
 10
110.8028414128445
 20
6.232065281277563
 30
0.0
 11
120.7023370144986
 21
16.13156004846659
 31
0.0
  0
ARC
  5
246
  8
0
  6
CENTER
 62
     7
 10
145.4510610095292
 20
40.88030820841758
 30
0.0
 40
42.0
 50
193.5735616267183
 51
234.5603657038059
  0
LINE
  5
247
  8
0
  6
CENTER
 62
     7
 10
170.1998113138458
 20
16.13159334447827
 30
0.0
 11
180.0993069154999
 21
6.232098577289243
 31
0.0
  0
ARC
  5
248
  8
0
  6
CENTER
 62
     7
 10
145.4510610095292
 20
40.88030820841758
 30
0.0
 40
42.0
 50
305.4396087966703
 51
346.426419703947
  0
LINE
  5
249
  8
0
  6
CENTER
 62
     7
 10
171.4318139611725
 20
25.88032351561586
 30
0.0
 11
217.049707069332
 21
-0.45717644042562
 31
0.0
  0
ARC
  5
24A
  8
0
  6
CENTER
 62
     7
 10
145.4510610095292
 20
40.88030820841758
 30
0.0
 40
66.67500305175781
 50
316.2175175333561
 51
343.7824807969918
  0
LINE
  5
24B
  8
0
  6
CENTER
 62
     7
 10
171.4318577832621
 20
55.88031789027608
 30
0.0
 11
217.0497376769219
 21
82.21781021692348
 31
0.0
  0
LINE
  5
24C
  8
0
  6
CENTER
 62
     7
 10
170.1998150227689
 20
65.62903388441171
 30
0.0
 11
180.0993106244229
 21
75.52852865160074
 31
0.0
  0
ARC
  5
24D
  8
0
  6
CENTER
 62
     7
 10
145.4510610095292
 20
40.88030820841758
 30
0.0
 40
66.67500305175781
 50
16.21752261810282
 51
43.78246539117095
  0
ARC
  5
24E
  8
0
  6
CENTER
 62
     7
 10
145.4510610095292
 20
40.88030820841758
 30
0.0
 40
42.0
 50
13.57357944227934
 51
54.56037412785684
  0
LINE
  5
24F
  8
0
  6
DIVIDE
 62
     7
 10
-156.7434260202509
 20
77.38030820841757
 30
0.0
 11
-156.7434260202509
 21
24.47028928751914
 31
0.0
  0
LINE
  5
250
  8
0
  6
DIVIDE
 62
     7
 10
-156.7434118734598
 20
77.38029386263682
 30
0.0
 11
-156.2434113426651
 21
77.88029439343157
 31
0.0
  0
LINE
  5
251
  8
0
  6
DASHED2
 62
     7
 10
64.59779715454869
 20
103.8803082084176
 30
0.0
 11
85.45106100952916
 21
103.8803082084176
 31
0.0
  0
LINE
  5
252
  8
0
  6
DASHED2
 62
     7
 10
-69.74342602025087
 20
-15.79469484334023
 30
0.0
 11
-69.74342602025087
 21
-35.79469484334023
 31
0.0
  0
LINE
  5
253
  8
0
  6
DASHED2
 62
     7
 10
-69.74342602025087
 20
-15.79469484334023
 30
0.0
 11
-56.74342602025087
 21
-15.79469484334023
 31
0.0
  0
LINE
  5
254
  8
0
  6
DASHED2
 62
     7
 10
-69.74342602025087
 20
-34.79469484334023
 30
0.0
 11
-57.74342602025087
 21
-34.79469484334023
 31
0.0
  0
LINE
  5
255
  8
0
  6
DASHED2
 62
     7
 10
-69.74342602025087
 20
-16.79469484334023
 30
0.0
 11
-57.74342602025087
 21
-16.79469484334023
 31
0.0
  0
LINE
  5
256
  8
0
  6
DASHED2
 62
     7
 10
-189.7434260202509
 20
-31.79469484334023
 30
0.0
 11
-69.74342602025087
 21
-31.79469484334023
 31
0.0
  0
LINE
  5
257
  8
0
  6
DASHED2
 62
     7
 10
-189.7434260202509
 20
-19.79469484334023
 30
0.0
 11
-69.74342602025087
 21
-19.79469484334023
 31
0.0
  0
LINE
  5
258
  8
0
  6
DASHED2
 62
     7
 10
-69.74342602025087
 20
-35.79469484334023
 30
0.0
 11
-56.74342602025087
 21
-35.79469484334023
 31
0.0
  0
LINE
  5
259
  8
0
  6
DASHED2
 62
     7
 10
-57.74342602025087
 20
-16.79469484334023
 30
0.0
 11
-57.74342602025087
 21
-34.79469484334023
 31
0.0
  0
LINE
  5
25A
  8
0
  6
DASHED2
 62
     7
 10
-189.7434260202509
 20
-19.79469484334023
 30
0.0
 11
-189.7434260202509
 21
-31.79469484334023
 31
0.0
  0
LINE
  5
25B
  8
0
  6
DASHED2
 62
     7
 10
-153.7434260202509
 20
-19.79469484334023
 30
0.0
 11
-153.7434260202509
 21
-31.79469484334023
 31
0.0
  0
LINE
  5
25C
  8
0
  6
DASHED2
 62
     7
 10
-189.7434260202509
 20
-30.79469484334023
 30
0.0
 11
-153.7434260202509
 21
-30.79469484334023
 31
0.0
  0
LINE
  5
25D
  8
0
  6
DASHED2
 62
     7
 10
-189.7434260202509
 20
-20.79469484334023
 30
0.0
 11
-153.7434260202509
 21
-20.79469484334023
 31
0.0
  0
LINE
  5
25E
  8
0
  6
DASHED2
 62
     7
 10
173.4510610095292
 20
139.4817791556832
 30
0.0
 11
173.4510610095292
 21
118.3506832694527
 31
0.0
  0
LINE
  5
25F
  8
0
  6
DASHED2
 62
     7
 10
117.4510610095292
 20
139.4817791556832
 30
0.0
 11
117.4510610095292
 21
118.4691067313668
 31
0.0
  0
LINE
  5
260
  8
0
  6
DASHED2
 62
     7
 10
85.45106100952916
 20
123.9841518973824
 30
0.0
 11
85.45106100952916
 21
103.8803082084176
 31
0.0
  0
LINE
  5
261
  8
0
  6
DASHED2
 62
     7
 10
85.45106100952916
 20
106.8803082084176
 30
0.0
 11
96.11772513306431
 21
106.8803082084176
 31
0.0
  0
LINE
  5
262
  8
0
  6
DASHED2
 62
     7
 10
85.45106100952916
 20
122.880300579023
 30
0.0
 11
96.11772513306431
 21
122.880300579023
 31
0.0
  0
LINE
  5
263
  8
0
  6
DASHED2
 62
     7
 10
85.45105884414932
 20
110.8803249966748
 30
0.0
 11
93.65966269252965
 21
111.0236067021581
 31
0.0
  0
LINE
  5
264
  8
0
  6
DASHED2
 62
     7
 10
85.4510679517377
 20
118.8803271763907
 30
0.0
 11
93.66213571926456
 21
118.7370024630409
 31
0.0
  0
LINE
  5
265
  8
0
  6
DASHED2
 62
     7
 10
85.45107300154747
 20
118.0801869005159
 30
0.0
 11
93.66662616987357
 21
117.9367838942081
 31
0.0
  0
LINE
  5
266
  8
0
  6
DASHED2
 62
     7
 10
85.45107178849432
 20
111.6804501492356
 30
0.0
 11
93.66415340944124
 21
111.8238100145256
 31
0.0
  0
LINE
  5
267
  8
0
  6
DASHED2
 62
     7
 10
132.9510610095292
 20
140.8803082084176
 30
0.0
 11
132.9510610095292
 21
94.88030820841757
 31
0.0
  0
LINE
  5
268
  8
0
  6
DASHED2
 62
     7
 10
157.9510610095292
 20
140.8803082084176
 30
0.0
 11
157.9510610095292
 21
94.88030820841757
 31
0.0
  0
LINE
  5
269
  8
0
  6
DASHED2
 62
     7
 10
231.9510610095292
 20
36.88030820841758
 30
0.0
 11
231.9510610095292
 21
44.88030820841758
 31
0.0
  0
LINE
  5
26A
  8
0
  6
DASHED2
 62
     7
 10
227.9510610095292
 20
37.68031126017539
 30
0.0
 11
227.9510610095292
 21
44.08030515665977
 31
0.0
  0
LINE
  5
26B
  8
0
  6
DASHED2
 62
     7
 10
231.9510610095292
 20
44.88030820841758
 30
0.0
 11
247.8729817858963
 21
44.88030820841758
 31
0.0
  0
LINE
  5
26C
  8
0
  6
DASHED2
 62
     7
 10
231.9510610095292
 20
36.88030820841758
 30
0.0
 11
247.8729817858963
 21
36.88030820841758
 31
0.0
  0
LINE
  5
26D
  8
0
  6
DASHED2
 62
     7
 10
227.9510610095292
 20
37.68031126017539
 30
0.0
 11
247.9011037341385
 21
37.68031126017539
 31
0.0
  0
LINE
  5
26E
  8
0
  6
DASHED2
 62
     7
 10
227.9510610095292
 20
44.08030515665977
 30
0.0
 11
247.9011037341385
 21
44.08030515665977
 31
0.0
  0
LINE
  5
26F
  8
0
  6
DASHED2
 62
     7
 10
227.9510740458147
 20
37.68031419306207
 30
0.0
 11
226.1035552350369
 21
40.88031099481012
 31
0.0
  0
LINE
  5
270
  8
0
  6
DASHED2
 62
     7
 10
226.1035566415519
 20
40.88028667900588
 30
0.0
 11
227.9510754523296
 21
44.08028348075394
 31
0.0
  0
ARC
  5
271
  8
0
  6
DASHED2
 62
     7
 10
145.4510610095292
 20
94.88030820841757
 30
0.0
 40
12.5
 50
179.9999640278213
 51
227.1563277180197
  0
ARC
  5
272
  8
0
  6
DASHED2
 62
     7
 10
145.4510610095292
 20
94.88030820841757
 30
0.0
 40
12.5
 50
312.8436363098016
 51
360.0
  0
LINE
  5
273
  8
0
  6
DASHED2
 62
     7
 10
133.4510610095292
 20
133.3803204154488
 30
0.0
 11
136.9510610095292
 21
133.3803204154488
 31
0.0
  0
LINE
  5
274
  8
0
  6
DASHED2
 62
     7
 10
133.45107016214
 20
92.88032058774554
 30
0.0
 11
136.951071475333
 21
89.38031956958055
 31
0.0
  0
LINE
  5
275
  8
0
  6
DASHED2
 62
     7
 10
133.4510610095292
 20
133.3803204154488
 30
0.0
 11
133.4510610095292
 21
92.88031278605429
 31
0.0
  0
LINE
  5
276
  8
0
  6
DASHED2
 62
     7
 10
153.9510610095292
 20
133.3803204154488
 30
0.0
 11
157.4510610095292
 21
133.3803204154488
 31
0.0
  0
LINE
  5
277
  8
0
  6
DASHED2
 62
     7
 10
157.4510610095292
 20
133.3803204154488
 30
0.0
 11
157.4510610095292
 21
92.88031278605429
 31
0.0
  0
LINE
  5
278
  8
0
  6
DASHED2
 62
     7
 10
153.9510741556141
 20
89.38031055015433
 30
0.0
 11
157.4510781662056
 21
92.88031426571759
 31
0.0
  0
LINE
  5
279
  8
0
  6
CONTINUOUS
 62
     7
 10
126.4510610095292
 20
84.38030820841757
 30
0.0
 11
135.9510610095292
 21
84.38030820841757
 31
0.0
  0
LINE
  5
27A
  8
0
  6
CONTINUOUS
 62
     7
 10
129.2490956774979
 20
139.3803082084176
 30
0.0
 11
135.9510610095292
 21
139.3803082084176
 31
0.0
  0
LINE
  5
27B
  8
0
  6
CONTINUOUS
 62
     7
 10
154.9510610095292
 20
139.3803082084176
 30
0.0
 11
161.2123830310135
 21
139.3803082084176
 31
0.0
  0
LINE
  5
27C
  8
0
  6
CONTINUOUS
 62
     7
 10
154.9510610095292
 20
137.8803082084176
 30
0.0
 11
164.4510610095292
 21
137.8803082084176
 31
0.0
  0
LINE
  5
27D
  8
0
  6
CONTINUOUS
 62
     7
 10
154.9510610095292
 20
136.3803082084176
 30
0.0
 11
164.4510610095292
 21
136.3803082084176
 31
0.0
  0
LINE
  5
27E
  8
0
  6
CONTINUOUS
 62
     7
 10
154.9510610095292
 20
134.8803082084176
 30
0.0
 11
164.4510610095292
 21
134.8803082084176
 31
0.0
  0
LINE
  5
27F
  8
0
  6
CONTINUOUS
 62
     7
 10
154.9510610095292
 20
133.3803082084176
 30
0.0
 11
164.4510610095292
 21
133.3803082084176
 31
0.0
  0
LINE
  5
280
  8
0
  6
CONTINUOUS
 62
     7
 10
154.9510610095292
 20
131.8803082084176
 30
0.0
 11
164.4510610095292
 21
131.8803082084176
 31
0.0
  0
LINE
  5
281
  8
0
  6
CONTINUOUS
 62
     7
 10
126.4510610095292
 20
137.8803082084176
 30
0.0
 11
135.9510610095292
 21
137.8803082084176
 31
0.0
  0
LINE
  5
282
  8
0
  6
CONTINUOUS
 62
     7
 10
126.4510610095292
 20
136.3803082084176
 30
0.0
 11
135.9510610095292
 21
136.3803082084176
 31
0.0
  0
LINE
  5
283
  8
0
  6
CONTINUOUS
 62
     7
 10
126.4510610095292
 20
134.8803082084176
 30
0.0
 11
135.9510610095292
 21
134.8803082084176
 31
0.0
  0
LINE
  5
284
  8
0
  6
CONTINUOUS
 62
     7
 10
126.4510610095292
 20
133.3803082084176
 30
0.0
 11
135.9510610095292
 21
133.3803082084176
 31
0.0
  0
LINE
  5
285
  8
0
  6
CONTINUOUS
 62
     7
 10
126.4510610095292
 20
131.8803082084176
 30
0.0
 11
135.9510610095292
 21
131.8803082084176
 31
0.0
  0
LINE
  5
286
  8
0
  6
CONTINUOUS
 62
     7
 10
126.4510610095292
 20
85.88030820841757
 30
0.0
 11
135.9510610095292
 21
85.88030820841757
 31
0.0
  0
LINE
  5
287
  8
0
  6
CONTINUOUS
 62
     7
 10
126.4510610095292
 20
87.38030820841757
 30
0.0
 11
135.9510610095292
 21
87.38030820841757
 31
0.0
  0
LINE
  5
288
  8
0
  6
CONTINUOUS
 62
     7
 10
126.4510610095292
 20
88.88030820841757
 30
0.0
 11
135.9510610095292
 21
88.88030820841757
 31
0.0
  0
LINE
  5
289
  8
0
  6
CONTINUOUS
 62
     7
 10
126.4510610095292
 20
90.38030820841757
 30
0.0
 11
135.9510610095292
 21
90.38030820841757
 31
0.0
  0
LINE
  5
28A
  8
0
  6
CONTINUOUS
 62
     7
 10
126.4510610095292
 20
91.88030820841757
 30
0.0
 11
135.9510610095292
 21
91.88030820841757
 31
0.0
  0
LINE
  5
28B
  8
0
  6
CONTINUOUS
 62
     7
 10
-105.1399781438558
 20
-130.3886454983231
 30
0.0
 11
-105.1399781438558
 21
-175.3886454983231
 31
0.0
  0
LINE
  5
28C
  8
0
  6
CONTINUOUS
 62
     7
 10
-245.1399781438558
 20
-170.3886454983231
 30
0.0
 11
-105.1399781438558
 21
-170.3886454983231
 31
0.0
  0
LINE
  5
28D
  8
0
  6
CONTINUOUS
 62
     7
 10
-245.1399781438558
 20
-165.3886454983231
 30
0.0
 11
-105.1399781438558
 21
-165.3886454983231
 31
0.0
  0
LINE
  5
28E
  8
0
  6
CONTINUOUS
 62
     7
 10
-245.1399781438558
 20
-160.3886454983231
 30
0.0
 11
-105.1399781438558
 21
-160.3886454983231
 31
0.0
  0
LINE
  5
28F
  8
0
  6
CONTINUOUS
 62
     7
 10
-245.1399781438558
 20
-155.3886454983231
 30
0.0
 11
-225.1399781438558
 21
-155.3886454983231
 31
0.0
  0
LINE
  5
290
  8
0
  6
CONTINUOUS
 62
     7
 10
-245.1399781438558
 20
-150.3886454983231
 30
0.0
 11
-105.1399781438558
 21
-150.3886454983231
 31
0.0
  0
LINE
  5
291
  8
0
  6
CONTINUOUS
 62
     7
 10
-245.1399781438558
 20
-145.3886454983231
 30
0.0
 11
-105.1399781438558
 21
-145.3886454983231
 31
0.0
  0
LINE
  5
292
  8
0
  6
CONTINUOUS
 62
     7
 10
-245.1399781438558
 20
-140.3886454983231
 30
0.0
 11
-105.1399781438558
 21
-140.3886454983231
 31
0.0
  0
LINE
  5
293
  8
0
  6
CONTINUOUS
 62
     7
 10
-245.1399781438558
 20
-135.3886454983231
 30
0.0
 11
-105.1399781438558
 21
-135.3886454983231
 31
0.0
  0
LINE
  5
294
  8
0
  6
CONTINUOUS
 62
     7
 10
-245.1399781438558
 20
-130.3886454983231
 30
0.0
 11
-105.1399781438558
 21
-130.3886454983231
 31
0.0
  0
LINE
  5
295
  8
0
  6
CONTINUOUS
 62
     7
 10
-225.1399781438558
 20
-130.3886454983231
 30
0.0
 11
-225.1399781438558
 21
-158.916447011995
 31
0.0
  0
LINE
  5
296
  8
0
  6
CONTINUOUS
 62
     7
 10
-205.1399781438558
 20
-130.3886454983231
 30
0.0
 11
-205.1399781438558
 21
-165.3886454983231
 31
0.0
  0
LINE
  5
297
  8
0
  6
CONTINUOUS
 62
     7
 10
-185.1399781438558
 20
-130.3886454983231
 30
0.0
 11
-185.1399781438558
 21
-165.3886454983231
 31
0.0
  0
LINE
  5
298
  8
0
  6
CONTINUOUS
 62
     7
 10
-165.1399781438558
 20
-130.3886454983231
 30
0.0
 11
-165.1399781438558
 21
-165.3886454983231
 31
0.0
  0
LINE
  5
299
  8
0
  6
CONTINUOUS
 62
     7
 10
-145.1399781438558
 20
-130.3886454983231
 30
0.0
 11
-145.1399781438558
 21
-155.3886454983231
 31
0.0
  0
LINE
  5
29A
  8
0
  6
CONTINUOUS
 62
     7
 10
-125.1399781438558
 20
-130.3886454983231
 30
0.0
 11
-125.1399781438558
 21
-175.3886454983231
 31
0.0
  0
LINE
  5
29B
  8
0
  6
CONTINUOUS
 62
     7
 10
-225.1399781438558
 20
-155.3886454983231
 30
0.0
 11
-105.1399781438558
 21
-155.3886454983231
 31
0.0
  0
LINE
  5
29C
  8
0
  6
CONTINUOUS
 62
     7
 10
-205.1399781438558
 20
-170.3886454983231
 30
0.0
 11
-205.1399781438558
 21
-175.3886454983231
 31
0.0
  0
LINE
  5
29D
  8
0
  6
CONTINUOUS
 62
     7
 10
-185.1399781438558
 20
-170.3886454983231
 30
0.0
 11
-185.1399781438558
 21
-175.3886454983231
 31
0.0
  0
LINE
  5
29E
  8
0
  6
CONTINUOUS
 62
     7
 10
-165.1399781438558
 20
-170.3886454983231
 30
0.0
 11
-165.1399781438558
 21
-175.3886454983231
 31
0.0
  0
LINE
  5
29F
  8
0
  6
CONTINUOUS
 62
     7
 10
-145.1399781438558
 20
-155.3886454983231
 30
0.0
 11
-145.1399781438558
 21
-175.3886454983231
 31
0.0
  0
LINE
  5
2A0
  8
0
  6
CONTINUOUS
 62
     7
 10
-225.1399781438558
 20
-158.916447011995
 30
0.0
 11
-225.1399781438558
 21
-175.3886454983231
 31
0.0
  0
LINE
  5
2A1
  8
0
  6
CONTINUOUS
 62
     3
 10
-171.7434260202509
 20
143.3803082084176
 30
0.0
 11
-171.7434260202509
 21
-19.79469484334023
 31
0.0
  0
LINE
  5
2A2
  8
0
  6
CONTINUOUS
 62
     3
 10
-56.74342602025087
 20
141.3803082084176
 30
0.0
 11
-56.74342602025087
 21
140.8803082084176
 31
0.0
  0
LINE
  5
2A3
  8
0
  6
CONTINUOUS
 62
     3
 10
-171.7434260202509
 20
-61.61969942097696
 30
0.0
 11
-58.74342602025087
 21
-61.61969942097696
 31
0.0
  0
LINE
  5
2A4
  8
0
  6
CONTINUOUS
 62
     3
 10
-171.7434260202509
 20
143.3803082084176
 30
0.0
 11
-97.24342602025087
 21
143.3803082084176
 31
0.0
  0
LINE
  5
2A5
  8
0
  6
CONTINUOUS
 62
     3
 10
-56.74343984158448
 20
-59.61969047406745
 30
0.0
 11
-58.74344196476348
 21
-61.61969259724646
 31
0.0
  0
LINE
  5
2A6
  8
0
  6
CONTINUOUS
 62
     3
 10
-170.7434260202509
 20
133.3803082084176
 30
0.0
 11
-170.7434260202509
 21
-19.79469484334023
 31
0.0
  0
LINE
  5
2A7
  8
0
  6
CONTINUOUS
 62
     3
 10
-171.7434260202509
 20
133.3803082084176
 30
0.0
 11
-170.7434260202509
 21
133.3803082084176
 31
0.0
  0
LINE
  5
2A8
  8
0
  6
CONTINUOUS
 62
     3
 10
-171.7434260202509
 20
-51.61969942097695
 30
0.0
 11
-170.7434260202509
 21
-51.61969942097695
 31
0.0
  0
LINE
  5
2A9
  8
0
  6
CONTINUOUS
 62
     3
 10
-70.74342602025087
 20
82.88030820841757
 30
0.0
 11
-70.74342602025087
 21
71.88030820841757
 31
0.0
  0
LINE
  5
2AA
  8
0
  6
CONTINUOUS
 62
     3
 10
-154.7434260202509
 20
3.880308208417581
 30
0.0
 11
-70.74342602025087
 21
3.880308208417581
 31
0.0
  0
LINE
  5
2AB
  8
0
  6
CONTINUOUS
 62
     3
 10
-154.7434260202509
 20
77.88030820841757
 30
0.0
 11
-95.2434305330478
 21
77.88030820841757
 31
0.0
  0
LINE
  5
2AC
  8
0
  6
CONTINUOUS
 62
     3
 10
-70.74342602025087
 20
-7.119691791582419
 30
0.0
 11
-56.74342602025087
 21
-7.119691791582419
 31
0.0
  0
LINE
  5
2AD
  8
0
  6
CONTINUOUS
 62
     3
 10
-150.7434260202509
 20
137.3803082084176
 30
0.0
 11
-97.24342602025087
 21
137.3803082084176
 31
0.0
  0
LINE
  5
2AE
  8
0
  6
CONTINUOUS
 62
     3
 10
-97.24342602025087
 20
143.3803082084176
 30
0.0
 11
-97.24342602025087
 21
130.8803082084176
 31
0.0
  0
LINE
  5
2AF
  8
0
  6
CONTINUOUS
 62
     3
 10
-83.74342602025087
 20
141.4101543998238
 30
0.0
 11
-83.74342602025087
 21
140.8803082084176
 31
0.0
  0
LINE
  5
2B0
  8
0
  6
CONTINUOUS
 62
     3
 10
-70.74342602025087
 20
141.3803082084176
 30
0.0
 11
-70.74342602025087
 21
140.8803082084176
 31
0.0
  0
LINE
  5
2B1
  8
0
  6
CONTINUOUS
 62
     3
 10
-97.24342602025087
 20
140.8803082084176
 30
0.0
 11
-54.74342602025087
 21
140.8803082084176
 31
0.0
  0
LINE
  5
2B2
  8
0
  6
CONTINUOUS
 62
     3
 10
-70.74342602025087
 20
82.88030820841757
 30
0.0
 11
-54.74342602025087
 21
82.88030820841757
 31
0.0
  0
LINE
  5
2B3
  8
0
  6
CONTINUOUS
 62
     3
 10
-83.74342602025087
 20
75.88030820841757
 30
0.0
 11
-70.74342602025087
 21
75.88030820841757
 31
0.0
  0
LINE
  5
2B4
  8
0
  6
CONTINUOUS
 62
     3
 10
-56.74342602025087
 20
81.56040006632773
 30
0.0
 11
-56.74342602025087
 21
-59.61969179158243
 31
0.0
  0
LINE
  5
2B5
  8
0
  6
CONTINUOUS
 62
     3
 10
-97.24341350263818
 20
89.38030355308908
 30
0.0
 11
-83.74341961240167
 21
75.88031080081689
 31
0.0
  0
LINE
  5
2B6
  8
0
  6
CONTINUOUS
 62
     3
 10
-74.74342602025087
 20
82.38030820841757
 30
0.0
 11
-70.74342602025087
 21
82.38030820841757
 31
0.0
  0
LINE
  5
2B7
  8
0
  6
CONTINUOUS
 62
     3
 10
-65.74342602025087
 20
140.8803082084176
 30
0.0
 11
-65.74342602025087
 21
133.3803204154488
 31
0.0
  0
LINE
  5
2B8
  8
0
  6
CONTINUOUS
 62
     3
 10
-74.74342602025087
 20
140.8803082084176
 30
0.0
 11
-74.74342602025087
 21
82.38030820841757
 31
0.0
  0
LINE
  5
2B9
  8
0
  6
CONTINUOUS
 62
     3
 10
-97.24342602025087
 20
141.4101543998238
 30
0.0
 11
-83.74342602025087
 21
141.4101543998238
 31
0.0
  0
LINE
  5
2BA
  8
0
  6
CONTINUOUS
 62
     3
 10
-70.74342602025087
 20
141.4101543998238
 30
0.0
 11
-56.74342602025087
 21
141.4101543998238
 31
0.0
  0
LINE
  5
2BB
  8
0
  6
CONTINUOUS
 62
     3
 10
-80.24342602025087
 20
71.88030820841757
 30
0.0
 11
-80.24342602025087
 21
68.88030820841757
 31
0.0
  0
LINE
  5
2BC
  8
0
  6
CONTINUOUS
 62
     3
 10
-80.24342602025087
 20
9.880308208417581
 30
0.0
 11
-70.74342602025087
 21
9.880308208417581
 31
0.0
  0
LINE
  5
2BD
  8
0
  6
CONTINUOUS
 62
     3
 10
-80.24342602025087
 20
71.88030820841757
 30
0.0
 11
-70.74342602025087
 21
71.88030820841757
 31
0.0
  0
LINE
  5
2BE
  8
0
  6
CONTINUOUS
 62
     3
 10
-91.74342602025087
 20
68.88030820841757
 30
0.0
 11
-56.74342602025087
 21
68.88030820841757
 31
0.0
  0
LINE
  5
2BF
  8
0
  6
CONTINUOUS
 62
     3
 10
-91.74342602025087
 20
12.88030820841758
 30
0.0
 11
-56.74342602025087
 21
12.88030820841758
 31
0.0
  0
LINE
  5
2C0
  8
0
  6
CONTINUOUS
 62
     3
 10
-70.74342602025087
 20
9.880310115766214
 30
0.0
 11
-70.74342602025087
 21
2.380310115766214
 31
0.0
  0
LINE
  5
2C1
  8
0
  6
CONTINUOUS
 62
     3
 10
-80.24342602025087
 20
12.88031011576621
 30
0.0
 11
-80.24342602025087
 21
9.880310115766214
 31
0.0
  0
LINE
  5
2C2
  8
0
  6
CONTINUOUS
 62
     3
 10
-70.74342602025087
 20
79.38030820841757
 30
0.0
 11
-69.24342602025087
 21
79.38030820841757
 31
0.0
  0
LINE
  5
2C3
  8
0
  6
CONTINUOUS
 62
     3
 10
-69.24342102998202
 20
79.380316234802
 30
0.0
 11
-56.7434161791229
 21
72.16343586662177
 31
0.0
  0
LINE
  5
2C4
  8
0
  6
CONTINUOUS
 62
     3
 10
-63.74342602025087
 20
4.380310115766214
 30
0.0
 11
-63.74342602025087
 21
-6.619689884233786
 31
0.0
  0
LINE
  5
2C5
  8
0
  6
CONTINUOUS
 62
     3
 10
-63.74342602025087
 20
-6.619691791582419
 30
0.0
 11
-56.74342602025087
 21
-6.619691791582419
 31
0.0
  0
LINE
  5
2C6
  8
0
  6
CONTINUOUS
 62
     3
 10
-63.74342602025087
 20
4.380308208417581
 30
0.0
 11
-56.74342602025087
 21
4.380308208417581
 31
0.0
  0
LINE
  5
2C7
  8
0
  6
CONTINUOUS
 62
     3
 10
-70.74342602025087
 20
-4.619691791582419
 30
0.0
 11
-63.74342602025087
 21
-4.619691791582419
 31
0.0
  0
LINE
  5
2C8
  8
0
  6
CONTINUOUS
 62
     3
 10
-70.74342602025087
 20
2.380308208417581
 30
0.0
 11
-63.74342602025087
 21
2.380308208417581
 31
0.0
  0
LINE
  5
2C9
  8
0
  6
CONTINUOUS
 62
     3
 10
-70.74342602025087
 20
-4.619689884233786
 30
0.0
 11
-70.74342602025087
 21
-7.119689884233786
 31
0.0
  0
LINE
  5
2CA
  8
0
  6
CONTINUOUS
 62
     3
 10
-74.04342907200868
 20
133.3803204154488
 30
0.0
 11
-52.24342602025087
 21
133.3803204154488
 31
0.0
  0
LINE
  5
2CB
  8
0
  6
CONTINUOUS
 62
     3
 10
-74.04342907200868
 20
89.38031278605429
 30
0.0
 11
-52.24342602025087
 21
89.38031278605429
 31
0.0
  0
LINE
  5
2CC
  8
0
  6
CONTINUOUS
 62
     3
 10
-52.24342602025087
 20
133.3803204154488
 30
0.0
 11
-52.24342602025087
 21
129.8803204154488
 31
0.0
  0
LINE
  5
2CD
  8
0
  6
CONTINUOUS
 62
     3
 10
-74.04342907200868
 20
133.3803204154488
 30
0.0
 11
-74.04342907200868
 21
89.38031278605429
 31
0.0
  0
LINE
  5
2CE
  8
0
  6
CONTINUOUS
 62
     3
 10
-52.24342602025087
 20
92.88031278605429
 30
0.0
 11
-52.24342602025087
 21
89.38031278605429
 31
0.0
  0
LINE
  5
2CF
  8
0
  6
CONTINUOUS
 62
     3
 10
-65.74342602025087
 20
89.38031278605429
 30
0.0
 11
-65.74342602025087
 21
82.88030820841757
 31
0.0
  0
LINE
  5
2D0
  8
0
  6
CONTINUOUS
 62
     3
 10
-52.24342602025087
 20
117.8803127860543
 30
0.0
 11
-52.24342602025087
 21
104.8803127860543
 31
0.0
  0
LINE
  5
2D1
  8
0
  6
CONTINUOUS
 62
     3
 10
-41.74342602025087
 20
132.8803204154488
 30
0.0
 11
-41.74342602025087
 21
114.8803127860543
 31
0.0
  0
LINE
  5
2D2
  8
0
  6
CONTINUOUS
 62
     3
 10
-41.74342602025087
 20
107.8803127860543
 30
0.0
 11
-41.74342602025087
 21
89.88031278605429
 31
0.0
  0
LINE
  5
2D3
  8
0
  6
CONTINUOUS
 62
     3
 10
-29.74342602025087
 20
107.8803127860543
 30
0.0
 11
-29.74342602025087
 21
89.88031278605429
 31
0.0
  0
LINE
  5
2D4
  8
0
  6
CONTINUOUS
 62
     3
 10
-29.74342602025087
 20
132.8803204154488
 30
0.0
 11
-29.74342602025087
 21
114.8803127860543
 31
0.0
  0
LINE
  5
2D5
  8
0
  6
CONTINUOUS
 62
     3
 10
-74.04342907200868
 20
104.8803127860543
 30
0.0
 11
-41.74342602025087
 21
104.8803127860543
 31
0.0
  0
LINE
  5
2D6
  8
0
  6
CONTINUOUS
 62
     3
 10
-74.04342907200868
 20
92.88031278605429
 30
0.0
 11
-41.74342602025087
 21
92.88031278605429
 31
0.0
  0
LINE
  5
2D7
  8
0
  6
CONTINUOUS
 62
     3
 10
-74.04342907200868
 20
117.8803127860543
 30
0.0
 11
-41.74342602025087
 21
117.8803127860543
 31
0.0
  0
LINE
  5
2D8
  8
0
  6
CONTINUOUS
 62
     3
 10
-74.04342907200868
 20
129.8803204154488
 30
0.0
 11
-41.74342602025087
 21
129.8803204154488
 31
0.0
  0
LINE
  5
2D9
  8
0
  6
CONTINUOUS
 62
     3
 10
-71.74342602025087
 20
129.8803204154488
 30
0.0
 11
-71.74342602025087
 21
117.8803127860543
 31
0.0
  0
LINE
  5
2DA
  8
0
  6
CONTINUOUS
 62
     3
 10
-71.74342602025087
 20
104.8803127860543
 30
0.0
 11
-71.74342602025087
 21
92.88031278605429
 31
0.0
  0
LINE
  5
2DB
  8
0
  6
CONTINUOUS
 62
     3
 10
-41.74342602025087
 20
107.8803127860543
 30
0.0
 11
-29.74342602025087
 21
107.8803127860543
 31
0.0
  0
LINE
  5
2DC
  8
0
  6
CONTINUOUS
 62
     3
 10
-41.74342602025087
 20
89.88031278605429
 30
0.0
 11
-29.74342602025087
 21
89.88031278605429
 31
0.0
  0
LINE
  5
2DD
  8
0
  6
CONTINUOUS
 62
     3
 10
-41.74342602025087
 20
132.8803204154488
 30
0.0
 11
-29.74342602025087
 21
132.8803204154488
 31
0.0
  0
LINE
  5
2DE
  8
0
  6
CONTINUOUS
 62
     3
 10
-41.74342602025087
 20
114.8803127860543
 30
0.0
 11
-29.74342602025087
 21
114.8803127860543
 31
0.0
  0
LINE
  5
2DF
  8
0
  6
CONTINUOUS
 62
     3
 10
-170.7434260202509
 20
-31.79469484334023
 30
0.0
 11
-170.7434260202509
 21
-51.61969179158242
 31
0.0
  0
LINE
  5
2E0
  8
0
  6
CONTINUOUS
 62
     3
 10
-171.7434260202509
 20
-31.79469484334023
 30
0.0
 11
-171.7434260202509
 21
-61.61969179158243
 31
0.0
  0
LINE
  5
2E1
  8
0
  6
CONTINUOUS
 62
     3
 10
-81.74342602025087
 20
1.880310115766214
 30
0.0
 11
-81.74342602025087
 21
-4.119689884233786
 31
0.0
  0
LINE
  5
2E2
  8
0
  6
CONTINUOUS
 62
     3
 10
-57.74342602025087
 20
3.880310115766214
 30
0.0
 11
-57.74342602025087
 21
-6.119689884233786
 31
0.0
  0
LINE
  5
2E3
  8
0
  6
CONTINUOUS
 62
     3
 10
-63.74342602025087
 20
-6.119691791582419
 30
0.0
 11
-57.74342602025087
 21
-6.119691791582419
 31
0.0
  0
LINE
  5
2E4
  8
0
  6
CONTINUOUS
 62
     3
 10
-63.74342602025087
 20
3.880308208417581
 30
0.0
 11
-57.74342602025087
 21
3.880308208417581
 31
0.0
  0
LINE
  5
2E5
  8
0
  6
CONTINUOUS
 62
     3
 10
-81.74342602025087
 20
-4.119691791582419
 30
0.0
 11
-63.74342602025087
 21
-4.119691791582419
 31
0.0
  0
LINE
  5
2E6
  8
0
  6
CONTINUOUS
 62
     3
 10
-81.74342602025087
 20
1.880308208417581
 30
0.0
 11
-63.74342602025087
 21
1.880308208417581
 31
0.0
  0
LINE
  5
2E7
  8
0
  6
CONTINUOUS
 62
     3
 10
-146.7434260202509
 20
77.38030820841757
 30
0.0
 11
-146.7434260202509
 21
4.380310115766214
 31
0.0
  0
LINE
  5
2E8
  8
0
  6
CONTINUOUS
 62
     3
 10
-91.74342602025087
 20
74.38030057902304
 30
0.0
 11
-91.74342602025087
 21
68.88030820841757
 31
0.0
  0
LINE
  5
2E9
  8
0
  6
CONTINUOUS
 62
     3
 10
-66.74342602025087
 20
68.88030820841757
 30
0.0
 11
-66.74342602025087
 21
12.88031011576621
 31
0.0
  0
LINE
  5
2EA
  8
0
  6
CONTINUOUS
 62
     3
 10
-121.7434260202509
 20
65.88030820841757
 30
0.0
 11
-66.74342602025087
 21
65.88030820841757
 31
0.0
  0
LINE
  5
2EB
  8
0
  6
CONTINUOUS
 62
     3
 10
-121.7434260202509
 20
15.88030820841758
 30
0.0
 11
-66.74342602025087
 21
15.88030820841758
 31
0.0
  0
LINE
  5
2EC
  8
0
  6
CONTINUOUS
 62
     3
 10
-91.74342602025087
 20
12.88031011576621
 30
0.0
 11
-91.74342602025087
 21
7.380310115766214
 31
0.0
  0
LINE
  5
2ED
  8
0
  6
CONTINUOUS
 62
     3
 10
-95.2434305330478
 20
77.88030820841757
 30
0.0
 11
-91.74343036000613
 21
74.3803042000105
 31
0.0
  0
LINE
  5
2EE
  8
0
  6
CONTINUOUS
 62
     3
 10
-91.74341300249699
 20
7.380311262912564
 30
0.0
 11
-95.24341671806025
 21
3.880307547349311
 31
0.0
  0
LINE
  5
2EF
  8
0
  6
CONTINUOUS
 62
     3
 10
-146.7434093497596
 20
4.380316170338837
 30
0.0
 11
-146.2434088189648
 21
3.880315639544087
 31
0.0
  0
LINE
  5
2F0
  8
0
  6
CONTINUOUS
 62
     3
 10
-146.743444415937
 20
77.38029386263682
 30
0.0
 11
-146.2434438851422
 21
77.88029439343157
 31
0.0
  0
LINE
  5
2F1
  8
0
  6
CONTINUOUS
 62
     3
 10
-121.7434260202509
 20
70.38030820841757
 30
0.0
 11
-121.7434260202509
 21
11.38031011576621
 31
0.0
  0
LINE
  5
2F2
  8
0
  6
CONTINUOUS
 62
     3
 10
-124.7434260202509
 20
70.38030820841757
 30
0.0
 11
-124.7434260202509
 21
56.94698148722618
 31
0.0
  0
LINE
  5
2F3
  8
0
  6
CONTINUOUS
 62
     3
 10
-123.7434260202509
 20
10.38030820841758
 30
0.0
 11
-122.7434260202509
 21
10.38030820841758
 31
0.0
  0
LINE
  5
2F4
  8
0
  6
CONTINUOUS
 62
     3
 10
-123.7434260202509
 20
71.38030820841757
 30
0.0
 11
-122.7434260202509
 21
71.38030820841757
 31
0.0
  0
LINE
  5
2F5
  8
0
  6
CONTINUOUS
 62
     3
 10
-145.7434260202509
 20
70.08031278605429
 30
0.0
 11
-145.7434260202509
 21
56.82585721964805
 31
0.0
  0
LINE
  5
2F6
  8
0
  6
CONTINUOUS
 62
     3
 10
-145.7434120313429
 20
70.08031270516202
 30
0.0
 11
-146.7434111541753
 21
71.08031570550864
 31
0.0
  0
LINE
  5
2F7
  8
0
  6
CONTINUOUS
 62
     3
 10
-145.7434053548905
 20
11.6802903598198
 30
0.0
 11
-146.7434019489102
 21
10.68029562025348
 31
0.0
  0
LINE
  5
2F8
  8
0
  6
CONTINUOUS
 62
     3
 10
-145.7434260202509
 20
23.8793964957711
 30
0.0
 11
-145.7434260202509
 21
11.68030935282676
 31
0.0
  0
LINE
  5
2F9
  8
0
  6
CONTINUOUS
 62
     3
 10
-124.7434260202509
 20
23.8793964957711
 30
0.0
 11
-124.7434260202509
 21
11.38031011576621
 31
0.0
  0
LINE
  5
2FA
  8
0
  6
CONTINUOUS
 62
     3
 10
-124.9434229684931
 20
-41.61969942097695
 30
0.0
 11
-118.5434290720087
 21
-41.61969942097695
 31
0.0
  0
LINE
  5
2FB
  8
0
  6
CONTINUOUS
 62
     3
 10
-124.9434229684931
 20
-41.61969942097695
 30
0.0
 11
-124.9434229684931
 21
-61.61969942097696
 31
0.0
  0
LINE
  5
2FC
  8
0
  6
CONTINUOUS
 62
     3
 10
-118.5434290720087
 20
-41.61969942097695
 30
0.0
 11
-118.5434290720087
 21
-61.61969942097696
 31
0.0
  0
LINE
  5
2FD
  8
0
  6
CONTINUOUS
 62
     3
 10
-124.9434292007692
 20
-41.61970083811294
 30
0.0
 11
-121.7434323990211
 21
-39.77218202733521
 31
0.0
  0
LINE
  5
2FE
  8
0
  6
CONTINUOUS
 62
     3
 10
-121.7434288333446
 20
-39.77218057588467
 30
0.0
 11
-118.5434320315965
 21
-41.6196993866624
 31
0.0
  0
ARC
  5
2FF
  8
0
  6
CONTINUOUS
 62
     3
 10
-123.7434260202509
 20
70.38030820841757
 30
0.0
 40
1.0
 50
89.99998201391065
 51
179.9999640278213
  0
ARC
  5
300
  8
0
  6
CONTINUOUS
 62
     3
 10
-122.7434260202509
 20
70.38030820841757
 30
0.0
 40
1.0
 50
0.0
 51
89.99998201391065
  0
ARC
  5
301
  8
0
  6
CONTINUOUS
 62
     3
 10
-122.7434260202509
 20
11.38030820841758
 30
0.0
 40
1.0
 50
270.0000179860894
 51
360.0
  0
ARC
  5
302
  8
0
  6
CONTINUOUS
 62
     3
 10
-123.7434260202509
 20
11.38030820841758
 30
0.0
 40
1.0
 50
179.9999813306654
 51
270.0000179860894
  0
LINE
  5
303
  8
0
  6
CONTINUOUS
 62
     3
 10
-170.743425659795
 20
-12.29969079395629
 30
0.0
 11
-154.7434287065295
 21
-10.2996958601401
 31
0.0
  0
LINE
  5
304
  8
0
  6
CONTINUOUS
 62
     3
 10
-154.7434260202509
 20
9.808911547897658
 30
0.0
 11
-154.7434260202509
 21
-10.29969591145547
 31
0.0
  0
LINE
  5
305
  8
0
  6
CONTINUOUS
 62
     3
 10
-154.7434260202509
 20
92.06030851359336
 30
0.0
 11
-154.7434260202509
 21
9.808911547897658
 31
0.0
  0
LINE
  5
306
  8
0
  6
CONTINUOUS
 62
     3
 10
-170.7434389857578
 20
94.0603021725008
 30
0.0
 11
-154.7434420324923
 21
92.0603072386846
 31
0.0
  0
CIRCLE
  5
307
  8
0
  6
CONTINUOUS
 62
     3
 10
145.4510610095292
 20
40.88030820841758
 30
0.0
 40
102.5
  0
ARC
  5
308
  8
0
  6
CONTINUOUS
 62
     3
 10
145.4510610095292
 20
40.88030820841758
 30
0.0
 40
100.5
 50
101.4787979330341
 51
258.5211847641219
  0
CIRCLE
  5
309
  8
0
  6
CONTINUOUS
 62
     3
 10
87.70878195679478
 20
74.21780973429648
 30
0.0
 40
7.0
  0
CIRCLE
  5
30A
  8
0
  6
CONTINUOUS
 62
     3
 10
87.70878195679478
 20
74.21780973429648
 30
0.0
 40
10.0
  0
CIRCLE
  5
30B
  8
0
  6
CONTINUOUS
 62
     3
 10
87.70881247437291
 20
7.542814311933206
 30
0.0
 40
10.0
  0
LINE
  5
30C
  8
0
  6
CONTINUOUS
 62
     3
 10
125.4510610095292
 20
141.4101543998238
 30
0.0
 11
125.4510610095292
 21
72.17030912394492
 31
0.0
  0
LINE
  5
30D
  8
0
  6
CONTINUOUS
 62
     3
 10
165.4510610095292
 20
141.4101543998238
 30
0.0
 11
165.4510610095292
 21
72.40244108195273
 31
0.0
  0
LINE
  5
30E
  8
0
  6
CONTINUOUS
 62
     3
 10
165.4510610095292
 20
9.590311107587503
 30
0.0
 11
165.4510610095292
 21
-59.64953798298867
 31
0.0
  0
LINE
  5
30F
  8
0
  6
CONTINUOUS
 62
     3
 10
125.4510610095292
 20
9.590311107587503
 30
0.0
 11
125.4510610095292
 21
-59.64953798298867
 31
0.0
  0
LINE
  5
310
  8
0
  6
CONTINUOUS
 62
     3
 10
130.4510610095292
 20
140.8803082084176
 30
0.0
 11
160.4510610095292
 21
140.8803082084176
 31
0.0
  0
LINE
  5
311
  8
0
  6
CONTINUOUS
 62
     3
 10
130.4510610095292
 20
-59.11969942097695
 30
0.0
 11
160.4510610095292
 21
-59.11969942097695
 31
0.0
  0
LINE
  5
312
  8
0
  6
CONTINUOUS
 62
     3
 10
125.45105428091
 20
139.5405207167567
 30
0.0
 11
130.4510645456127
 21
140.8802692862917
 31
0.0
  0
LINE
  5
313
  8
0
  6
CONTINUOUS
 62
     3
 10
160.4510401778682
 20
-59.11968578314119
 30
0.0
 11
165.4510504425709
 21
-57.77993721360618
 31
0.0
  0
LINE
  5
314
  8
0
  6
CONTINUOUS
 62
     3
 10
125.4510554784262
 20
-57.77994685704672
 30
0.0
 11
130.4510510042707
 21
-59.11969147731698
 31
0.0
  0
LINE
  5
315
  8
0
  6
CONTINUOUS
 62
     3
 10
160.4510640127721
 20
140.8802851713029
 30
0.0
 11
165.4510300609001
 21
139.5405484495621
 31
0.0
  0
LINE
  5
316
  8
0
  6
CONTINUOUS
 62
     3
 10
125.4510533801346
 20
-1.119691791582419
 30
0.0
 11
136.9510610095292
 21
-1.119691791582419
 31
0.0
  0
LINE
  5
317
  8
0
  6
CONTINUOUS
 62
     3
 10
153.9510610095292
 20
82.88030820841757
 30
0.0
 11
165.4510610095292
 21
82.88030820841757
 31
0.0
  0
LINE
  5
318
  8
0
  6
CONTINUOUS
 62
     3
 10
153.9510610095292
 20
-1.119691791582419
 30
0.0
 11
165.4510610095292
 21
-1.119691791582419
 31
0.0
  0
LINE
  5
319
  8
0
  6
CONTINUOUS
 62
     3
 10
125.4510533801346
 20
2.380308208417581
 30
0.0
 11
165.4510610095292
 21
2.380308208417581
 31
0.0
  0
LINE
  5
31A
  8
0
  6
CONTINUOUS
 62
     3
 10
125.4510533801346
 20
79.38030820841757
 30
0.0
 11
165.4510610095292
 21
79.38030820841757
 31
0.0
  0
LINE
  5
31B
  8
0
  6
CONTINUOUS
 62
     3
 10
125.4510533801346
 20
72.17030912394492
 30
0.0
 11
165.4510610095292
 21
72.17030912394492
 31
0.0
  0
LINE
  5
31C
  8
0
  6
CONTINUOUS
 62
     3
 10
125.4510533801346
 20
9.590307292890238
 30
0.0
 11
165.4510610095292
 21
9.590307292890238
 31
0.0
  0
LINE
  5
31D
  8
0
  6
CONTINUOUS
 62
     3
 10
184.7511138573947
 20
114.8803504425522
 30
0.0
 11
187.6011131182968
 21
109.9440039764085
 31
0.0
  0
LINE
  5
31E
  8
0
  6
CONTINUOUS
 62
     3
 10
187.6010549060135
 20
109.9439602469918
 30
0.0
 11
193.3010671130448
 21
109.9439602469918
 31
0.0
  0
LINE
  5
31F
  8
0
  6
CONTINUOUS
 62
     3
 10
193.3010302661298
 20
109.9439673024761
 30
0.0
 11
196.1510397671174
 21
114.8803205485645
 31
0.0
  0
LINE
  5
320
  8
0
  6
CONTINUOUS
 62
     3
 10
196.1511186539216
 20
114.8803488825417
 30
0.0
 11
193.3011191873841
 21
119.8166972670382
 31
0.0
  0
LINE
  5
321
  8
0
  6
CONTINUOUS
 62
     3
 10
193.3010671130448
 20
119.8166561698434
 30
0.0
 11
187.6010549060135
 21
119.8166561698434
 31
0.0
  0
LINE
  5
322
  8
0
  6
CONTINUOUS
 62
     3
 10
187.6011132799274
 20
119.8166455448871
 30
0.0
 11
184.7511061571701
 21
114.8802906000626
 31
0.0
  0
LINE
  5
323
  8
0
  6
CONTINUOUS
 62
     3
 10
94.75107513234337
 20
-33.1196797519112
 30
0.0
 11
97.60107224747929
 21
-38.05602250147668
 31
0.0
  0
LINE
  5
324
  8
0
  6
CONTINUOUS
 62
     3
 10
97.60105490601353
 20
-38.0560397530082
 30
0.0
 11
103.3010518542557
 21
-38.0560397530082
 31
0.0
  0
LINE
  5
325
  8
0
  6
CONTINUOUS
 62
     3
 10
103.3010220142764
 20
-38.05602282966796
 30
0.0
 11
106.1510238858604
 21
-33.11968279807282
 31
0.0
  0
LINE
  5
326
  8
0
  6
CONTINUOUS
 62
     3
 10
106.1510837725181
 20
-33.11969040480786
 30
0.0
 11
103.3010871670016
 21
-28.18334697574979
 31
0.0
  0
LINE
  5
327
  8
0
  6
CONTINUOUS
 62
     3
 10
103.3010518542557
 20
-28.18334383015664
 30
0.0
 11
97.60105490601353
 21
-28.18334383015664
 31
0.0
  0
LINE
  5
328
  8
0
  6
CONTINUOUS
 62
     3
 10
97.6010731141975
 20
-28.18336260542193
 30
0.0
 11
94.75107266716287
 21
-33.11970598756076
 31
0.0
  0
ARC
  5
329
  8
0
  6
CONTINUOUS
 62
     3
 10
145.4510610095292
 20
40.88030820841758
 30
0.0
 40
100.5
 50
0.0
 51
78.52122073630059
  0
CIRCLE
  5
32A
  8
0
  6
CONTINUOUS
 62
     3
 10
100.4510610095292
 20
-33.11969179158242
 30
0.0
 40
9.0
  0
CIRCLE
  5
32B
  8
0
  6
CONTINUOUS
 62
     3
 10
190.4510610095292
 20
114.8803082084176
 30
0.0
 40
9.0
  0
ARC
  5
32C
  8
0
  6
CONTINUOUS
 62
     3
 10
145.4510610095292
 20
40.88030820841758
 30
0.0
 40
48.0
 50
294.6243184346569
 51
321.3399852410419
  0
ARC
  5
32D
  8
0
  6
CONTINUOUS
 62
     3
 10
145.4510610095292
 20
40.88030820841758
 30
0.0
 40
100.5
 50
281.4787792636994
 51
360.0
  0
ARC
  5
32E
  8
0
  6
CONTINUOUS
 62
     3
 10
145.4510610095292
 20
-13.11969179158242
 30
0.0
 40
12.5
 50
47.15635686000923
 51
132.8436549791363
  0
CIRCLE
  5
32F
  8
0
  6
CONTINUOUS
 62
     3
 10
145.4510610095292
 20
40.88030820841758
 30
0.0
 40
28.0
  0
CIRCLE
  5
330
  8
0
  6
CONTINUOUS
 62
     3
 10
190.4510610095292
 20
114.8803082084176
 30
0.0
 40
2.400000095367432
  0
CIRCLE
  5
331
  8
0
  6
CONTINUOUS
 62
     3
 10
190.4510610095292
 20
114.8803082084176
 30
0.0
 40
3.299999952316284
  0
CIRCLE
  5
332
  8
0
  6
CONTINUOUS
 62
     3
 10
100.4510610095292
 20
-33.11969179158242
 30
0.0
 40
2.400000095367432
  0
CIRCLE
  5
333
  8
0
  6
CONTINUOUS
 62
     3
 10
100.4510610095292
 20
-33.11969179158242
 30
0.0
 40
3.299999952316284
  0
CIRCLE
  5
334
  8
0
  6
CONTINUOUS
 62
     3
 10
145.4510610095292
 20
40.88030820841758
 30
0.0
 40
25.0
  0
ARC
  5
335
  8
0
  6
CONTINUOUS
 62
     3
 10
145.4510610095292
 20
94.88030820841757
 30
0.0
 40
12.5
 50
227.1563450208637
 51
312.8436363098016
  0
LINE
  5
336
  8
0
  6
CONTINUOUS
 62
     3
 10
136.9510610095292
 20
140.8803082084176
 30
0.0
 11
136.9510610095292
 21
126.8383526776041
 31
0.0
  0
LINE
  5
337
  8
0
  6
CONTINUOUS
 62
     3
 10
136.9510610095292
 20
89.38031278605429
 30
0.0
 11
153.9510610095292
 21
89.38031278605429
 31
0.0
  0
LINE
  5
338
  8
0
  6
CONTINUOUS
 62
     3
 10
140.3847989280056
 20
126.8053144414167
 30
0.0
 11
145.4510558732017
 21
129.7303122628615
 31
0.0
  0
LINE
  5
339
  8
0
  6
CONTINUOUS
 62
     3
 10
145.4510421845168
 20
118.0302865143054
 30
0.0
 11
140.3847974255675
 21
120.9552899356109
 31
0.0
  0
LINE
  5
33A
  8
0
  6
CONTINUOUS
 62
     3
 10
140.3848073474198
 20
120.955317363691
 30
0.0
 11
140.3848073474198
 21
126.8053082084176
 31
0.0
  0
LINE
  5
33B
  8
0
  6
CONTINUOUS
 62
     3
 10
140.3847966567623
 20
101.8053129670467
 30
0.0
 11
145.4510536019583
 21
104.7303107884914
 31
0.0
  0
LINE
  5
33C
  8
0
  6
CONTINUOUS
 62
     3
 10
145.451020770253
 20
93.03028635003155
 30
0.0
 11
140.3847760113037
 21
95.95528977133706
 31
0.0
  0
LINE
  5
33D
  8
0
  6
CONTINUOUS
 62
     3
 10
140.3848073474198
 20
95.95531736369101
 30
0.0
 11
140.3848073474198
 21
101.8053158378121
 31
0.0
  0
LINE
  5
33E
  8
0
  6
CONTINUOUS
 62
     3
 10
136.9510610095292
 20
95.92227289450449
 30
0.0
 11
136.9510610095292
 21
82.88030820841757
 31
0.0
  0
LINE
  5
33F
  8
0
  6
CONTINUOUS
 62
     3
 10
136.9510610095292
 20
120.9222728945045
 30
0.0
 11
136.9510610095292
 21
101.8383511161324
 31
0.0
  0
LINE
  5
340
  8
0
  6
CONTINUOUS
 62
     3
 10
136.9510610095292
 20
133.3803204154488
 30
0.0
 11
153.9510610095292
 21
133.3803204154488
 31
0.0
  0
CIRCLE
  5
341
  8
0
  6
CONTINUOUS
 62
     3
 10
145.4510610095292
 20
123.8803127860543
 30
0.0
 40
9.0
  0
CIRCLE
  5
342
  8
0
  6
CONTINUOUS
 62
     3
 10
145.4510610095292
 20
98.88031278605429
 30
0.0
 40
9.0
  0
LINE
  5
343
  8
0
  6
CONTINUOUS
 62
     3
 10
153.9510610095292
 20
140.8803082084176
 30
0.0
 11
153.9510610095292
 21
126.8383526776041
 31
0.0
  0
LINE
  5
344
  8
0
  6
CONTINUOUS
 62
     3
 10
153.9510610095292
 20
95.92227289450449
 30
0.0
 11
153.9510610095292
 21
82.88030820841757
 31
0.0
  0
LINE
  5
345
  8
0
  6
CONTINUOUS
 62
     3
 10
153.9510610095292
 20
120.9222728945045
 30
0.0
 11
153.9510610095292
 21
101.8383511161324
 31
0.0
  0
LINE
  5
346
  8
0
  6
CONTINUOUS
 62
     3
 10
145.4511023499464
 20
104.7303538475172
 30
0.0
 11
150.5173453654604
 21
101.8053472880279
 31
0.0
  0
LINE
  5
347
  8
0
  6
CONTINUOUS
 62
     3
 10
150.5173146716385
 20
101.8053082084176
 30
0.0
 11
150.5173146716385
 21
95.95530973429648
 31
0.0
  0
LINE
  5
348
  8
0
  6
CONTINUOUS
 62
     3
 10
150.5173114194071
 20
95.95530439306238
 30
0.0
 11
145.4510544742111
 21
93.0303065716176
 31
0.0
  0
LINE
  5
349
  8
0
  6
CONTINUOUS
 62
     3
 10
145.451108584742
 20
129.7303524439251
 30
0.0
 11
150.517348296634
 21
126.8053477917893
 31
0.0
  0
LINE
  5
34A
  8
0
  6
CONTINUOUS
 62
     3
 10
150.5173146716385
 20
126.8053082084176
 30
0.0
 11
150.5173146716385
 21
120.9553097342965
 31
0.0
  0
LINE
  5
34B
  8
0
  6
CONTINUOUS
 62
     3
 10
150.5173098759601
 20
120.9553124746859
 30
0.0
 11
145.451052930764
 21
118.0303146532411
 31
0.0
  0
LINE
  5
34C
  8
0
  6
CONTINUOUS
 62
     3
 10
136.9510610095292
 20
-59.11969179158241
 30
0.0
 11
136.9510610095292
 21
-45.07773626076894
 31
0.0
  0
LINE
  5
34D
  8
0
  6
CONTINUOUS
 62
     3
 10
136.9510610095292
 20
-7.619696369219128
 30
0.0
 11
153.9510610095292
 21
-7.619696369219128
 31
0.0
  0
LINE
  5
34E
  8
0
  6
CONTINUOUS
 62
     3
 10
140.3847989280056
 20
-45.04469802458152
 30
0.0
 11
145.4510558732017
 21
-47.96969584602628
 31
0.0
  0
LINE
  5
34F
  8
0
  6
CONTINUOUS
 62
     3
 10
145.4510421845168
 20
-36.26967009747023
 30
0.0
 11
140.3847974255675
 21
-39.19467351877574
 31
0.0
  0
LINE
  5
350
  8
0
  6
CONTINUOUS
 62
     3
 10
140.3848073474198
 20
-39.19470094685585
 30
0.0
 11
140.3848073474198
 21
-45.04469179158241
 31
0.0
  0
LINE
  5
351
  8
0
  6
CONTINUOUS
 62
     3
 10
140.3847966567623
 20
-20.04469655021148
 30
0.0
 11
145.4510536019583
 21
-22.96969437165626
 31
0.0
  0
LINE
  5
352
  8
0
  6
CONTINUOUS
 62
     3
 10
145.451020770253
 20
-11.26966993319638
 30
0.0
 11
140.3847760113037
 21
-14.1946733545019
 31
0.0
  0
LINE
  5
353
  8
0
  6
CONTINUOUS
 62
     3
 10
140.3848073474198
 20
-14.19470094685585
 30
0.0
 11
140.3848073474198
 21
-20.04469942097694
 31
0.0
  0
LINE
  5
354
  8
0
  6
CONTINUOUS
 62
     3
 10
136.9510610095292
 20
-51.61970399861365
 30
0.0
 11
153.9510610095292
 21
-51.61970399861365
 31
0.0
  0
CIRCLE
  5
355
  8
0
  6
CONTINUOUS
 62
     3
 10
145.4510610095292
 20
-42.11969636921913
 30
0.0
 40
9.0
  0
CIRCLE
  5
356
  8
0
  6
CONTINUOUS
 62
     3
 10
145.4510610095292
 20
-17.11969636921913
 30
0.0
 40
9.0
  0
LINE
  5
357
  8
0
  6
CONTINUOUS
 62
     3
 10
153.9510610095292
 20
-59.11969179158241
 30
0.0
 11
153.9510610095292
 21
-45.07773626076894
 31
0.0
  0
LINE
  5
358
  8
0
  6
CONTINUOUS
 62
     3
 10
153.9510610095292
 20
-14.16165647766933
 30
0.0
 11
153.9510610095292
 21
-1.119691791582412
 31
0.0
  0
LINE
  5
359
  8
0
  6
CONTINUOUS
 62
     3
 10
153.9510610095292
 20
-39.16165647766933
 30
0.0
 11
153.9510610095292
 21
-20.07773469929725
 31
0.0
  0
LINE
  5
35A
  8
0
  6
CONTINUOUS
 62
     3
 10
145.4511023499464
 20
-22.96973743068202
 30
0.0
 11
150.5173453654604
 21
-20.04473087119277
 31
0.0
  0
LINE
  5
35B
  8
0
  6
CONTINUOUS
 62
     3
 10
150.5173146716385
 20
-20.04469179158241
 30
0.0
 11
150.5173146716385
 21
-14.19469331746132
 31
0.0
  0
LINE
  5
35C
  8
0
  6
CONTINUOUS
 62
     3
 10
150.5173114194071
 20
-14.19468797622722
 30
0.0
 11
145.4510544742111
 21
-11.26969015478244
 31
0.0
  0
LINE
  5
35D
  8
0
  6
CONTINUOUS
 62
     3
 10
145.451108584742
 20
-47.96973602708998
 30
0.0
 11
150.517348296634
 21
-45.04473137495415
 31
0.0
  0
LINE
  5
35E
  8
0
  6
CONTINUOUS
 62
     3
 10
150.5173146716385
 20
-45.04469179158241
 30
0.0
 11
150.5173146716385
 21
-39.19469331746132
 31
0.0
  0
LINE
  5
35F
  8
0
  6
CONTINUOUS
 62
     3
 10
150.5173098759601
 20
-39.19469605785071
 30
0.0
 11
145.451052930764
 21
-36.26969823640593
 31
0.0
  0
LINE
  5
360
  8
0
  6
CONTINUOUS
 62
     3
 10
136.9510610095292
 20
-39.16165647766933
 30
0.0
 11
136.9510610095292
 21
-20.07773469929725
 31
0.0
  0
LINE
  5
361
  8
0
  6
CONTINUOUS
 62
     3
 10
136.9510610095292
 20
-14.16165647766933
 30
0.0
 11
136.9510610095292
 21
-1.119691791582412
 31
0.0
  0
CIRCLE
  5
362
  8
0
  6
CONTINUOUS
 62
     3
 10
203.1932790271073
 20
7.542806682538675
 30
0.0
 40
7.0
  0
CIRCLE
  5
363
  8
0
  6
CONTINUOUS
 62
     3
 10
203.1932790271073
 20
7.542806682538675
 30
0.0
 40
10.0
  0
CIRCLE
  5
364
  8
0
  6
CONTINUOUS
 62
     3
 10
203.1933095446854
 20
74.21780973429648
 30
0.0
 40
7.0
  0
CIRCLE
  5
365
  8
0
  6
CONTINUOUS
 62
     3
 10
203.1933095446854
 20
74.21780973429648
 30
0.0
 40
10.0
  0
LINE
  5
366
  8
0
  6
CONTINUOUS
 62
     4
 10
-54.74342602025087
 20
140.8803082084176
 30
0.0
 11
-54.74342602025087
 21
133.3803204154488
 31
0.0
  0
LINE
  5
367
  8
0
  6
CONTINUOUS
 62
     4
 10
-55.74342602025087
 20
140.8803082084176
 30
0.0
 11
-55.74342602025087
 21
133.3803204154488
 31
0.0
  0
LINE
  5
368
  8
0
  6
CONTINUOUS
 62
     4
 10
-54.74342602025087
 20
89.38031278605429
 30
0.0
 11
-54.74342602025087
 21
82.88030820841757
 31
0.0
  0
LINE
  5
369
  8
0
  6
CONTINUOUS
 62
     4
 10
-55.74342602025087
 20
89.38031278605429
 30
0.0
 11
-55.74342602025087
 21
82.88030820841757
 31
0.0
  0
LINE
  5
36A
  8
0
  6
CONTINUOUS
 62
     4
 10
-74.04342907200868
 20
118.8803127860543
 30
0.0
 11
-41.74342602025087
 21
118.8803127860543
 31
0.0
  0
LINE
  5
36B
  8
0
  6
CONTINUOUS
 62
     4
 10
-74.04342907200868
 20
128.8803204154488
 30
0.0
 11
-41.74342602025087
 21
128.8803204154488
 31
0.0
  0
LINE
  5
36C
  8
0
  6
CONTINUOUS
 62
     4
 10
-74.04342907200868
 20
103.8803127860543
 30
0.0
 11
-41.74342602025087
 21
103.8803127860543
 31
0.0
  0
LINE
  5
36D
  8
0
  6
CONTINUOUS
 62
     4
 10
-74.04342907200868
 20
93.88031278605429
 30
0.0
 11
-41.74342602025087
 21
93.88031278605429
 31
0.0
  0
LINE
  5
36E
  8
0
  6
CONTINUOUS
 62
     4
 10
-145.7434260202509
 20
70.08031278605429
 30
0.0
 11
-124.7434260202509
 21
70.08031278605429
 31
0.0
  0
LINE
  5
36F
  8
0
  6
CONTINUOUS
 62
     4
 10
-145.7434260202509
 20
11.68031126017539
 30
0.0
 11
-124.7434260202509
 21
11.68031126017539
 31
0.0
  0
LINE
  5
370
  8
0
  6
CONTINUOUS
 62
     4
 10
-117.7434260202509
 20
-45.61969942097695
 30
0.0
 11
-117.7434260202509
 21
-61.61969942097696
 31
0.0
  0
LINE
  5
371
  8
0
  6
CONTINUOUS
 62
     4
 10
-125.7434260202509
 20
-45.61969942097695
 30
0.0
 11
-125.7434260202509
 21
-61.61969942097696
 31
0.0
  0
CIRCLE
  5
372
  8
0
  6
CONTINUOUS
 62
     4
 10
190.4510610095292
 20
114.8803082084176
 30
0.0
 40
0.75
  0
CIRCLE
  5
373
  8
0
  6
CONTINUOUS
 62
     4
 10
100.4510610095292
 20
-33.11969179158242
 30
0.0
 40
0.75
  0
CIRCLE
  5
374
  8
0
  6
CONTINUOUS
 62
     4
 10
115.7525746814042
 20
70.57879453654257
 30
0.0
 40
3.0
  0
CIRCLE
  5
375
  8
0
  6
CONTINUOUS
 62
     4
 10
115.7525746814042
 20
11.18182950968711
 30
0.0
 40
3.0
  0
CIRCLE
  5
376
  8
0
  6
CONTINUOUS
 62
     4
 10
175.149516820076
 20
11.18182188029258
 30
0.0
 40
3.0
  0
CIRCLE
  5
377
  8
0
  6
CONTINUOUS
 62
     4
 10
175.1495473376542
 20
70.57879453654257
 30
0.0
 40
3.0
  0
LINE
  5
378
  8
0
  6
CONTINUOUS
 62
     3
 10
-81.74342602025087
 20
1.380308208417581
 30
0.0
 11
-63.74342602025087
 21
1.380308208417581
 31
0.0
  0
LINE
  5
379
  8
0
  6
CONTINUOUS
 62
     3
 10
-81.74342602025087
 20
-3.619691791582419
 30
0.0
 11
-63.74342602025087
 21
-3.619691791582419
 31
0.0
  0
LINE
  5
37A
  8
0
  6
CONTINUOUS
 62
     3
 10
-146.5434290720087
 20
10.88030820841758
 30
0.0
 11
-124.6094538522821
 21
10.88030820841758
 31
0.0
  0
LINE
  5
37B
  8
0
  6
CONTINUOUS
 62
     3
 10
-146.5434290720087
 20
70.88030820841757
 30
0.0
 11
-124.6094538522821
 21
70.88030820841757
 31
0.0
  0
LINE
  5
37C
  8
0
  6
CONTINUOUS
 62
     3
 10
-125.7434260202509
 20
-45.61969942097695
 30
0.0
 11
-117.7434260202509
 21
-45.61969942097695
 31
0.0
  0
LINE
  5
37D
  8
0
  6
CONTINUOUS
 62
     3
 10
154.9510610095292
 20
84.38030820841757
 30
0.0
 11
164.4510610095292
 21
84.38030820841757
 31
0.0
  0
LINE
  5
37E
  8
0
  6
CONTINUOUS
 62
     3
 10
154.9510610095292
 20
85.88030820841757
 30
0.0
 11
164.4510610095292
 21
85.88030820841757
 31
0.0
  0
LINE
  5
37F
  8
0
  6
CONTINUOUS
 62
     3
 10
154.9510610095292
 20
87.38030820841757
 30
0.0
 11
164.4510610095292
 21
87.38030820841757
 31
0.0
  0
LINE
  5
380
  8
0
  6
CONTINUOUS
 62
     3
 10
154.9510610095292
 20
88.88030820841757
 30
0.0
 11
164.4510610095292
 21
88.88030820841757
 31
0.0
  0
LINE
  5
381
  8
0
  6
CONTINUOUS
 62
     3
 10
154.9510610095292
 20
90.38030820841757
 30
0.0
 11
164.4510610095292
 21
90.38030820841757
 31
0.0
  0
LINE
  5
382
  8
0
  6
CONTINUOUS
 62
     3
 10
154.9510610095292
 20
91.88030820841757
 30
0.0
 11
164.4510610095292
 21
91.88030820841757
 31
0.0
  0
LINE
  5
383
  8
0
  6
CONTINUOUS
 62
     4
 10
-60.74342999595422
 20
-1.919691154685062
 30
0.0
 11
-58.54342723931507
 21
-3.189863198117529
 31
0.0
  0
LINE
  5
384
  8
0
  6
CONTINUOUS
 62
     4
 10
-62.94343183919057
 20
-3.18986427340959
 30
0.0
 11
-60.74342908255142
 21
-1.919692229977123
 31
0.0
  0
LINE
  5
385
  8
0
  6
CONTINUOUS
 62
     4
 10
-59.14343160061026
 20
-1.919691011175324
 30
0.0
 11
-58.54342724484513
 21
-2.266103649218927
 31
0.0
  0
LINE
  5
386
  8
0
  6
CONTINUOUS
 62
     4
 10
-62.94343087998624
 20
-2.266106376323442
 30
0.0
 11
-62.34342652422112
 21
-1.91969373827984
 31
0.0
  0
LINE
  5
387
  8
0
  6
CONTINUOUS
 62
     4
 10
-62.94343184472064
 20
-4.113623822308192
 30
0.0
 11
-59.14342738358255
 21
-1.919690466138341
 31
0.0
  0
LINE
  5
388
  8
0
  6
CONTINUOUS
 62
     4
 10
-62.94343089657644
 20
-5.037385023019247
 30
0.0
 11
-58.54342868692305
 21
-2.497042843502833
 31
0.0
  0
LINE
  5
389
  8
0
  6
CONTINUOUS
 62
     4
 10
-61.83240202384451
 20
-5.319691820844774
 30
0.0
 11
-58.54342869245312
 21
-3.420802392401434
 31
0.0
  0
LINE
  5
38A
  8
0
  6
CONTINUOUS
 62
     4
 10
-60.23239937120138
 20
-5.319691708818446
 30
0.0
 11
-58.54342774430893
 21
-4.34456359311249
 31
0.0
  0
LINE
  5
38B
  8
0
  6
CONTINUOUS
 62
     4
 10
-62.34342839129818
 20
-1.919691298194799
 30
0.0
 11
-58.543427233785
 21
-4.11362274701613
 31
0.0
  0
LINE
  5
38C
  8
0
  6
CONTINUOUS
 62
     4
 10
-62.94343039158258
 20
-2.497041768210771
 30
0.0
 11
-58.54342818192919
 21
-5.037383947727186
 31
0.0
  0
LINE
  5
38D
  8
0
  6
CONTINUOUS
 62
     4
 10
-62.94343038605251
 20
-3.420801317109373
 30
0.0
 11
-59.65445705466112
 21
-5.319690745552713
 31
0.0
  0
LINE
  5
38E
  8
0
  6
CONTINUOUS
 62
     4
 10
-62.94343038052244
 20
-4.344560866007974
 30
0.0
 11
-61.25445545000508
 21
-5.31969088906245
 31
0.0
  0
LINE
  5
38F
  8
0
  6
CONTINUOUS
 62
     4
 10
-40.74342447515284
 20
119.9935650388604
 30
0.0
 11
-35.74342616879659
 21
122.8803150880492
 31
0.0
  0
LINE
  5
390
  8
0
  6
CONTINUOUS
 62
     4
 10
-40.74342734129488
 20
94.99356025140413
 30
0.0
 11
-35.74341912406391
 21
97.88031602263841
 31
0.0
  0
LINE
  5
391
  8
0
  6
CONTINUOUS
 62
     4
 10
-35.74341381762707
 20
97.88031828570395
 30
0.0
 11
-30.7434237703331
 21
94.99357300488653
 31
0.0
  0
LINE
  5
392
  8
0
  6
CONTINUOUS
 62
     4
 10
-35.74342380209106
 20
122.880318373259
 30
0.0
 11
-30.74342054029745
 21
119.9935654630475
 31
0.0
  0
LINE
  5
393
  8
0
  6
CONTINUOUS
 62
     4
 10
-32.74341404633589
 20
97.88031860155122
 30
0.0
 11
-30.74342595611807
 21
96.7256250668607
 31
0.0
  0
LINE
  5
394
  8
0
  6
CONTINUOUS
 62
     4
 10
-40.7434251555099
 20
96.72561231337831
 30
0.0
 11
-38.74342054716755
 21
97.88031538481143
 31
0.0
  0
LINE
  5
395
  8
0
  6
CONTINUOUS
 62
     4
 10
-40.7434294076898
 20
121.7256218007359
 30
0.0
 11
-38.74342810297236
 21
122.8803229648205
 31
0.0
  0
LINE
  5
396
  8
0
  6
CONTINUOUS
 62
     4
 10
-32.74342403079987
 20
122.8803186891062
 30
0.0
 11
-30.74342272608243
 21
121.7256175250216
 31
0.0
  0
LINE
  5
397
  8
0
  6
CONTINUOUS
 62
     4
 10
-38.74343018063206
 20
122.8803218721087
 30
0.0
 11
-30.74342496176229
 21
118.2615172157703
 31
0.0
  0
LINE
  5
398
  8
0
  6
CONTINUOUS
 62
     4
 10
-40.74342269231471
 20
122.3029671595221
 30
0.0
 11
-30.74342277597731
 21
116.5294651537962
 31
0.0
  0
LINE
  5
399
  8
0
  6
CONTINUOUS
 62
     4
 10
-40.74342711377955
 20
120.570918912245
 30
0.0
 11
-32.61907345337801
 21
115.8803216576467
 31
0.0
  0
LINE
  5
39A
  8
0
  6
CONTINUOUS
 62
     4
 10
-40.74342492799457
 20
118.8388668502708
 30
0.0
 11
-35.61907322466919
 21
115.8803213417994
 31
0.0
  0
LINE
  5
39B
  8
0
  6
CONTINUOUS
 62
     4
 10
-40.74342274220959
 20
117.1068147882966
 30
0.0
 11
-38.61907299596038
 21
115.8803210259521
 31
0.0
  0
LINE
  5
39C
  8
0
  6
CONTINUOUS
 62
     4
 10
-38.74341358891826
 20
97.88031796985668
 30
0.0
 11
-30.74342158454812
 21
93.26152094291236
 31
0.0
  0
LINE
  5
39D
  8
0
  6
CONTINUOUS
 62
     4
 10
-40.74342592235036
 20
97.30297470136118
 30
0.0
 11
-30.74342600601295
 21
91.52947269563522
 31
0.0
  0
LINE
  5
39E
  8
0
  6
CONTINUOUS
 62
     4
 10
-40.74342373656538
 20
95.57092263938701
 30
0.0
 11
-32.61905686166421
 21
90.88031775539464
 31
0.0
  0
LINE
  5
39F
  8
0
  6
CONTINUOUS
 62
     4
 10
-40.7434215507804
 20
93.83887057741283
 30
0.0
 11
-35.61906324020521
 21
90.88032125424441
 31
0.0
  0
LINE
  5
3A0
  8
0
  6
CONTINUOUS
 62
     4
 10
-40.74342597224523
 20
92.1068223301357
 30
0.0
 11
-38.61906301149639
 21
90.88032093839713
 31
0.0
  0
LINE
  5
3A1
  8
0
  6
CONTINUOUS
 62
     4
 10
-40.74342704936117
 20
93.26150961994135
 30
0.0
 11
-32.74342100458517
 21
97.88031475311688
 31
0.0
  0
LINE
  5
3A2
  8
0
  6
CONTINUOUS
 62
     4
 10
-40.74342593152124
 20
91.5294594653157
 30
0.0
 11
-30.74342518927762
 21
97.30296194787879
 31
0.0
  0
LINE
  5
3A3
  8
0
  6
CONTINUOUS
 62
     4
 10
-38.86777608002677
 20
90.8803154923291
 30
0.0
 11
-30.74342407143769
 21
95.57091179325313
 31
0.0
  0
LINE
  5
3A4
  8
0
  6
CONTINUOUS
 62
     4
 10
-35.86777630873559
 20
90.88031517648183
 30
0.0
 11
-30.74342625722267
 21
93.83885973127896
 31
0.0
  0
LINE
  5
3A5
  8
0
  6
CONTINUOUS
 62
     4
 10
-32.8677765374444
 20
90.88031486063456
 30
0.0
 11
-30.74342513938274
 21
92.10680957665331
 31
0.0
  0
LINE
  5
3A6
  8
0
  6
CONTINUOUS
 62
     4
 10
-40.74342666093781
 20
118.2615129768863
 30
0.0
 11
-32.7434263975054
 21
122.8803147722019
 31
0.0
  0
LINE
  5
3A7
  8
0
  6
CONTINUOUS
 62
     4
 10
-40.74342554309789
 20
116.5294628222606
 30
0.0
 11
-30.74342727857294
 21
122.3029638743123
 31
0.0
  0
LINE
  5
3A8
  8
0
  6
CONTINUOUS
 62
     4
 10
-38.867781472947
 20
115.8803155114141
 30
0.0
 11
-30.74342616073301
 21
120.5709137196867
 31
0.0
  0
LINE
  5
3A9
  8
0
  6
CONTINUOUS
 62
     4
 10
-35.86778170165582
 20
115.8803151955668
 30
0.0
 11
-30.74342504289308
 21
118.838863565061
 31
0.0
  0
LINE
  5
3AA
  8
0
  6
CONTINUOUS
 62
     4
 10
-32.86778193036463
 20
115.8803148797196
 30
0.0
 11
-30.74342722867806
 21
117.1068115030868
 31
0.0
  0
ARC
  5
3AB
  8
0
  6
CONTINUOUS
 62
     4
 10
145.4510610095292
 20
40.88030820841758
 30
0.0
 40
62.0
 50
159.3735303948132
 51
200.6264659627211
  0
ARC
  5
3AC
  8
0
  6
CONTINUOUS
 62
     4
 10
145.4510610095292
 20
40.88030820841758
 30
0.0
 40
68.0
 50
164.6323525839945
 51
195.2659149360417
  0
ARC
  5
3AD
  8
0
  6
CONTINUOUS
 62
     4
 10
145.4510610095292
 20
40.88030820841758
 30
0.0
 40
74.0
 50
157.2361729582194
 51
202.7638097389365
  0
ARC
  5
3AE
  8
0
  6
CONTINUOUS
 62
     4
 10
145.4510610095292
 20
40.88030820841758
 30
0.0
 40
50.0
 50
295.4675735895867
 51
318.8221179657867
  0
ARC
  5
3AF
  8
0
  6
CONTINUOUS
 62
     4
 10
145.4510610095292
 20
40.88030820841758
 30
0.0
 40
56.0
 50
292.577269759269
 51
319.8404718502789
  0
ARC
  5
3B0
  8
0
  6
CONTINUOUS
 62
     4
 10
145.4510610095292
 20
40.88030820841758
 30
0.0
 40
62.0
 50
290.2901672553119
 51
320.200642531588
  0
ARC
  5
3B1
  8
0
  6
CONTINUOUS
 62
     4
 10
145.4510610095292
 20
40.88030820841758
 30
0.0
 40
50.0
 50
115.4675581079755
 51
244.5324382495589
  0
ARC
  5
3B2
  8
0
  6
CONTINUOUS
 62
     4
 10
145.4510610095292
 20
40.88030820841758
 30
0.0
 40
56.0
 50
154.0113947642463
 51
205.9886289140447
  0
ARC
  5
3B3
  8
0
  6
CONTINUOUS
 62
     4
 10
145.4510610095292
 20
40.88030820841758
 30
0.0
 40
56.0
 50
112.5772406172795
 51
145.988599923636
  0
ARC
  5
3B4
  8
0
  6
CONTINUOUS
 62
     4
 10
145.4510610095292
 20
40.88030820841758
 30
0.0
 40
62.0
 50
110.2901381133224
 51
140.6264642930691
  0
ARC
  5
3B5
  8
0
  6
CONTINUOUS
 62
     4
 10
145.4510610095292
 20
40.88030820841758
 30
0.0
 40
74.0
 50
106.8903158313002
 51
142.7638217296628
  0
ARC
  5
3B6
  8
0
  6
CONTINUOUS
 62
     4
 10
145.4510610095292
 20
40.88030820841758
 30
0.0
 40
68.0
 50
108.431848545837
 51
135.4689474696574
  0
ARC
  5
3B7
  8
0
  6
CONTINUOUS
 62
     4
 10
145.4510610095292
 20
40.88030820841758
 30
0.0
 40
74.0
 50
217.2361919307155
 51
253.1096841686998
  0
ARC
  5
3B8
  8
0
  6
CONTINUOUS
 62
     4
 10
145.4510610095292
 20
40.88030820841758
 30
0.0
 40
68.0
 50
225.0852404192191
 51
251.568151454163
  0
ARC
  5
3B9
  8
0
  6
CONTINUOUS
 62
     4
 10
145.4510610095292
 20
40.88030820841758
 30
0.0
 40
62.0
 50
219.3735220465526
 51
249.7098618866776
  0
ARC
  5
3BA
  8
0
  6
CONTINUOUS
 62
     4
 10
145.4510610095292
 20
40.88030820841758
 30
0.0
 40
56.0
 50
214.011359095229
 51
247.4227593827205
  0
ARC
  5
3BB
  8
0
  6
CONTINUOUS
 62
     4
 10
145.4510610095292
 20
40.88030820841758
 30
0.0
 40
50.0
 50
295.4675735895867
 51
424.532412750035
  0
ARC
  5
3BC
  8
0
  6
CONTINUOUS
 62
     4
 10
145.4510610095292
 20
40.88030820841758
 30
0.0
 40
56.0
 50
334.0114085383102
 51
385.9885743862169
  0
ARC
  5
3BD
  8
0
  6
CONTINUOUS
 62
     4
 10
145.4510610095292
 20
40.88030820841758
 30
0.0
 40
74.0
 50
337.23621405304
 51
382.7637893620546
  0
ARC
  5
3BE
  8
0
  6
CONTINUOUS
 62
     4
 10
145.4510610095292
 20
40.88030820841758
 30
0.0
 40
62.0
 50
339.3735578292554
 51
380.62643875565
  0
ARC
  5
3BF
  8
0
  6
CONTINUOUS
 62
     4
 10
145.4510610095292
 20
40.88030820841758
 30
0.0
 40
56.0
 50
292.577269759269
 51
325.9886393109092
  0
ARC
  5
3C0
  8
0
  6
CONTINUOUS
 62
     4
 10
145.4510610095292
 20
40.88030820841758
 30
0.0
 40
62.0
 50
290.2901672553119
 51
320.6265036803423
  0
ARC
  5
3C1
  8
0
  6
CONTINUOUS
 62
     4
 10
145.4510610095292
 20
40.88030820841758
 30
0.0
 40
68.0
 50
288.4318776878266
 51
314.6521098925755
  0
ARC
  5
3C2
  8
0
  6
CONTINUOUS
 62
     4
 10
145.4510610095292
 20
40.88030820841758
 30
0.0
 40
74.0
 50
286.8903449732897
 51
322.7638337961794
  0
ARC
  5
3C3
  8
0
  6
CONTINUOUS
 62
     4
 10
145.4510610095292
 20
40.88030820841758
 30
0.0
 40
68.0
 50
345.0492947653743
 51
375.214681800763
  0
ARC
  5
3C4
  8
0
  6
CONTINUOUS
 62
     4
 10
145.4510610095292
 20
40.88030820841758
 30
0.0
 40
56.0
 50
34.0113572739962
 51
67.42274390110931
  0
ARC
  5
3C5
  8
0
  6
CONTINUOUS
 62
     4
 10
145.4510610095292
 20
40.88030820841758
 30
0.0
 40
62.0
 50
39.37350656494144
 51
69.70984640506643
  0
ARC
  5
3C6
  8
0
  6
CONTINUOUS
 62
     4
 10
145.4510610095292
 20
40.88030820841758
 30
0.0
 40
74.0
 50
37.23616278872603
 51
73.10966868708866
  0
ARC
  5
3C7
  8
0
  6
CONTINUOUS
 62
     4
 10
145.4510610095292
 20
40.88030820841758
 30
0.0
 40
68.0
 50
45.15295309341776
 51
71.56812231217346
  0
LINE
  5
3C8
  8
0
  6
CONTINUOUS
 62
     4
 10
-161.0113616827123
 20
-169.6925285324895
 30
0.0
 11
-224.9757258329377
 21
-169.6925285324895
 31
0.0
  0
LINE
  5
3C9
  8
0
  6
CONTINUOUS
 62
     4
 10
-154.0388946590844
 20
-154.9724185146645
 30
0.0
 11
-161.0113555811491
 21
-169.6925291184208
 31
0.0
  0
INSERT
  5
3CA
  8
0
 62
     4
  2
_OPEN30
 10
-154.0388946590844
 20
-154.9724185146645
 30
0.0
 41
1.50000139391263
 42
1.499998500689492
 50
64.65453314197059
  0
TEXT
  5
3CB
  8
0
 62
     7
 10
-168.5475790607834
 20
163.1820469066702
 30
0.0
 40
4.0
  1
MIN 14
 41
0.7999999999999995
  7
FDASTYLE1
 72
     5
 11
-149.3475790607834
 21
163.1820469066702
 31
0.0
  0
TEXT
  5
3CC
  8
0
 62
     7
 10
18.21800132218394
 20
51.96415378139595
 30
0.0
 40
4.0
  1
MIN39.5
 50
90.0
 41
0.8000000000000002
  7
FDASTYLE1
 72
     5
 11
18.21800132218394
 21
74.36415378139596
 31
0.0
  0
TEXT
  5
3CD
  8
0
 62
     7
 10
-6.707185079544004
 20
87.09772534105386
 30
0.0
 40
4.0
  1
MIN
 50
90.0
 41
0.7999999999999995
  7
FDASTYLE1
 72
     5
 11
-6.707185079544004
 21
96.69772534105385
 31
0.0
  0
TEXT
  5
3CE
  8
0
 62
     7
 10
-224.3473688913446
 20
-31.59845499043495
 30
0.0
 40
4.0
  1
7゜7′30″
 50
90.0
 41
0.7368421052631581
  7
FDASTYLE1
 72
     5
 11
-224.3473688913446
 21
-9.198454990434946
 31
0.0
  0
TEXT
  5
3CF
  8
0
 62
     7
 10
-150.872552832879
 20
-9.868533644496225
 30
0.0
 40
4.0
  1
MIN 39
 41
0.7999999999999995
  7
FDASTYLE1
 72
     5
 11
-131.672552832879
 21
-9.868533644496225
 31
0.0
  0
LINE
  5
3D0
  8
LAYER0014
  6
CONTINUOUS
 62
     7
 10
-54.74342602025087
 20
167.7416668509957
 30
0.0
 11
-47.23132961522157
 21
167.7416668509957
 31
0.0
  0
LINE
  5
3D1
  8
LAYER0014
  6
CONTINUOUS
 62
     7
 10
-54.74342602025087
 20
167.7416668509957
 30
0.0
 11
-56.74342602025087
 21
167.7416668509957
 31
0.0
  0
LINE
  5
3D2
  8
LAYER0014
  6
CONTINUOUS
 62
     7
 10
-54.74342602025087
 20
143.4203082084176
 30
0.0
 11
-54.74342602025087
 21
170.0276775931832
 31
0.0
  0
LINE
  5
3D3
  8
LAYER0014
  6
CONTINUOUS
 62
     7
 10
-56.74342602025087
 20
143.3495379447457
 30
0.0
 11
-56.74342602025087
 21
170.0276775931832
 31
0.0
  0
LINE
  5
3D4
  8
LAYER0014
  6
CONTINUOUS
 62
     7
 10
-171.7434260202509
 20
-97.45302766804727
 30
0.0
 11
-179.2196070505243
 21
-97.45302766804727
 31
0.0
  0
LINE
  5
3D5
  8
LAYER0014
  6
CONTINUOUS
 62
     7
 10
-171.7434260202509
 20
-97.45302766804727
 30
0.0
 11
-170.7434260202509
 21
-97.45302766804727
 31
0.0
  0
LINE
  5
3D6
  8
LAYER0014
  6
CONTINUOUS
 62
     7
 10
-170.7434260202509
 20
-54.15969179158242
 30
0.0
 11
-170.7434260202509
 21
-99.73903078084024
 31
0.0
  0
LINE
  5
3D7
  8
LAYER0014
  6
CONTINUOUS
 62
     7
 10
-54.74342602025087
 20
167.7416668509957
 30
0.0
 11
-48.39342602025086
 21
167.7416668509957
 31
0.0
  0
INSERT
  5
3D8
  8
LAYER0014
 62
     7
  2
_OPEN30
 10
-54.74342602025087
 20
167.7416668509957
 30
0.0
 41
1.50000139391263
 42
1.499998500689492
 50
180.0
  0
LINE
  5
3D9
  8
LAYER0014
  6
CONTINUOUS
 62
     7
 10
-171.7434260202509
 20
-97.45302766804727
 30
0.0
 11
-178.0934260202509
 21
-97.45302766804727
 31
0.0
  0
INSERT
  5
3DA
  8
LAYER0014
 62
     7
  2
_OPEN30
 10
-171.7434260202509
 20
-97.45302766804727
 30
0.0
 41
1.50000139391263
 42
1.499998500689492
 50
360.0
  0
LINE
  5
3DB
  8
LAYER0014
  6
CONTINUOUS
 62
     7
 10
-63.09342602025087
 20
167.7416668509957
 30
0.0
 11
-56.74342602025087
 21
167.7416668509957
 31
0.0
  0
INSERT
  5
3DC
  8
LAYER0014
 62
     7
  2
_OPEN30
 10
-56.74342602025087
 20
167.7416668509957
 30
0.0
 41
1.50000139391263
 42
1.499998500689492
 50
360.0
  0
LINE
  5
3DD
  8
LAYER0014
  6
CONTINUOUS
 62
     7
 10
-164.3934260202509
 20
-97.45302766804727
 30
0.0
 11
-170.7434260202509
 21
-97.45302766804727
 31
0.0
  0
INSERT
  5
3DE
  8
LAYER0014
 62
     7
  2
_OPEN30
 10
-170.7434260202509
 20
-97.45302766804727
 30
0.0
 41
1.50000139391263
 42
1.499998500689492
 50
180.0
  0
TEXT
  5
3DF
  8
LAYER0014
 62
     7
 10
-178.2333794071655
 20
-96.62682597860926
 30
0.0
 40
4.0
  1
1
 50
-0.1000000000000078
 41
0.8000000000000025
  7
FDASTYLE1
 72
     5
 11
-175.0333842810429
 21
-96.63241102938014
 31
0.0
  0
TEXT
  5
3E0
  8
LAYER0014
 62
     7
 10
-49.51705148945863
 20
169.3416668509957
 30
0.0
 40
4.0
  1
2
 41
0.8000000000000007
  7
FDASTYLE1
 72
     5
 11
-46.31705148945863
 21
169.3416668509957
 31
0.0
  0
LINE
  5
3E1
  8
0
  6
CENTER
 62
     7
 10
-121.7434260202509
 20
-37.32354268499582
 30
0.0
 11
-121.7434260202509
 21
-64.3271253010317
 31
0.0
  0
LINE
  5
3E2
  8
0
  6
CONTINUOUS
 62
     7
 10
125.4510533801346
 20
82.88030820841757
 30
0.0
 11
136.9510610095292
 21
82.88030820841757
 31
0.0
  0
LINE
  5
3E3
  8
0
  6
CONTINUOUS
 62
     7
 10
-245.1399781438558
 20
-175.3886454983231
 30
0.0
 11
-105.1399781438558
 21
-175.3886454983231
 31
0.0
  0
LINE
  5
3E4
  8
0
  6
CONTINUOUS
 62
     7
 10
-245.1399781438558
 20
-130.3886454983231
 30
0.0
 11
-245.1399781438558
 21
-175.3886454983231
 31
0.0
  0
LINE
  5
3E5
  8
0
  6
CONTINUOUS
 62
     7
 10
-222.659790565762
 20
-18.78922120432899
 30
0.0
 11
-171.3340593480104
 21
-12.37351983202563
 31
0.0
  0
LINE
  5
3E6
  8
0
  6
CENTER
 62
     7
 10
-174.794237787829
 20
107.5803051566598
 30
0.0
 11
-160.2954279733759
 21
107.5803051566598
 31
0.0
  0
ARC
  5
3E7
  8
LAYER0014
  6
CONTINUOUS
 62
     7
 10
-170.7434260202509
 20
-12.29969018940957
 30
0.0
 40
50.25
 50
187.1250024463909
 51
196.0061334996184
  0
INSERT
  5
3E8
  8
LAYER0014
 62
     7
  2
_OPEN30
 10
-220.6053908374532
 20
-18.53242350378144
 30
0.0
 41
1.50000139391263
 42
1.499998500689492
 50
97.9801640188338
  0
LINE
  5
3E9
  8
0
  6
DASHED
 62
     2
 10
-164.2434260202509
 20
117.3103085135934
 30
0.0
 11
-164.2434260202509
 21
97.85030179972617
 31
0.0
  0
LINE
  5
3EA
  8
0
  6
DASHED
 62
     2
 10
-170.7434260202509
 20
117.3103085135934
 30
0.0
 11
-164.2434260202509
 21
117.3103085135934
 31
0.0
  0
LINE
  5
3EB
  8
0
  6
DASHED
 62
     2
 10
-170.7434260202509
 20
97.85030179972617
 30
0.0
 11
-164.2434260202509
 21
97.85030179972617
 31
0.0
  0
LINE
  5
3EC
  8
0
  6
CONTINUOUS
 62
     2
 10
82.64255649855244
 20
10.46781251119254
 30
0.0
 11
87.70881344374851
 21
13.39281033263732
 31
0.0
  0
LINE
  5
3ED
  8
0
  6
CONTINUOUS
 62
     2
 10
87.70879362249133
 20
1.692810152340634
 30
0.0
 11
82.642548863542
 21
4.617813573646153
 31
0.0
  0
LINE
  5
3EE
  8
0
  6
CONTINUOUS
 62
     2
 10
82.64255881226353
 20
4.617816982221292
 30
0.0
 11
82.64255881226353
 21
10.46781545634239
 31
0.0
  0
CIRCLE
  5
3EF
  8
0
  6
CONTINUOUS
 62
     2
 10
87.70881247437291
 20
7.542814311933206
 30
0.0
 40
9.0
  0
LINE
  5
3F0
  8
0
  6
CONTINUOUS
 62
     2
 10
106.523209979313
 20
63.35530153051312
 30
0.0
 11
109.0779838142254
 21
64.83029736713141
 31
0.0
  0
LINE
  5
3F1
  8
0
  6
CONTINUOUS
 62
     2
 10
109.0779819532883
 20
64.83029767221822
 30
0.0
 11
111.6327520956967
 21
63.35529550559321
 31
0.0
  0
LINE
  5
3F2
  8
0
  6
CONTINUOUS
 62
     2
 10
111.6327626696854
 20
63.35529905314414
 30
0.0
 11
111.6327626696854
 21
60.40530210490196
 31
0.0
  0
LINE
  5
3F3
  8
0
  6
CONTINUOUS
 62
     2
 10
111.6327666978205
 20
60.40530001775714
 30
0.0
 11
109.0779928629082
 21
58.9303042690556
 31
0.0
  0
LINE
  5
3F4
  8
0
  6
CONTINUOUS
 62
     2
 10
109.0779998692166
 20
58.93031286479008
 30
0.0
 11
106.5232288476406
 21
60.40531362474693
 31
0.0
  0
LINE
  5
3F5
  8
0
  6
CONTINUOUS
 62
     2
 10
106.5232045642167
 20
60.40530973429649
 30
0.0
 11
106.5232045642167
 21
63.35530668253868
 31
0.0
  0
CIRCLE
  5
3F6
  8
0
  6
CONTINUOUS
 62
     2
 10
109.077983616951
 20
61.88030057902305
 30
0.0
 40
5.0
  0
LINE
  5
3F7
  8
0
  6
CONTINUOUS
 62
     2
 10
106.5231997666878
 20
21.35532006898874
 30
0.0
 11
109.0779802088536
 21
22.83031972029747
 31
0.0
  0
LINE
  5
3F8
  8
0
  6
CONTINUOUS
 62
     2
 10
109.0779926299562
 20
22.83031508720504
 30
0.0
 11
111.6327627723646
 21
21.35531292058003
 31
0.0
  0
LINE
  5
3F9
  8
0
  6
CONTINUOUS
 62
     2
 10
111.6327626696854
 20
21.35531049723594
 30
0.0
 11
111.6327626696854
 21
18.40530973429649
 31
0.0
  0
LINE
  5
3FA
  8
0
  6
CONTINUOUS
 62
     2
 10
111.6327517741667
 20
18.40531020547341
 30
0.0
 11
109.0779779392544
 21
16.93031445677188
 31
0.0
  0
LINE
  5
3FB
  8
0
  6
CONTINUOUS
 62
     2
 10
109.0779934827567
 20
16.93033531240261
 30
0.0
 11
106.5232224611806
 21
18.40533607235947
 31
0.0
  0
LINE
  5
3FC
  8
0
  6
CONTINUOUS
 62
     2
 10
106.5232045642167
 20
18.40531545634239
 30
0.0
 11
106.5232045642167
 21
21.35531431193321
 31
0.0
  0
CIRCLE
  5
3FD
  8
0
  6
CONTINUOUS
 62
     2
 10
109.077983616951
 20
19.88031202311485
 30
0.0
 40
5.0
  0
LINE
  5
3FE
  8
0
  6
CONTINUOUS
 62
     2
 10
87.70882430518276
 20
13.39282784628475
 30
0.0
 11
92.77507062431863
 21
10.4678193794421
 31
0.0
  0
LINE
  5
3FF
  8
0
  6
CONTINUOUS
 62
     2
 10
92.77506613648228
 20
10.46780591959922
 30
0.0
 11
92.77506613648228
 21
4.617807445478128
 31
0.0
  0
LINE
  5
400
  8
0
  6
CONTINUOUS
 62
     2
 10
92.77506465394384
 20
4.617800122517828
 30
0.0
 11
87.70880770874777
 21
1.692802301073051
 31
0.0
  0
LINE
  5
401
  8
0
  6
CONTINUOUS
 62
     2
 10
179.2693568385122
 20
21.35531201737357
 30
0.0
 11
181.8241306734246
 21
22.83030785399186
 31
0.0
  0
LINE
  5
402
  8
0
  6
CONTINUOUS
 62
     2
 10
181.8241165415136
 20
22.83031527472193
 30
0.0
 11
184.378886683922
 21
21.35531310809692
 31
0.0
  0
LINE
  5
403
  8
0
  6
CONTINUOUS
 62
     2
 10
184.3788869372635
 20
21.35530668253868
 30
0.0
 11
184.3788869372635
 21
18.40530591959922
 31
0.0
  0
LINE
  5
404
  8
0
  6
CONTINUOUS
 62
     2
 10
184.3788839886312
 20
18.40532619426066
 30
0.0
 11
181.8241101537189
 21
16.93033044555913
 31
0.0
  0
LINE
  5
405
  8
0
  6
CONTINUOUS
 62
     2
 10
181.8241195739103
 20
16.93033190033547
 30
0.0
 11
179.2693485523343
 21
18.40533266029232
 31
0.0
  0
LINE
  5
406
  8
0
  6
CONTINUOUS
 62
     2
 10
179.2693288317948
 20
18.40530973429649
 30
0.0
 11
179.2693288317948
 21
21.35531049723594
 31
0.0
  0
CIRCLE
  5
407
  8
0
  6
CONTINUOUS
 62
     2
 10
181.8241384021073
 20
19.88030820841758
 30
0.0
 40
5.0
  0
LINE
  5
408
  8
0
  6
CONTINUOUS
 62
     2
 10
179.2693430393588
 20
63.35531980980139
 30
0.0
 11
181.8241300887781
 21
64.83032327580057
 31
0.0
  0
LINE
  5
409
  8
0
  6
CONTINUOUS
 62
     2
 10
181.8241267087471
 20
64.83030344480929
 30
0.0
 11
184.3789100656433
 21
63.35529364877065
 31
0.0
  0
LINE
  5
40A
  8
0
  6
CONTINUOUS
 62
     2
 10
184.3788869372635
 20
63.35530668253868
 30
0.0
 11
184.3788869372635
 21
60.40530973429649
 31
0.0
  0
LINE
  5
40B
  8
0
  6
CONTINUOUS
 62
     2
 10
184.378913914928
 20
60.40532053877477
 30
0.0
 11
181.8241268655087
 21
58.9303171606928
 31
0.0
  0
LINE
  5
40C
  8
0
  6
CONTINUOUS
 62
     2
 10
181.8241297750735
 20
58.93031605996911
 30
0.0
 11
179.2693587534974
 21
60.40531681992596
 31
0.0
  0
LINE
  5
40D
  8
0
  6
CONTINUOUS
 62
     2
 10
179.2693288317948
 20
60.40530973429649
 30
0.0
 11
179.2693288317948
 21
63.35531431193321
 31
0.0
  0
CIRCLE
  5
40E
  8
0
  6
CONTINUOUS
 62
     2
 10
181.8241384021073
 20
61.88031583781211
 30
0.0
 40
5.0
  0
LINE
  5
40F
  8
0
  6
CONTINUOUS
 62
     6
 10
-41.23482157528481
 20
-107.5442438683897
 30
0.0
 11
-26.38682963192544
 21
-107.5442438683897
 31
0.0
  0
LINE
  5
410
  8
0
  6
CONTINUOUS
 62
     6
 10
-41.23482157528481
 20
-114.3184632746204
 30
0.0
 11
82.47742818057456
 21
-114.3184632746204
 31
0.0
  0
LINE
  5
411
  8
0
  6
CONTINUOUS
 62
     6
 10
-41.23482157528481
 20
-121.1184586969837
 30
0.0
 11
82.47742818057456
 21
-121.1184586969837
 31
0.0
  0
LINE
  5
412
  8
0
  6
CONTINUOUS
 62
     6
 10
-41.23482157528481
 20
-127.9184617487416
 30
0.0
 11
82.47742818057456
 21
-127.9184617487416
 31
0.0
  0
LINE
  5
413
  8
0
  6
CONTINUOUS
 62
     6
 10
-41.23482157528481
 20
-134.7184800592884
 30
0.0
 11
82.47742818057456
 21
-134.7184800592884
 31
0.0
  0
LINE
  5
414
  8
0
  6
CONTINUOUS
 62
     6
 10
-41.23482157528481
 20
-141.5184678522572
 30
0.0
 11
82.47742818057456
 21
-141.5184678522572
 31
0.0
  0
LINE
  5
415
  8
0
  6
CONTINUOUS
 62
     6
 10
-41.23482157528481
 20
-148.318470904015
 30
0.0
 11
82.47742818057456
 21
-148.318470904015
 31
0.0
  0
LINE
  5
416
  8
0
  6
CONTINUOUS
 62
     6
 10
-41.23482157528481
 20
-155.1184739557728
 30
0.0
 11
82.47742818057456
 21
-155.1184739557728
 31
0.0
  0
LINE
  5
417
  8
0
  6
CONTINUOUS
 62
     6
 10
-41.23482157528481
 20
-175.5184678522572
 30
0.0
 11
82.47742818057456
 21
-175.5184678522572
 31
0.0
  0
LINE
  5
418
  8
0
  6
CONTINUOUS
 62
     6
 10
-41.23482157528481
 20
-161.9184770075306
 30
0.0
 11
82.47742818057456
 21
-161.9184770075306
 31
0.0
  0
LINE
  5
419
  8
0
  6
CONTINUOUS
 62
     6
 10
-41.23482157528481
 20
-168.7184800592884
 30
0.0
 11
82.47742818057456
 21
-168.7184800592884
 31
0.0
  0
TEXT
  5
41A
  8
0
 62
     6
 10
-20.61636524282146
 20
-181.0140428034291
 30
0.0
 40
4.0
  1
※最高使用回転数は、ﾁｬｯｸ及びシリンダーの低い方で制限されます
 41
0.6808510638297872
  7
FDASTYLE1
 72
     5
 11
81.78363475717855
 21
-181.0140428034291
 31
0.0
  0
TEXT
  5
41B
  8
0
 62
     6
 10
69.36408436953941
 20
-113.1833848444447
 30
0.0
 40
4.0
  1
A6型
 41
0.7500000000000007
  7
FDASTYLE1
 72
     5
 11
78.96408436953942
 21
-113.1833848444447
 31
0.0
  0
TEXT
  5
41C
  8
0
 62
     6
 10
-5.333607522570503
 20
-140.4364823786244
 30
0.0
 40
3.0
  1
(52TS型 引側油圧力 1.9MPa)
 41
0.7547169811320756
  7
FDASTYLE1
 72
     5
 11
42.6663924774295
 21
-140.4364823786244
 31
0.0
  0
TEXT
  5
41D
  8
0
 62
     6
 10
35.44743258078785
 20
-174.4017838922962
 30
0.0
 40
4.0
  1
外周ﾆﾃ  　　1.5g以内
 41
0.736842105263158
  7
FDASTYLE1
 72
     5
 11
80.24743258078786
 21
-174.4017838922962
 31
0.0
  0
TEXT
  5
41E
  8
0
 62
     6
 10
60.82194916041512
 20
-167.599165566325
 30
0.0
 40
4.0
  1
22  kg
 41
0.8000000000000004
  7
FDASTYLE1
 72
     5
 11
80.02194916041513
 21
-167.599165566325
 31
0.0
  0
TEXT
  5
41F
  8
0
 62
     6
 10
51.06851776949339
 20
-160.6222308341038
 30
0.0
 40
4.0
  1
0.108kg・m
 41
0.7826086956521741
  7
FDASTYLE1
 72
     5
 11
79.86851776949339
 21
-160.6222308341038
 31
0.0
  0
TEXT
  5
420
  8
0
 62
     6
 10
79.83418464301884
 20
-157.6900649182278
 30
0.0
 40
2.0
  1
2
 41
0.7999999999999972
  7
FDASTYLE1
 72
     5
 11
81.43418464301884
 21
-157.6900649182278
 31
0.0
  0
TEXT
  5
421
  8
0
 62
     6
 10
57.23940965728146
 20
-153.9287919489369
 30
0.0
 40
4.0
  1
6000min
 41
0.8000000000000005
  7
FDASTYLE1
 72
     5
 11
79.63940965728148
 21
-153.9287919489369
 31
0.0
  0
TEXT
  5
422
  8
0
 62
     6
 10
79.33303679635414
 20
-151.3904121192171
 30
0.0
 40
2.0
  1
-1
 41
0.8000000000000007
  7
FDASTYLE1
 72
     5
 11
82.53303679635414
 21
-151.3904121192171
 31
0.0
  0
TEXT
  5
423
  8
0
 62
     6
 10
53.72915422366237
 20
-147.1344956842884
 30
0.0
 40
4.0
  1
  56.9kN
 41
0.8000000000000005
  7
FDASTYLE1
 72
     5
 11
79.32915422366239
 21
-147.1344956842884
 31
0.0
  0
TEXT
  5
424
  8
0
 62
     6
 10
53.55994629552669
 20
-140.3295182672962
 30
0.0
 40
4.0
  1
  20.7kN
 41
0.8000000000000005
  7
FDASTYLE1
 72
     5
 11
79.15994629552671
 21
-140.3295182672962
 31
0.0
  0
TEXT
  5
425
  8
0
 62
     6
 10
49.7633718675256
 20
-133.524525591515
 30
0.0
 40
4.0
  1
　　　　52TS型
 41
0.7200000000000001
  7
FDASTYLE1
 72
     5
 11
78.5633718675256
 21
-133.524525591515
 31
0.0
  0
TEXT
  5
426
  8
0
 62
     6
 10
65.38978779971519
 20
-126.7145585504994
 30
0.0
 40
4.0
  1
20mm
 41
0.7999999999999998
  7
FDASTYLE1
 72
     5
 11
78.18978779971519
 21
-126.7145585504994
 31
0.0
  0
TEXT
  5
427
  8
0
 62
     6
 10
61.73019888779689
 20
-119.9145554987415
 30
0.0
 40
4.0
  1
 10mm
 41
0.8
  7
FDASTYLE1
 72
     5
 11
77.73019888779689
 21
-119.9145554987415
 31
0.0
  0
TEXT
  5
428
  8
0
 62
     6
 10
-39.85194193661294
 20
-174.3145799128041
 30
0.0
 40
4.0
  1
アンバランス量
 41
0.6666666666666667
  7
FDASTYLE1
 72
     5
 11
-17.45194193661294
 21
-174.3145799128041
 31
0.0
  0
TEXT
  5
429
  8
0
 62
     6
 10
-39.85194193661294
 20
-167.5145616022572
 30
0.0
 40
4.0
  1
質 量
 41
0.7058823529411766
  7
FDASTYLE1
 72
     5
 11
-30.25194193661294
 21
-167.5145616022572
 31
0.0
  0
TEXT
  5
42A
  8
0
 62
     6
 10
-39.85194193661294
 20
-160.7145585504994
 30
0.0
 40
4.0
  1
慣性モ－メント
 41
0.6666666666666667
  7
FDASTYLE1
 72
     5
 11
-17.45194193661294
 21
-160.7145585504994
 31
0.0
  0
TEXT
  5
42B
  8
0
 62
     6
 10
-39.85194193661294
 20
-153.9145554987416
 30
0.0
 40
4.0
  1
最高使用回転速度
 41
0.6666666666666667
  7
FDASTYLE1
 72
     5
 11
-14.25194193661294
 21
-153.9145554987416
 31
0.0
  0
TEXT
  5
42C
  8
0
 62
     6
 10
-39.85194193661294
 20
-147.1145524469837
 30
0.0
 40
4.0
  1
最大静的把握力
 41
0.6666666666666667
  7
FDASTYLE1
 72
     5
 11
-17.45194193661294
 21
-147.1145524469837
 31
0.0
  0
TEXT
  5
42D
  8
0
 62
     6
 10
-39.85194193661294
 20
-140.3145493952259
 30
0.0
 40
4.0
  1
許容シリンダー力
 41
0.6666666666666667
  7
FDASTYLE1
 72
     5
 11
-14.25194193661294
 21
-140.3145493952259
 31
0.0
  0
TEXT
  5
42E
  8
0
 62
     6
 10
-39.85194193661294
 20
-133.5145616022572
 30
0.0
 40
4.0
  1
適用シリンダー
 41
0.6666666666666667
  7
FDASTYLE1
 72
     5
 11
-17.45194193661294
 21
-133.5145616022572
 31
0.0
  0
TEXT
  5
42F
  8
0
 62
     6
 10
-39.85194193661294
 20
-126.7145585504994
 30
0.0
 40
4.0
  1
ピストンストローク
 41
0.6666666666666669
  7
FDASTYLE1
 72
     5
 11
-11.05194193661293
 21
-126.7145585504994
 31
0.0
  0
TEXT
  5
430
  8
0
 62
     6
 10
-39.85194193661294
 20
-113.1145524469837
 30
0.0
 40
4.0
  1
主軸端番号
 41
0.6666666666666666
  7
FDASTYLE1
 72
     5
 11
-23.85194193661294
 21
-113.1145524469837
 31
0.0
  0
TEXT
  5
431
  8
0
 62
     6
 10
-39.85194193661294
 20
-119.9145554987415
 30
0.0
 40
4.0
  1
爪ﾉｽﾄﾛｰｸ       (直径ﾆﾃ)
 41
0.7766990291262136
  7
FDASTYLE1
 72
     5
 11
24.14805806338706
 21
-119.9145554987415
 31
0.0
  0
TEXT
  5
432
  8
0
 62
     6
 10
-39.85194193661294
 20
-106.3403406701475
 30
0.0
 40
4.0
  1
仕 様
 41
0.7058823529411766
  7
FDASTYLE1
 72
     5
 11
-30.25194193661294
 21
-106.3403406701475
 31
0.0
  0
TEXT
  5
433
  8
0
 62
     6
 10
-230.0114254544027
 20
-180.8886607571122
 30
0.0
 40
3.0
  1
1000
 41
0.7575759632690842
  7
FDASTYLE1
 72
     5
 11
-219.2971384544027
 21
-180.8886607571122
 31
0.0
  0
TEXT
  5
434
  8
0
 62
     6
 10
-210.0114254544027
 20
-180.8886607571122
 30
0.0
 40
3.0
  1
2000
 41
0.7575759632690842
  7
FDASTYLE1
 72
     5
 11
-199.2971384544027
 21
-180.8886607571122
 31
0.0
  0
TEXT
  5
435
  8
0
 62
     6
 10
-190.0114254544027
 20
-180.8886607571122
 30
0.0
 40
3.0
  1
3000
 41
0.7575759632690842
  7
FDASTYLE1
 72
     5
 11
-179.2971384544027
 21
-180.8886607571122
 31
0.0
  0
TEXT
  5
436
  8
0
 62
     6
 10
-170.0114254544027
 20
-180.8886607571122
 30
0.0
 40
3.0
  1
4000
 41
0.7575759632690842
  7
FDASTYLE1
 72
     5
 11
-159.2971384544027
 21
-180.8886607571122
 31
0.0
  0
TEXT
  5
437
  8
0
 62
     6
 10
-150.0114254544027
 20
-180.8886607571122
 30
0.0
 40
3.0
  1
5000
 41
0.7575759632690842
  7
FDASTYLE1
 72
     5
 11
-139.2971384544027
 21
-180.8886607571122
 31
0.0
  0
TEXT
  5
438
  8
0
 62
     6
 10
-130.0114254544027
 20
-180.8886607571122
 30
0.0
 40
3.0
  1
6000
 41
0.7575759632690852
  7
FDASTYLE1
 72
     5
 11
-119.2971384544027
 21
-180.8886607571122
 31
0.0
  0
TEXT
  5
439
  8
0
 62
     6
 10
-110.0114254544027
 20
-180.8886607571122
 30
0.0
 40
3.0
  1
7000
 41
0.7575759632690852
  7
FDASTYLE1
 72
     5
 11
-99.29713845440269
 21
-180.8886607571122
 31
0.0
  0
TEXT
  5
43A
  8
0
 62
     6
 10
-247.8667072828279
 20
-178.7079066165328
 30
0.0
 40
3.0
  1
0
 41
0.7142859999999965
  7
FDASTYLE1
 72
     5
 11
-245.7238492828279
 21
-178.7079066165328
 31
0.0
  0
TEXT
  5
43B
  8
0
 62
     6
 10
-251.4784505523538
 20
-172.0593913479325
 30
0.0
 40
3.0
  1
10
 41
0.744681079221391
  7
FDASTYLE1
 72
     5
 11
-246.4784495523538
 21
-172.0593913479325
 31
0.0
  0
TEXT
  5
43C
  8
0
 62
     6
 10
-251.4784505523538
 20
-167.0593913479325
 30
0.0
 40
3.0
  1
20
 41
0.744681079221391
  7
FDASTYLE1
 72
     5
 11
-246.4784495523538
 21
-167.0593913479325
 31
0.0
  0
TEXT
  5
43D
  8
0
 62
     6
 10
-251.4784505523538
 20
-162.0593913479325
 30
0.0
 40
3.0
  1
30
 41
0.744681079221391
  7
FDASTYLE1
 72
     5
 11
-246.4784495523538
 21
-162.0593913479325
 31
0.0
  0
TEXT
  5
43E
  8
0
 62
     6
 10
-251.4784505523538
 20
-157.0593913479325
 30
0.0
 40
3.0
  1
40
 41
0.744681079221391
  7
FDASTYLE1
 72
     5
 11
-246.4784495523538
 21
-157.0593913479325
 31
0.0
  0
TEXT
  5
43F
  8
0
 62
     6
 10
-251.4784505523538
 20
-152.0593913479325
 30
0.0
 40
3.0
  1
50
 41
0.744681079221391
  7
FDASTYLE1
 72
     5
 11
-246.4784495523538
 21
-152.0593913479325
 31
0.0
  0
TEXT
  5
440
  8
0
 62
     6
 10
-251.4784505523538
 20
-147.0593913479325
 30
0.0
 40
3.0
  1
60
 41
0.744681079221391
  7
FDASTYLE1
 72
     5
 11
-246.4784495523538
 21
-147.0593913479325
 31
0.0
  0
TEXT
  5
441
  8
0
 62
     6
 10
-251.4784505523538
 20
-142.0593913479325
 30
0.0
 40
3.0
  1
70
 41
0.744681079221391
  7
FDASTYLE1
 72
     5
 11
-246.4784495523538
 21
-142.0593913479325
 31
0.0
  0
TEXT
  5
442
  8
0
 62
     6
 10
-251.4784505523538
 20
-137.0593913479325
 30
0.0
 40
3.0
  1
80
 41
0.744681079221391
  7
FDASTYLE1
 72
     5
 11
-246.4784495523538
 21
-137.0593913479325
 31
0.0
  0
TEXT
  5
443
  8
0
 62
     6
 10
-251.4784505523538
 20
-132.0593913479325
 30
0.0
 40
3.0
  1
90
 41
0.744681079221391
  7
FDASTYLE1
 72
     5
 11
-246.4784495523538
 21
-132.0593913479325
 31
0.0
  0
TEXT
  5
444
  8
0
 62
     6
 10
-254.1595384638378
 20
-162.6149211517759
 30
0.0
 40
4.0
  1
把　握　力　kN
 50
90.0
 41
0.6956521739130441
  7
FDASTYLE1
 72
     5
 11
-254.1595384638378
 21
-137.0149211517759
 31
0.0
  0
TEXT
  5
445
  8
0
 62
     6
 10
-235.3291434139555
 20
-128.263195070729
 30
0.0
 40
4.0
  1
把　握　力　特　性　表
 41
0.6666666666666665
  7
FDASTYLE1
 72
     5
 11
-200.1291434139555
 21
-128.263195070729
 31
0.0
  0
TEXT
  5
446
  8
0
 62
     6
 10
-182.8788718075102
 20
-128.4618721337173
 30
0.0
 40
4.0
  1
(爪ﾉ回転ﾓｰﾒﾝﾄ24.8N･cm)
 41
0.7755102040816327
  7
FDASTYLE1
 72
     5
 11
-122.0788718075102
 21
-128.4618721337173
 31
0.0
  0
TEXT
  5
447
  8
0
 62
     6
 10
-188.6847944719515
 20
-187.7422084771644
 30
0.0
 40
4.0
  1
回　転　速　度　min
 41
0.6984126984126988
  7
FDASTYLE1
 72
     5
 11
-153.4847944719515
 21
-187.7422084771644
 31
0.0
  0
TEXT
  5
448
  8
0
 62
     6
 10
-154.005089651232
 20
-184.1089019127497
 30
0.0
 40
2.0
  1
-1
 41
0.7999999999999972
  7
FDASTYLE1
 72
     5
 11
-150.805089651232
 21
-184.1089019127497
 31
0.0
  0
TEXT
  5
449
  8
0
 62
     5
 10
59.65106177246861
 20
71.36602037901847
 30
0.0
 40
5.0
  1
NIKKO
 50
-90.0
 41
0.7674421159044379
  7
FDASTYLE1
 72
     5
 11
59.65106177246861
 21
47.79458898062674
 31
0.0
  0
TEXT
  5
44A
  8
0
 62
     5
 10
60.15106177246861
 20
34.00888496394126
 30
0.0
 40
4.0
  1
MAC2-205A6
 50
-90.0
 41
0.7727275194893263
  7
FDASTYLE1
 72
     5
 11
60.15106177246861
 21
-4.848261537599875
 31
0.0
  0
TEXT
  5
44B
  8
0
 62
     5
 10
53.65106177246861
 20
33.65174180026023
 30
0.0
 40
3.0
  1
0001
 50
-90.0
 41
0.7647060767727455
  7
FDASTYLE1
 72
     5
 11
53.65106177246861
 21
22.50888412947624
 31
0.0
  0
TEXT
  5
44C
  8
0
 62
     5
 10
229.251064061287
 20
9.980307874631571
 30
0.0
 40
3.0
  1
F MAX　　　　   20KN
 50
90.0
 41
0.827067873447243
  7
FDASTYLE1
 72
     5
 11
229.251064061287
 21
62.78030824418037
 31
0.0
  0
TEXT
  5
44D
  8
0
 62
     5
 10
225.5039632312088
 20
83.36259239668814
 30
0.0
 40
3.0
  1
ΣS
 50
90.0
 41
0.9090909271529227
  7
FDASTYLE1
 72
     5
 11
225.5039632312088
 21
89.36259251589743
 31
0.0
  0
TEXT
  5
44E
  8
0
 62
     5
 10
223.8015248767167
 20
67.03563290591208
 30
0.0
 40
3.0
  1
F
 50
90.0
 41
0.8791213035583496
  7
FDASTYLE1
 72
     5
 11
223.8015248767167
 21
69.67299681658713
 31
0.0
  0
TEXT
  5
44F
  8
0
 62
     5
 10
231.3206288806229
 20
74.8618981217858
 30
0.0
 40
3.0
  1
N min
 50
90.0
 41
0.7983872414958765
  7
FDASTYLE1
 72
     5
 11
231.3206288806229
 21
89.71189731116263
 31
0.0
  0
TEXT
  5
450
  8
0
 62
     5
 10
229.3455495517005
 20
89.71001274695563
 30
0.0
 40
1.5
  1
-1
 50
90.0
 41
0.7826088684192877
  7
FDASTYLE1
 72
     5
 11
229.3455495517005
 21
92.41001291384863
 31
0.0
  0
TEXT
  5
451
  8
0
 62
     5
 10
234.251064061287
 20
9.980307874631571
 30
0.0
 40
3.0
  1
ΣS MAX 　　　　 56KN
 50
90.0
 41
0.8193670534278311
  7
FDASTYLE1
 72
     5
 11
234.251064061287
 21
62.78030824418037
 31
0.0
  0
TEXT
  5
452
  8
0
 62
     5
 10
239.251064061287
 20
9.980307874631563
 30
0.0
 40
3.0
  1
N MAX 6500 AT ΣS MAX
 50
90.0
 41
0.8505395087621925
  7
FDASTYLE1
 72
     5
 11
239.251064061287
 21
76.22030806298224
 31
0.0
  0
INSERT
  5
453
  8
LAYER0014
  6
CONTINUOUS
  2
DA_IMAGEDIMGROUP_1
 10
0.0
 20
0.0
 30
0.0
  0
INSERT
  5
454
  8
LAYER0014
  6
CONTINUOUS
  2
DA_IMAGEDIMGROUP_2
 10
0.0
 20
0.0
 30
0.0
  0
INSERT
  5
455
  8
LAYER0014
  6
CONTINUOUS
  2
DC_GROUP_1
 10
0.0
 20
0.0
 30
0.0
  0
INSERT
  5
456
  8
LAYER0014
  6
CONTINUOUS
  2
DA_IMAGEDIMGROUP_3
 10
0.0
 20
0.0
 30
0.0
  0
INSERT
  5
457
  8
LAYER0014
  6
CONTINUOUS
  2
DA_IMAGEDIMGROUP_4
 10
0.0
 20
0.0
 30
0.0
  0
INSERT
  5
458
  8
LAYER0014
  6
CONTINUOUS
  2
DA_IMAGEDIMGROUP_5
 10
0.0
 20
0.0
 30
0.0
  0
INSERT
  5
459
  8
LAYER0014
  6
CONTINUOUS
  2
DA_IMAGEDIMGROUP_6
 10
0.0
 20
0.0
 30
0.0
  0
INSERT
  5
45A
  8
LAYER0014
  6
CONTINUOUS
  2
DA_IMAGEDIMGROUP_7
 10
0.0
 20
0.0
 30
0.0
  0
INSERT
  5
45B
  8
LAYER0014
  6
CONTINUOUS
  2
DA_IMAGEDIMGROUP_8
 10
0.0
 20
0.0
 30
0.0
  0
INSERT
  5
45C
  8
LAYER0014
  6
CONTINUOUS
  2
DA_IMAGEDIMGROUP_9
 10
0.0
 20
0.0
 30
0.0
  0
INSERT
  5
45D
  8
LAYER0014
  6
CONTINUOUS
  2
DA_IMAGEDIMGROUP_10
 10
0.0
 20
0.0
 30
0.0
  0
INSERT
  5
45E
  8
LAYER0014
  6
CONTINUOUS
  2
DA_IMAGEDIMGROUP_11
 10
0.0
 20
0.0
 30
0.0
  0
INSERT
  5
45F
  8
LAYER0014
  6
CONTINUOUS
  2
DA_IMAGEDIMGROUP_12
 10
0.0
 20
0.0
 30
0.0
  0
INSERT
  5
460
  8
LAYER0014
  6
CONTINUOUS
  2
DA_IMAGEDIMGROUP_13
 10
0.0
 20
0.0
 30
0.0
  0
INSERT
  5
461
  8
LAYER0014
  6
CONTINUOUS
  2
DC_GROUP_2
 10
0.0
 20
0.0
 30
0.0
  0
INSERT
  5
462
  8
LAYER0014
  6
CONTINUOUS
  2
DA_IMAGEDIMGROUP_14
 10
0.0
 20
0.0
 30
0.0
  0
INSERT
  5
463
  8
LAYER0014
  6
CONTINUOUS
  2
DC_GROUP_3
 10
0.0
 20
0.0
 30
0.0
  0
INSERT
  5
464
  8
LAYER0014
  6
CONTINUOUS
  2
DA_IMAGEDIMGROUP_19
 10
0.0
 20
0.0
 30
0.0
  0
INSERT
  5
465
  8
LAYER0014
  6
CONTINUOUS
  2
DA_IMAGEDIMGROUP_20
 10
0.0
 20
0.0
 30
0.0
  0
INSERT
  5
466
  8
LAYER0014
  6
CONTINUOUS
  2
DA_IMAGEDIMGROUP_21
 10
0.0
 20
0.0
 30
0.0
  0
INSERT
  5
467
  8
LAYER0014
  6
CONTINUOUS
  2
DA_IMAGEDIMGROUP_22
 10
0.0
 20
0.0
 30
0.0
  0
INSERT
  5
468
  8
LAYER0014
  6
CONTINUOUS
  2
DA_IMAGEDIMGROUP_24
 10
0.0
 20
0.0
 30
0.0
  0
INSERT
  5
469
  8
LAYER0014
  6
CONTINUOUS
  2
DA_IMAGEDIMGROUP_25
 10
0.0
 20
0.0
 30
0.0
  0
INSERT
  5
46A
  8
LAYER0014
  6
CONTINUOUS
  2
DA_IMAGEDIMGROUP_26
 10
0.0
 20
0.0
 30
0.0
  0
INSERT
  5
46B
  8
LAYER0014
  6
CONTINUOUS
  2
DA_IMAGEDIMGROUP_28
 10
0.0
 20
0.0
 30
0.0
  0
INSERT
  5
46C
  8
LAYER0014
  6
CONTINUOUS
  2
DA_IMAGEDIMGROUP_29
 10
0.0
 20
0.0
 30
0.0
  0
INSERT
  5
46D
  8
LAYER0014
  6
CONTINUOUS
  2
DA_IMAGEDIMGROUP_30
 10
0.0
 20
0.0
 30
0.0
  0
INSERT
  5
46E
  8
LAYER0014
  6
CONTINUOUS
  2
DA_IMAGEDIMGROUP_31
 10
0.0
 20
0.0
 30
0.0
  0
INSERT
  5
46F
  8
LAYER0014
  6
CONTINUOUS
  2
DA_IMAGEDIMGROUP_32
 10
0.0
 20
0.0
 30
0.0
  0
INSERT
  5
470
  8
LAYER0014
  6
CONTINUOUS
  2
DA_IMAGEDIMGROUP_33
 10
0.0
 20
0.0
 30
0.0
  0
INSERT
  5
471
  8
LAYER0014
  6
CONTINUOUS
  2
DC_GROUP_4
 10
0.0
 20
0.0
 30
0.0
  0
INSERT
  5
472
  8
LAYER0014
  6
CONTINUOUS
  2
DC_GROUP_5
 10
0.0
 20
0.0
 30
0.0
  0
INSERT
  5
473
  8
0
  6
CONTINUOUS
  2
DA_IMAGEDIMGROUP_15
 10
0.0
 20
0.0
 30
0.0
  0
INSERT
  5
474
  8
0
  6
CONTINUOUS
  2
DA_IMAGEDIMGROUP_16
 10
0.0
 20
0.0
 30
0.0
  0
INSERT
  5
475
  8
0
  6
CONTINUOUS
  2
DA_IMAGEDIMGROUP_17
 10
0.0
 20
0.0
 30
0.0
  0
INSERT
  5
476
  8
0
  6
CONTINUOUS
  2
DA_IMAGEDIMGROUP_18
 10
0.0
 20
0.0
 30
0.0
  0
INSERT
  5
477
  8
0
  6
CONTINUOUS
  2
DA_IMAGEDIMGROUP_23
 10
0.0
 20
0.0
 30
0.0
  0
INSERT
  5
478
  8
0
  6
CONTINUOUS
  2
DA_IMAGEDIMGROUP_27
 10
0.0
 20
0.0
 30
0.0
  0
INSERT
  5
479
  8
0
  6
CONTINUOUS
  2
DA_IMAGEDIMGROUP_34
 10
0.0
 20
0.0
 30
0.0
  0
INSERT
  5
47A
  8
0
  6
CONTINUOUS
  2
DA_IMAGEDIMGROUP_35
 10
0.0
 20
0.0
 30
0.0
  0
INSERT
  5
47B
  8
0
  6
CONTINUOUS
  2
DC_GROUP_6
 10
0.0
 20
0.0
 30
0.0
  0
LINE
  5
47C
  8
0
  6
CONTINUOUS
 62
     3
 10
232.9314229480057
 20
71.20941740031211
 30
0.0
 11
232.9314229480057
 21
78.70941740031211
 31
0.0
  0
CIRCLE
  5
47D
  8
0
  6
CONTINUOUS
 62
     3
 10
115.7525746814042
 20
70.57879453654257
 30
0.0
 40
2.5
  0
CIRCLE
  5
47E
  8
0
  6
CONTINUOUS
 62
     3
 10
115.7525746814042
 20
11.18182950968711
 30
0.0
 40
2.5
  0
CIRCLE
  5
47F
  8
0
  6
CONTINUOUS
 62
     3
 10
175.149516820076
 20
11.18182188029258
 30
0.0
 40
2.5
  0
CIRCLE
  5
480
  8
0
  6
CONTINUOUS
 62
     3
 10
181.8241384021073
 20
19.88030820841758
 30
0.0
 40
5.5
  0
CIRCLE
  5
481
  8
0
  6
CONTINUOUS
 62
     3
 10
175.1495473376542
 20
70.57879453654257
 30
0.0
 40
2.5
  0
LINE
  5
482
  8
0
  6
CONTINUOUS
 62
     5
 10
225.4314229480057
 20
70.45941740031211
 30
0.0
 11
225.4314229480057
 21
65.95941740031211
 31
0.0
  0
LINE
  5
483
  8
0
  6
CONTINUOUS
 62
     5
 10
225.4314028828714
 20
65.95944220105073
 30
0.0
 11
224.6814020866793
 21
66.70944299724286
 31
0.0
  0
LINE
  5
484
  8
0
  6
CONTINUOUS
 62
     5
 10
225.4314564027042
 20
65.95937973777089
 30
0.0
 11
226.1814625304721
 21
66.70938599198033
 31
0.0
  0
LINE
  5
485
  8
0
  6
CONTINUOUS
 62
     5
 10
224.6814445008164
 20
69.7093944451033
 30
0.0
 11
225.4314506285843
 21
70.45940069931274
 31
0.0
  0
LINE
  5
486
  8
0
  6
CONTINUOUS
 62
     5
 10
226.18140907386
 20
69.70945157680788
 30
0.0
 11
225.4314136724644
 21
70.45944697820349
 31
0.0
  0
LINE
  5
487
  8
0
  6
CONTINUOUS
 62
     5
 10
224.6814273596698
 20
81.05967407605002
 30
0.0
 11
225.4314334874377
 21
81.80968033025945
 31
0.0
  0
LINE
  5
488
  8
0
  6
CONTINUOUS
 62
     5
 10
225.431419067261
 20
81.80972660915157
 30
0.0
 11
224.6814182710688
 21
82.55972740534369
 31
0.0
  0
LINE
  5
489
  8
0
  6
CONTINUOUS
 62
     5
 10
222.471782445076
 20
81.80967527384726
 30
0.0
 11
225.4314076892167
 21
81.80967527384726
 31
0.0
  0
LINE
  5
48A
  8
0
  6
CONTINUOUS
 62
     5
 10
227.3072006520878
 20
76.73649286208095
 30
0.0
 11
226.3327747064677
 21
76.58215904920874
 31
0.0
  0
LINE
  5
48B
  8
0
  6
CONTINUOUS
 62
     5
 10
227.307217536521
 20
76.73647719836256
 30
0.0
 11
227.1528859783403
 21
77.71088807305435
 31
0.0
  0
ARC
  5
48C
  8
0
  6
CONTINUOUS
 62
     5
 10
225.4510457507401
 20
74.88030820841757
 30
0.0
 40
2.625001907348633
 50
45.00010712017122
 51
339.9999593733081
  0
LINE
  5
48D
  8
0
  6
CONTINUOUS
 62
     5
 10
217.9314076892167
 20
71.20942502970664
 30
0.0
 11
232.9314076892167
 21
71.20942502970664
 31
0.0
  0
LINE
  5
48E
  8
0
  6
CONTINUOUS
 62
     5
 10
217.9314076892167
 20
71.20941740031211
 30
0.0
 11
217.9314076892167
 21
82.45942502970664
 31
0.0
  0
LINE
  5
48F
  8
0
  6
CONTINUOUS
 62
     5
 10
217.9314076892167
 20
82.45942502970664
 30
0.0
 11
220.1814076892167
 21
82.45942502970664
 31
0.0
  0
LINE
  5
490
  8
0
  6
CONTINUOUS
 62
     5
 10
220.1814229480057
 20
81.33441740031211
 30
0.0
 11
220.1814229480057
 21
82.45940977091757
 31
0.0
  0
LINE
  5
491
  8
0
  6
CONTINUOUS
 62
     5
 10
220.1814076892167
 20
81.33441740031211
 30
0.0
 11
221.6814076892167
 21
81.33441740031211
 31
0.0
  0
LINE
  5
492
  8
0
  6
CONTINUOUS
 62
     5
 10
221.6814229480057
 20
80.20941740031211
 30
0.0
 11
221.6814229480057
 21
81.33441740031211
 31
0.0
  0
LINE
  5
493
  8
0
  6
CONTINUOUS
 62
     5
 10
223.1814076892167
 20
78.70941740031211
 30
0.0
 11
223.1814076892167
 21
80.20941740031211
 31
0.0
  0
LINE
  5
494
  8
0
  6
CONTINUOUS
 62
     5
 10
221.6813924304276
 20
80.20942502970664
 30
0.0
 11
223.1814076892167
 21
80.20942502970664
 31
0.0
  0
LINE
  5
495
  8
0
  6
CONTINUOUS
 62
     5
 10
217.9314076892167
 20
78.70941740031211
 30
0.0
 11
232.9314076892167
 21
78.70941740031211
 31
0.0
  0
CIRCLE
  5
496
  8
0
  6
CONTINUOUS
 62
     4
 10
109.077983616951
 20
61.88030057902305
 30
0.0
 40
5.5
  0
ARC
  5
497
  8
0
  6
CONTINUOUS
 62
     4
 10
145.4510610095292
 20
40.88030820841758
 30
0.0
 40
48.0
 50
114.6243302738024
 51
245.3756387629753
  0
CIRCLE
  5
498
  8
0
  6
CONTINUOUS
 62
     4
 10
109.077983616951
 20
19.88031202311485
 30
0.0
 40
5.5
  0
ARC
  5
499
  8
0
  6
CONTINUOUS
 62
     4
 10
145.4510610095292
 20
40.88030820841758
 30
0.0
 40
48.0
 50
294.6243184346569
 51
360.0
  0
ARC
  5
49A
  8
0
  6
CONTINUOUS
 62
     4
 10
145.4510610095292
 20
40.88030820841758
 30
0.0
 40
48.0
 50
0.0
 51
65.37568156534314
  0
CIRCLE
  5
49B
  8
0
  6
CONTINUOUS
 62
     4
 10
181.8241384021073
 20
61.88031583781211
 30
0.0
 40
5.5
  0
TEXT
  5
49C
  8
0
 62
     4
 10
-224.9488550877252
 20
-169.2576998781033
 30
0.0
 40
3.200000047683716
  1
52ＴS型シリンダー（圧力1.9MPa)
 41
0.7263159550375882
  7
FDASTYLE1
 72
     5
 11
-161.8631388401666
 21
-169.2576998781033
 31
0.0
  0
VIEWPORT
  5
48
 67
     1
  8
0
 10
0.0
 20
0.0
 30
0.0
 40
1662.0
 41
1140.0
 68
     1
 69
     1
1001
ACAD
1000
MVIEW
1002
{
1070
    16
1010
0.0
1020
0.0
1030
0.0
1020
0.0
1030
0.0
1010
0.0
1020
0.0
1030
1.0
1020
0.0
1030
1.0
1040
0.0
1040
1140.0
1040
0.0
1040
0.0
1040
50.0
1040
0.0
1040
0.0
1070
     0
1070
   100
1070
     0
1070
     1
1070
     0
1070
     0
1070
     0
1070
     0
1040
0.0
1040
0.0
1040
0.0
1040
0.5
1040
0.5
1040
0.0
1040
0.0
1070
     0
1002
{
1002
}
1002
}
  0
ENDSEC
  0
EOF
