  0
SECTION
  2
HEADER
  9
$ACADVER
  1
AC1009
  9
$DWGCODEPAGE
  3
ansi_932
  9
$INSBASE
 10
0.0
 20
0.0
 30
0.0
  9
$EXTMIN
 10
-831.0
 20
-569.9999999999999
 30
0.0
  9
$EXTMAX
 10
831.0
 20
569.9999999999999
 30
0.0
  9
$LIMMIN
 10
-297.0
 20
-210.0
  9
$LIMMAX
 10
297.0
 20
210.0
  9
$ORTHOMODE
 70
     0
  9
$REGENMODE
 70
     1
  9
$FILLMODE
 70
     1
  9
$QTEXTMODE
 70
     0
  9
$MIRRTEXT
 70
     1
  9
$DRAGMODE
 70
     2
  9
$LTSCALE
 40
1.0
  9
$OSMODE
 70
    37
  9
$ATTMODE
 70
     1
  9
$TEXTSIZE
 40
0.2
  9
$TRACEWID
 40
0.05
  9
$TEXTSTYLE
  7
STANDARD
  9
$CLAYER
  8
0
  9
$CELTYPE
  6
BYLAYER
  9
$CECOLOR
 62
   256
  9
$DIMSCALE
 40
1.0
  9
$DIMASZ
 40
2.5
  9
$DIMEXO
 40
0.0625
  9
$DIMDLI
 40
0.38
  9
$DIMRND
 40
0.0
  9
$DIMDLE
 40
0.0
  9
$DIMEXE
 40
0.18
  9
$DIMTP
 40
0.0
  9
$DIMTM
 40
0.0
  9
$DIMTXT
 40
0.18
  9
$DIMCEN
 40
0.09
  9
$DIMTSZ
 40
0.0
  9
$DIMTOL
 70
     0
  9
$DIMLIM
 70
     0
  9
$DIMTIH
 70
     1
  9
$DIMTOH
 70
     1
  9
$DIMSE1
 70
     0
  9
$DIMSE2
 70
     0
  9
$DIMTAD
 70
     3
  9
$DIMZIN
 70
     0
  9
$DIMBLK
  1

  9
$DIMASO
 70
     1
  9
$DIMSHO
 70
     1
  9
$DIMPOST
  1

  9
$DIMAPOST
  1

  9
$DIMALT
 70
     0
  9
$DIMALTD
 70
     2
  9
$DIMALTF
 40
25.4
  9
$DIMLFAC
 40
1.0
  9
$DIMTOFL
 70
     0
  9
$DIMTVP
 40
0.0
  9
$DIMTIX
 70
     0
  9
$DIMSOXD
 70
     0
  9
$DIMSAH
 70
     0
  9
$DIMBLK1
  1

  9
$DIMBLK2
  1

  9
$DIMSTYLE
  2
STANDARD
  9
$DIMCLRD
 70
     0
  9
$DIMCLRE
 70
     0
  9
$DIMCLRT
 70
     0
  9
$DIMTFAC
 40
1.0
  9
$DIMGAP
 40
0.09
  9
$LUNITS
 70
     2
  9
$LUPREC
 70
     4
  9
$SKETCHINC
 40
0.1
  9
$FILLETRAD
 40
0.5
  9
$AUNITS
 70
     0
  9
$AUPREC
 70
     0
  9
$MENU
  1
.
  9
$ELEVATION
 40
0.0
  9
$PELEVATION
 40
0.0
  9
$THICKNESS
 40
0.0
  9
$LIMCHECK
 70
     0
  9
$CHAMFERA
 40
0.5
  9
$CHAMFERB
 40
0.5
  9
$SKPOLY
 70
     0
  9
$TDCREATE
 40
2456272.470341065
  9
$TDUPDATE
 40
2456272.470341077
  9
$TDINDWG
 40
0.0000000116
  9
$TDUSRTIMER
 40
0.0000000116
  9
$USRTIMER
 70
     1
  9
$ANGBASE
 50
0.0
  9
$ANGDIR
 70
     0
  9
$PDMODE
 70
     0
  9
$PDSIZE
 40
1.0
  9
$PLINEWID
 40
0.0
  9
$COORDS
 70
     1
  9
$SPLFRAME
 70
     0
  9
$SPLINETYPE
 70
     6
  9
$SPLINESEGS
 70
     8
  9
$ATTDIA
 70
     0
  9
$ATTREQ
 70
     1
  9
$HANDLING
 70
     1
  9
$HANDSEED
  5
4D4
  9
$SURFTAB1
 70
     6
  9
$SURFTAB2
 70
     6
  9
$SURFTYPE
 70
     6
  9
$SURFU
 70
     6
  9
$SURFV
 70
     6
  9
$UCSNAME
  2

  9
$UCSORG
 10
0.0
 20
0.0
 30
0.0
  9
$UCSXDIR
 10
1.0
 20
0.0
 30
0.0
  9
$UCSYDIR
 10
0.0
 20
1.0
 30
0.0
  9
$PUCSNAME
  2

  9
$PUCSORG
 10
0.0
 20
0.0
 30
0.0
  9
$PUCSXDIR
 10
1.0
 20
0.0
 30
0.0
  9
$PUCSYDIR
 10
0.0
 20
1.0
 30
0.0
  9
$USERI1
 70
     0
  9
$USERI2
 70
     0
  9
$USERI3
 70
     0
  9
$USERI4
 70
     0
  9
$USERI5
 70
     0
  9
$USERR1
 40
0.0
  9
$USERR2
 40
0.0
  9
$USERR3
 40
0.0
  9
$USERR4
 40
0.0
  9
$USERR5
 40
0.0
  9
$WORLDVIEW
 70
     1
  9
$SHADEDGE
 70
     3
  9
$SHADEDIF
 70
    70
  9
$TILEMODE
 70
     1
  9
$MAXACTVP
 70
    64
  9
$PLIMCHECK
 70
     0
  9
$PEXTMIN
 10
1.000000000000000E+20
 20
1.000000000000000E+20
 30
1.000000000000000E+20
  9
$PEXTMAX
 10
-1.000000000000000E+20
 20
-1.000000000000000E+20
 30
-1.000000000000000E+20
  9
$PLIMMIN
 10
0.0
 20
0.0
  9
$PLIMMAX
 10
12.0
 20
9.0
  9
$UNITMODE
 70
     0
  9
$VISRETAIN
 70
     0
  9
$PLINEGEN
 70
     1
  9
$PSLTSCALE
 70
     0
  0
ENDSEC
  0
SECTION
  2
TABLES
  0
TABLE
  2
VPORT
 70
     1
  0
VPORT
  2
*ACTIVE
 70
     0
 10
0.0
 20
0.0
 11
1.0
 21
1.0
 12
0.0
 22
0.0
 13
0.0
 23
0.0
 14
0.5
 24
0.5
 15
0.5
 25
0.5
 16
0.0
 26
0.0
 36
1.0
 17
-0.0000000000000036
 27
0.0
 37
0.0
 40
387.6
 41
1.457894736842106
 42
50.0
 43
0.0
 44
0.0
 50
0.0
 51
0.0
 71
     0
 72
  1000
 73
     1
 74
     1
 75
     0
 76
     0
 77
     0
 78
     0
  0
ENDTAB
  0
TABLE
  2
LTYPE
 70
    28
  0
LTYPE
  2
CONTINUOUS
 70
     0
  3
Solid line
 72
    65
 73
     0
 40
0.0
  0
LTYPE
  2
HIDDENX2
 70
     0
  3
CADPAC LINETYPE
 72
    65
 73
     2
 40
9.893992932862261
 49
7.420494699646696
 49
-2.473498233215565
  0
LTYPE
  2
HIDDEN
 70
     0
  3
CADPAC LINETYPE
 72
    65
 73
     2
 40
7.420494699646696
 49
4.946996466431131
 49
-2.473498233215565
  0
LTYPE
  2
HIDDEN2
 70
     0
  3
CADPAC LINETYPE
 72
    65
 73
     2
 40
6.183745583038913
 49
3.710247349823348
 49
-2.473498233215565
  0
LTYPE
  2
DASHED
 70
     0
  3
CADPAC LINETYPE
 72
    65
 73
     2
 40
6.925795053003583
 49
4.946996466431131
 49
-1.978798586572452
  0
LTYPE
  2
DASHED2
 70
     0
  3
CADPAC LINETYPE
 72
    65
 73
     2
 40
4.452296819787989
 49
2.968197879858678
 49
-1.484098939929311
  0
LTYPE
  2
DASHEDX2
 70
     0
  3
CADPAC LINETYPE
 72
    65
 73
     2
 40
11.87279151943466
 49
9.893992932862204
 49
-1.978798586572452
  0
LTYPE
  2
DOTX2
 70
     0
  3
CADPAC LINETYPE
 72
    65
 73
     2
 40
4.328621908127204
 49
0.0
 49
-4.328621908127204
  0
LTYPE
  2
DOT
 70
     0
  3
CADPAC LINETYPE
 72
    65
 73
     2
 40
3.462897526501763
 49
0.0
 49
-3.462897526501763
  0
LTYPE
  2
DOT2
 70
     0
  3
CADPAC LINETYPE
 72
    65
 73
     2
 40
2.597173144876322
 49
0.0
 49
-2.597173144876322
  0
LTYPE
  2
CENTERX2
 70
     0
  3
CADPAC LINETYPE
 72
    65
 73
     4
 40
14.84098939929339
 49
6.183745583038913
 49
-3.091872791519457
 49
2.473498233215565
 49
-3.091872791519457
  0
LTYPE
  2
CENTER
 70
     0
  3
CADPAC LINETYPE
 72
    65
 73
     4
 40
11.3780918727916
 49
4.946996466431131
 49
-2.473498233215565
 49
1.484098939929339
 49
-2.473498233215565
  0
LTYPE
  2
CENTER2
 70
     0
  3
CADPAC LINETYPE
 72
    65
 73
     4
 40
7.915194346289809
 49
3.710247349823348
 49
-1.855123674911674
 49
0.4946996466431131
 49
-1.855123674911674
  0
LTYPE
  2
DASHDOTX2
 70
     0
  3
CADPAC LINETYPE
 72
    65
 73
     4
 40
23.7455830388692
 49
11.87279151943466
 49
-3.957597173144848
 49
3.957597173144848
 49
-3.957597173144848
  0
LTYPE
  2
DASHDOT
 70
     0
  3
CADPAC LINETYPE
 72
    65
 73
     4
 40
11.87279151943466
 49
5.9363957597173
 49
-1.978798586572452
 49
1.978798586572452
 49
-1.978798586572452
  0
LTYPE
  2
DASHDOT2
 70
     0
  3
CADPAC LINETYPE
 72
    65
 73
     4
 40
7.618374558303898
 49
4.452296819787975
 49
-1.484098939929339
 49
0.1978798586572452
 49
-1.484098939929339
  0
LTYPE
  2
DIVIDEX2
 70
     0
  3
CADPAC LINETYPE
 72
    65
 73
     6
 40
31.6607773851589
 49
11.87279151943466
 49
-3.957597173144848
 49
3.957597173144848
 49
-3.957597173144848
 49
3.957597173144848
 49
-3.957597173144848
  0
LTYPE
  2
DIVIDE
 70
     0
  3
CADPAC LINETYPE
 72
    65
 73
     6
 40
15.83038869257956
 49
5.9363957597173
 49
-1.978798586572452
 49
1.978798586572452
 49
-1.978798586572452
 49
1.978798586572452
 49
-1.978798586572452
  0
LTYPE
  2
DIVIDE2
 70
     0
  3
CADPAC LINETYPE
 72
    65
 73
     6
 40
11.87279151943467
 49
4.452296819787975
 49
-1.484098939929339
 49
1.484098939929339
 49
-1.484098939929339
 49
1.484098939929339
 49
-1.484098939929339
  0
LTYPE
  2
BORDERX2
 70
     0
  3
CADPAC LINETYPE
 72
    65
 73
     6
 40
21.6431095406362
 49
6.183745583038913
 49
-3.091872791519457
 49
6.183745583038913
 49
-3.091872791519457
 49
0.0
 49
-3.091872791519457
  0
LTYPE
  2
BORDER
 70
     0
  3
CADPAC LINETYPE
 72
    65
 73
     6
 40
17.31448763250896
 49
4.946996466431131
 49
-2.473498233215565
 49
4.946996466431131
 49
-2.473498233215565
 49
0.0
 49
-2.473498233215565
  0
LTYPE
  2
BORDER2
 70
     0
  3
CADPAC LINETYPE
 72
    65
 73
     6
 40
12.86219081272091
 49
3.957597173144848
 49
-2.473498233215594
 49
1.484098939929311
 49
-2.473498233215594
 49
0.0
 49
-2.473498233215565
  0
LTYPE
  2
PHANTOMX2
 70
     0
  3
CADPAC LINETYPE
 72
    65
 73
     6
 40
18.55123674911674
 49
6.183745583038913
 49
-2.473498233215565
 49
2.473498233215565
 49
-2.473498233215565
 49
2.473498233215565
 49
-2.473498233215565
  0
LTYPE
  2
PHANTOM
 70
     0
  3
CADPAC LINETYPE
 72
    65
 73
     6
 40
15.33568904593651
 49
4.946996466431131
 49
-2.473498233215565
 49
1.484098939929339
 49
-2.473498233215565
 49
1.484098939929339
 49
-2.473498233215565
  0
LTYPE
  2
PHANTOM2
 70
     0
  3
CADPAC LINETYPE
 72
    65
 73
     6
 40
13.1095406360425
 49
3.710247349823348
 49
-2.473498233215565
 49
0.9893992932862261
 49
-2.473498233215565
 49
0.9893992932862261
 49
-2.473498233215565
  0
LTYPE
  2
ACAD_ISO06W100
 70
     0
  3
CADPAC LINETYPE
 72
    65
 73
     8
 40
26.21908127208496
 49
11.87279151943466
 49
-2.473498233215594
 49
1.484098939929311
 49
-2.473498233215594
 49
1.484098939929311
 49
-2.473498233215594
 49
1.484098939929311
 49
-2.473498233215594
  0
LTYPE
  2
ACAD_ISO13W100
 70
     0
  3
CADPAC LINETYPE
 72
    65
 73
     8
 40
19.78798586572452
 49
4.946996466431131
 49
-2.473498233215565
 49
4.946996466431131
 49
-2.473498233215565
 49
0.0
 49
-2.473498233215565
 49
0.0
 49
-2.473498233215565
  0
LTYPE
  2
ACAD_ISO14W100
 70
     0
  3
CADPAC LINETYPE
 72
    65
 73
     8
 40
14.84098939929339
 49
4.946996466431131
 49
-2.473498233215565
 49
0.0
 49
-2.473498233215565
 49
0.0
 49
-2.473498233215565
 49
0.0
 49
-2.473498233215565
  0
ENDTAB
  0
TABLE
  2
LAYER
 70
     3
  0
LAYER
  2
0
 70
     0
 62
     7
  6
CONTINUOUS
  0
LAYER
  2
LAYER0014
 70
     0
 62
     7
  6
CONTINUOUS
  0
LAYER
  2
ZUWAKU
 70
     0
 62
     7
  6
CONTINUOUS
  0
ENDTAB
  0
TABLE
  2
STYLE
 70
     5
  0
STYLE
  2
STANDARD
 70
     0
 40
0.0
 41
1.0
 50
0.0
 71
     0
 42
0.2
  3
txt
  4

  0
STYLE
  2
FDASTYLE1
 70
     0
 40
0.0
 41
0.7999999999999998
 50
0.0
 71
     0
 42
0.2
  3
txt.shx
  4
bigfont
  0
STYLE
  2
FDASTYLE0
 70
     4
 40
0.0
 41
0.8
 50
0.0
 71
     0
 42
0.2
  3
txt.shx
  4
bigfont
  0
STYLE
  2
FDASTYLE2
 70
     0
 40
0.0
 41
0.8123476848090983
 50
0.0
 71
     0
 42
0.2
  3
MSMINCHO.TTC
  4

  0
STYLE
  2
FDASTYLE3
 70
     0
 40
0.0
 41
0.77
 50
0.0
 71
     0
 42
0.2
  3
MSGOTHIC.TTC
  4

  0
ENDTAB
  0
TABLE
  2
VIEW
 70
     0
  0
ENDTAB
  0
TABLE
  2
UCS
 70
     0
  0
ENDTAB
  0
TABLE
  2
APPID
 70
     2
  0
APPID
  2
ACAD
 70
     0
  0
APPID
  2
DAFUSIONOUT
 70
     0
  0
ENDTAB
  0
TABLE
  2
DIMSTYLE
 70
     1
  0
DIMSTYLE
  2
STANDARD
 70
     0
  3

  4

  5

  6

  7

 40
1.0
 41
0.18
 42
0.0625
 43
0.38
 44
0.18
 45
0.0
 46
0.0
 47
0.0
 48
0.0
140
0.18
141
0.09
142
0.0
143
25.4
144
1.0
145
0.0
146
1.0
147
0.09
 71
     0
 72
     0
 73
     1
 74
     1
 75
     0
 76
     0
 77
     0
 78
     0
170
     0
171
     2
172
     0
173
     0
174
     0
175
     0
176
     0
177
     0
178
     0
  0
ENDTAB
  0
ENDSEC
  0
SECTION
  2
BLOCKS
  0
BLOCK
  8
0
  2
$MODEL_SPACE
 70
     0
 10
0.0
 20
0.0
 30
0.0
  3
$MODEL_SPACE
  1

  0
ENDBLK
  5
21
  8
0
  0
BLOCK
 67
     1
  8
0
  2
$PAPER_SPACE
 70
     0
 10
0.0
 20
0.0
 30
0.0
  3
$PAPER_SPACE
  1

  0
ENDBLK
  5
1D
 67
     1
  8
0
  0
BLOCK
  8
0
  2
DA_IMAGEDIMGROUP_1
 70
     0
 10
0.0
 20
0.0
 30
0.0
  3
DA_IMAGEDIMGROUP_1
  1

  0
LINE
  5
BB
  8
LAYER0014
  6
CONTINUOUS
 62
     7
 10
64.39783757202477
 20
23.16871824769223
 30
0.0
 11
49.00899689821084
 21
14.2839679237539
 31
0.0
  0
LINE
  5
BC
  8
LAYER0014
  6
CONTINUOUS
 62
     7
 10
71.39785420169667
 20
11.04433983015275
 30
0.0
 11
56.00901460223996
 21
2.159587926280045
 31
0.0
  0
LINE
  5
BD
  8
LAYER0014
  6
CONTINUOUS
 62
     7
 10
50.98873576403149
 20
15.4269501883893
 30
0.0
 11
57.98873671770581
 21
3.302593101205565
 31
0.0
  0
INSERT
  5
C4
  8
LAYER0014
 62
     7
  2
_OPEN30
 10
50.98873576403149
 20
15.4269501883893
 30
0.0
 41
1.50000139391263
 42
1.499998500689492
 50
120.0000004452921
  0
INSERT
  5
C5
  8
LAYER0014
 62
     7
  2
_OPEN30
 10
57.98873671770581
 20
3.302593101205565
 30
0.0
 41
1.50000139391263
 42
1.499998500689492
 50
300.0000004452921
  0
TEXT
  5
C7
  8
LAYER0014
 62
     7
 10
51.72174894081792
 20
15.15733423238314
 30
0.0
 40
4.0
  1
14H8
 50
-59.99999999999999
 41
0.7999999999999998
  7
FDASTYLE1
 72
     5
 11
58.12174894081792
 21
4.072209063942323
 31
0.0
  0
ENDBLK
  5
4E
  8
0
  0
BLOCK
  8
0
  2
DA_IMAGEDIMGROUP_2
 70
     0
 10
0.0
 20
0.0
 30
0.0
  3
DA_IMAGEDIMGROUP_2
  1

  0
LINE
  5
C8
  8
LAYER0014
  6
CONTINUOUS
 62
     7
 10
59.04168158634571
 20
32.20069058322483
 30
0.0
 11
32.10699891843485
 21
16.6499460124457
 31
0.0
  0
LINE
  5
C9
  8
LAYER0014
  6
CONTINUOUS
 62
     7
 10
76.54166651968379
 20
1.889849088917629
 30
0.0
 11
49.60697085446758
 21
-13.66090683683847
 31
0.0
  0
LINE
  5
CA
  8
LAYER0014
  6
CONTINUOUS
 62
     7
 10
34.08675716986149
 20
17.79294630296977
 30
0.0
 11
51.58675469626881
 21
-12.51793980774021
 31
0.0
  0
INSERT
  5
CB
  8
LAYER0014
 62
     7
  2
_OPEN30
 10
34.08675716986149
 20
17.79294630296977
 30
0.0
 41
1.50000139391263
 42
1.499998500689492
 50
119.9999989665127
  0
INSERT
  5
CC
  8
LAYER0014
 62
     7
  2
_OPEN30
 10
51.58675469626881
 20
-12.51793980774021
 30
0.0
 41
1.50000139391263
 42
1.499998500689492
 50
299.9999989665127
  0
TEXT
  5
CD
  8
LAYER0014
 62
     7
 10
41.6697686394668
 20
5.658784531914408
 30
0.0
 40
4.0
  1
35
 50
-59.99999999999999
 41
0.8000000000000006
  7
FDASTYLE1
 72
     5
 11
44.86976863946681
 21
0.116221947693997
 31
0.0
  0
ENDBLK
  5
51
  8
0
  0
BLOCK
  8
0
  2
DA_IMAGEDIMGROUP_3
 70
     0
 10
0.0
 20
0.0
 30
0.0
  3
DA_IMAGEDIMGROUP_3
  1

  0
LINE
  5
CE
  8
LAYER0014
  6
CONTINUOUS
 62
     7
 10
73.45514165165974
 20
116.6265389876881
 30
0.0
 11
43.97197880986288
 21
116.6265389876881
 31
0.0
  0
LINE
  5
CF
  8
LAYER0014
  6
CONTINUOUS
 62
     7
 10
46.10592137578085
 20
58.6265389876881
 30
0.0
 11
43.97197880986288
 21
58.6265389876881
 31
0.0
  0
LINE
  5
D0
  8
LAYER0014
  6
CONTINUOUS
 62
     7
 10
46.25797810795858
 20
116.6265389876881
 30
0.0
 11
46.25797810795858
 21
58.6265389876881
 31
0.0
  0
INSERT
  5
D1
  8
LAYER0014
 62
     7
  2
_OPEN30
 10
46.25797810795858
 20
116.6265389876881
 30
0.0
 41
1.50000139391263
 42
1.499998500689492
 50
90.0
  0
INSERT
  5
D2
  8
LAYER0014
 62
     7
  2
_OPEN30
 10
46.25797810795858
 20
58.6265389876881
 30
0.0
 41
1.50000139391263
 42
1.499998500689492
 50
270.0
  0
TEXT
  5
D3
  8
LAYER0014
 62
     7
 10
45.7523930571877
 20
84.42654386156556
 30
0.0
 40
4.0
  1
58
 50
89.90000000000001
 41
0.8000000000000025
  7
FDASTYLE1
 72
     5
 11
45.76356315872945
 21
90.82653411381062
 31
0.0
  0
ENDBLK
  5
54
  8
0
  0
BLOCK
  8
0
  2
DC_GROUP_1
 70
     0
 10
0.0
 20
0.0
 30
0.0
  3
DC_GROUP_1
  1

  0
LINE
  5
D4
  8
LAYER0014
  6
CONTINUOUS
 62
     7
 10
135.3287246287542
 20
-1.6662043785231
 30
0.0
 11
105.1718421932641
 21
-53.80184557372578
 31
0.0
  0
INSERT
  5
D5
  8
LAYER0014
 62
     7
  2
_OPEN30
 10
135.3287246287542
 20
-1.6662043785231
 30
0.0
 41
1.50000139391263
 42
1.499998500689492
 50
59.95357139008949
  0
LINE
  5
D6
  8
LAYER0014
  6
CONTINUOUS
 62
     7
 10
105.171846058398
 20
-53.80184388584706
 30
0.0
 11
74.54217686894491
 21
-53.80184388584706
 31
0.0
  0
TEXT
  5
D7
  8
LAYER0014
 62
     7
 10
76.60462746861532
 20
-52.20184388584706
 30
0.0
 40
4.0
  1
PCD104.77
 41
0.7999999999999999
  7
FDASTYLE1
 72
     5
 11
105.4046274686153
 21
-52.20184388584706
 31
0.0
  0
ENDBLK
  5
57
  8
0
  0
BLOCK
  8
0
  2
DA_IMAGEDIMGROUP_4
 70
     0
 10
0.0
 20
0.0
 30
0.0
  3
DA_IMAGEDIMGROUP_4
  1

  0
LINE
  5
D8
  8
LAYER0014
  6
CONTINUOUS
 62
     7
 10
-161.219846141309
 20
11.2415406661549
 30
0.0
 11
-174.9034331774418
 21
11.2415406661549
 31
0.0
  0
LINE
  5
D9
  8
LAYER0014
  6
CONTINUOUS
 62
     7
 10
-161.219846141309
 20
1.241540666154895
 30
0.0
 11
-174.9034331774418
 21
1.241540666154895
 31
0.0
  0
LINE
  5
DA
  8
LAYER0014
  6
CONTINUOUS
 62
     7
 10
-172.6174376940434
 20
11.2415406661549
 30
0.0
 11
-172.6174376940434
 21
1.241540666154895
 31
0.0
  0
INSERT
  5
DB
  8
LAYER0014
 62
     7
  2
_OPEN30
 10
-172.6174376940434
 20
11.2415406661549
 30
0.0
 41
1.50000139391263
 42
1.499998500689492
 50
90.0
  0
INSERT
  5
DC
  8
LAYER0014
 62
     7
  2
_OPEN30
 10
-172.6174376940434
 20
1.241540666154895
 30
0.0
 41
1.50000139391263
 42
1.499998500689492
 50
270.0
  0
TEXT
  5
DD
  8
LAYER0014
 62
     7
 10
-173.1258152701997
 20
1.441547976971105
 30
0.0
 40
4.0
  1
M10
 50
89.90000000000001
 41
0.8000000000000017
  7
FDASTYLE1
 72
     5
 11
-173.1090601178871
 21
11.04153335533869
 31
0.0
  0
ENDBLK
  5
5A
  8
0
  0
BLOCK
  8
0
  2
DA_IMAGEDIMGROUP_5
 70
     0
 10
0.0
 20
0.0
 30
0.0
  3
DA_IMAGEDIMGROUP_5
  1

  0
LINE
  5
DE
  8
LAYER0014
  6
CONTINUOUS
 62
     7
 10
-145.2198614000981
 20
99.90804075770762
 30
0.0
 11
-198.7754729723637
 21
99.90804075770762
 31
0.0
  0
LINE
  5
DF
  8
LAYER0014
  6
CONTINUOUS
 62
     7
 10
-145.2198614000981
 20
17.34503721766857
 30
0.0
 11
-198.7754729723637
 21
17.34503721766857
 31
0.0
  0
LINE
  5
E0
  8
LAYER0014
  6
CONTINUOUS
 62
     7
 10
-196.4894774889652
 20
99.90804075770762
 30
0.0
 11
-196.4894774889652
 21
17.34503721766857
 31
0.0
  0
INSERT
  5
E1
  8
LAYER0014
 62
     7
  2
_OPEN30
 10
-196.4894774889652
 20
99.90804075770762
 30
0.0
 41
1.50000139391263
 42
1.499998500689492
 50
90.0
  0
INSERT
  5
E2
  8
LAYER0014
 62
     7
  2
_OPEN30
 10
-196.4894774889652
 20
17.34503721766857
 30
0.0
 41
1.50000139391263
 42
1.499998500689492
 50
270.0
  0
TEXT
  5
E3
  8
LAYER0014
 62
     7
 10
-197.0369504205177
 20
31.42658041564668
 30
0.0
 40
4.0
  1
φ82.565(A2-5テーパー）
 50
89.90000000000001
 41
0.7472527472527468
  7
FDASTYLE1
 72
     5
 11
-196.9420045574128
 21
85.8264975597295
 31
0.0
  0
ENDBLK
  5
5D
  8
0
  0
BLOCK
  8
0
  2
DA_IMAGEDIMGROUP_6
 70
     0
 10
0.0
 20
0.0
 30
0.0
  3
DA_IMAGEDIMGROUP_6
  1

  0
LINE
  5
E4
  8
LAYER0014
  6
CONTINUOUS
 62
     7
 10
-190.3633519054337
 20
111.026540513567
 30
0.0
 11
-210.4339202379887
 21
111.026540513567
 31
0.0
  0
LINE
  5
E5
  8
LAYER0014
  6
CONTINUOUS
 62
     7
 10
-204.0967077135746
 20
58.6265389876881
 30
0.0
 11
-210.4339202379887
 21
58.6265389876881
 31
0.0
  0
LINE
  5
E6
  8
LAYER0014
  6
CONTINUOUS
 62
     7
 10
-208.1479247545902
 20
111.026540513567
 30
0.0
 11
-208.1479247545902
 21
58.6265389876881
 31
0.0
  0
INSERT
  5
E7
  8
LAYER0014
 62
     7
  2
_OPEN30
 10
-208.1479247545902
 20
111.026540513567
 30
0.0
 41
1.50000139391263
 42
1.499998500689492
 50
90.0
  0
INSERT
  5
E8
  8
LAYER0014
 62
     7
  2
_OPEN30
 10
-208.1479247545902
 20
58.6265389876881
 30
0.0
 41
1.50000139391263
 42
1.499998500689492
 50
270.0
  0
TEXT
  5
E9
  8
LAYER0014
 62
     7
 10
-208.6618873815174
 20
76.82655193532123
 30
0.0
 40
4.0
  1
R52.4
 50
89.90000000000001
 41
0.8000000000000004
  7
FDASTYLE1
 72
     5
 11
-208.633962127663
 21
92.82652756593384
 31
0.0
  0
ENDBLK
  5
60
  8
0
  0
BLOCK
  8
0
  2
DA_IMAGEDIMGROUP_7
 70
     0
 10
0.0
 20
0.0
 30
0.0
  3
DA_IMAGEDIMGROUP_7
  1

  0
LINE
  5
EA
  8
LAYER0014
  6
CONTINUOUS
 62
     7
 10
-146.2198614000981
 20
131.1265389876881
 30
0.0
 11
-222.9251006579106
 21
131.1265389876881
 31
0.0
  0
LINE
  5
EB
  8
LAYER0014
  6
CONTINUOUS
 62
     7
 10
-146.2198614000981
 20
-13.8734610123119
 30
0.0
 11
-222.9251006579106
 21
-13.8734610123119
 31
0.0
  0
LINE
  5
EC
  8
LAYER0014
  6
CONTINUOUS
 62
     7
 10
-220.6391051745121
 20
131.1265389876881
 30
0.0
 11
-220.6391051745121
 21
-13.8734610123119
 31
0.0
  0
INSERT
  5
ED
  8
LAYER0014
 62
     7
  2
_OPEN30
 10
-220.6391051745121
 20
131.1265389876881
 30
0.0
 41
1.50000139391263
 42
1.499998500689492
 50
90.0
  0
INSERT
  5
EE
  8
LAYER0014
 62
     7
  2
_OPEN30
 10
-220.6391051745121
 20
-13.8734610123119
 30
0.0
 41
1.50000139391263
 42
1.499998500689492
 50
270.0
  0
TEXT
  5
EF
  8
LAYER0014
 62
     7
 10
-221.1502752760539
 20
52.22654873544305
 30
0.0
 40
4.0
  1
φ145
 50
89.90000000000001
 41
0.7619047619047625
  7
FDASTYLE1
 72
     5
 11
-221.1279350729704
 21
65.02652923993314
 31
0.0
  0
ENDBLK
  5
63
  8
0
  0
BLOCK
  8
0
  2
DA_IMAGEDIMGROUP_8
 70
     0
 10
0.0
 20
0.0
 30
0.0
  3
DA_IMAGEDIMGROUP_8
  1

  0
LINE
  5
F0
  8
LAYER0014
  6
CONTINUOUS
 62
     7
 10
-146.2198614000981
 20
141.1265389876881
 30
0.0
 11
-234.8611510729496
 21
141.1265389876881
 31
0.0
  0
LINE
  5
F1
  8
LAYER0014
  6
CONTINUOUS
 62
     7
 10
-146.2198614000981
 20
-23.87346482700917
 30
0.0
 11
-234.8611510729496
 21
-23.87346482700917
 31
0.0
  0
LINE
  5
F2
  8
LAYER0014
  6
CONTINUOUS
 62
     7
 10
-232.5751403307621
 20
141.1265389876881
 30
0.0
 11
-232.5751403307621
 21
-23.8734610123119
 31
0.0
  0
INSERT
  5
F3
  8
LAYER0014
 62
     7
  2
_OPEN30
 10
-232.5751403307621
 20
141.1265389876881
 30
0.0
 41
1.50000139391263
 42
1.499998500689492
 50
90.0
  0
INSERT
  5
F4
  8
LAYER0014
 62
     7
  2
_OPEN30
 10
-232.5751403307621
 20
-23.8734610123119
 30
0.0
 41
1.50000139391263
 42
1.499998500689492
 50
270.0
  0
TEXT
  5
F5
  8
LAYER0014
 62
     7
 10
-233.0863104323039
 20
52.22654873544305
 30
0.0
 40
4.0
  1
φ165
 50
89.90000000000001
 41
0.7619047619047625
  7
FDASTYLE1
 72
     5
 11
-233.0639702292204
 21
65.02652923993314
 31
0.0
  0
ENDBLK
  5
66
  8
0
  0
BLOCK
  8
0
  2
DA_IMAGEDIMGROUP_9
 70
     0
 10
0.0
 20
0.0
 30
0.0
  3
DA_IMAGEDIMGROUP_9
  1

  0
LINE
  5
F6
  8
LAYER0014
  6
CONTINUOUS
 62
     7
 10
-129.219846141309
 20
89.12653898768809
 30
0.0
 11
-186.8394378161137
 21
89.12653898768809
 31
0.0
  0
LINE
  5
F7
  8
LAYER0014
  6
CONTINUOUS
 62
     7
 10
-129.219846141309
 20
28.1265389876881
 30
0.0
 11
-186.8394378161137
 21
28.1265389876881
 31
0.0
  0
LINE
  5
F8
  8
LAYER0014
  6
CONTINUOUS
 62
     7
 10
-184.5534423327152
 20
89.12653898768809
 30
0.0
 11
-184.5534423327152
 21
28.1265389876881
 31
0.0
  0
INSERT
  5
F9
  8
LAYER0014
 62
     7
  2
_OPEN30
 10
-184.5534423327152
 20
89.12653898768809
 30
0.0
 41
1.50000139391263
 42
1.499998500689492
 50
90.0
  0
INSERT
  5
FA
  8
LAYER0014
 62
     7
  2
_OPEN30
 10
-184.5534423327152
 20
28.1265389876881
 30
0.0
 41
1.50000139391263
 42
1.499998500689492
 50
270.0
  0
TEXT
  5
FB
  8
LAYER0014
 62
     7
 10
-185.0674049596424
 20
50.6265511723818
 30
0.0
 40
4.0
  1
φ61H7
 50
89.90000000000001
 41
0.7692307692307688
  7
FDASTYLE1
 72
     5
 11
-185.039479705788
 21
66.62652680299439
 31
0.0
  0
ENDBLK
  5
69
  8
0
  0
BLOCK
  8
0
  2
DA_IMAGEDIMGROUP_10
 70
     0
 10
0.0
 20
0.0
 30
0.0
  3
DA_IMAGEDIMGROUP_10
  1

  0
LINE
  5
FC
  8
LAYER0014
  6
CONTINUOUS
 62
     7
 10
-124.0257238268559
 20
83.62653898768809
 30
0.0
 11
-174.9034331774418
 21
83.62653898768809
 31
0.0
  0
LINE
  5
FD
  8
LAYER0014
  6
CONTINUOUS
 62
     7
 10
-124.0257390856449
 20
33.6265389876881
 30
0.0
 11
-174.9034331774418
 21
33.6265389876881
 31
0.0
  0
LINE
  5
FE
  8
LAYER0014
  6
CONTINUOUS
 62
     7
 10
-172.6174376940434
 20
83.62653898768809
 30
0.0
 11
-172.6174376940434
 21
33.6265389876881
 31
0.0
  0
INSERT
  5
FF
  8
LAYER0014
 62
     7
  2
_OPEN30
 10
-172.6174376940434
 20
83.62653898768809
 30
0.0
 41
1.50000139391263
 42
1.499998500689492
 50
90.0
  0
INSERT
  5
100
  8
LAYER0014
 62
     7
  2
_OPEN30
 10
-172.6174376940434
 20
33.6265389876881
 30
0.0
 41
1.50000139391263
 42
1.499998500689492
 50
270.0
  0
TEXT
  5
101
  8
LAYER0014
 62
     7
 10
-173.1397778971269
 20
45.826558483198
 30
0.0
 40
4.0
  1
M50×P1.5
 50
89.90000000000001
 41
0.7804878048780496
  7
FDASTYLE1
 72
     5
 11
-173.0950974909599
 21
71.42651949217819
 31
0.0
  0
ENDBLK
  5
6C
  8
0
  0
BLOCK
  8
0
  2
DA_IMAGEDIMGROUP_11
 70
     0
 10
0.0
 20
0.0
 30
0.0
  3
DA_IMAGEDIMGROUP_11
  1

  0
LINE
  5
102
  8
LAYER0014
  6
CONTINUOUS
 62
     7
 10
-103.3528875231449
 20
79.62653898768809
 30
0.0
 11
-162.3886321520512
 21
79.62653898768809
 31
0.0
  0
LINE
  5
103
  8
LAYER0014
  6
CONTINUOUS
 62
     7
 10
-103.3528875231449
 20
37.6265389876881
 30
0.0
 11
-162.3886321520512
 21
37.6265389876881
 31
0.0
  0
LINE
  5
104
  8
LAYER0014
  6
CONTINUOUS
 62
     7
 10
-160.1026366686527
 20
79.62653898768809
 30
0.0
 11
-160.1026366686527
 21
37.6265389876881
 31
0.0
  0
INSERT
  5
105
  8
LAYER0014
 62
     7
  2
_OPEN30
 10
-160.1026366686527
 20
79.62653898768809
 30
0.0
 41
1.50000139391263
 42
1.499998500689492
 50
90.0
  0
INSERT
  5
106
  8
LAYER0014
 62
     7
  2
_OPEN30
 10
-160.1026366686527
 20
37.6265389876881
 30
0.0
 41
1.50000139391263
 42
1.499998500689492
 50
270.0
  0
TEXT
  5
107
  8
LAYER0014
 62
     7
 10
-160.611014244809
 20
52.5839665249116
 30
0.0
 40
4.0
  1
φ42
 50
89.90000000000001
 41
0.7500000000000018
  7
FDASTYLE1
 72
     5
 11
-160.5942590924964
 21
62.18395190327918
 31
0.0
  0
TEXT
  5
108
  8
LAYER0014
 62
     7
 10
-163.0933826205967
 20
62.68831446265057
 30
0.0
 40
2.6
  1
+0.2
 50
89.90000000000001
 41
0.7999999999999993
  7
FDASTYLE1
 72
     5
 11
-163.0788614885925
 21
71.00830179056912
 31
0.0
  0
TEXT
  5
109
  8
LAYER0014
 62
     7
 10
-160.3933867329309
 20
62.68360207606265
 30
0.0
 40
2.6
  1
　0
 50
89.90000000000001
 41
0.7272727272727272
  7
FDASTYLE1
 72
     5
 11
-160.3861261669287
 21
66.84359574002193
 31
0.0
  0
ENDBLK
  5
6F
  8
0
  0
BLOCK
  8
0
  2
DA_IMAGEDIMGROUP_12
 70
     0
 10
0.0
 20
0.0
 30
0.0
  3
DA_IMAGEDIMGROUP_12
  1

  0
LINE
  5
10A
  8
LAYER0014
  6
CONTINUOUS
 62
     7
 10
-158.679846141309
 20
-1.298459333845104
 30
0.0
 11
-158.679846141309
 21
-10.46897721714589
 31
0.0
  0
LINE
  5
10B
  8
LAYER0014
  6
CONTINUOUS
 62
     7
 10
-158.679846141309
 20
-8.182977919050183
 30
0.0
 11
-142.679846141309
 21
-8.182977919050183
 31
0.0
  0
INSERT
  5
10C
  8
LAYER0014
 62
     7
  2
_OPEN30
 10
-158.679846141309
 20
-8.182977919050183
 30
0.0
 41
1.50000139391263
 42
1.499998500689492
 50
180.0
  0
INSERT
  5
10D
  8
LAYER0014
 62
     7
  2
_OPEN30
 10
-142.679846141309
 20
-8.182977919050183
 30
0.0
 41
1.50000139391263
 42
1.499998500689492
 50
360.0
  0
TEXT
  5
10E
  8
LAYER0014
 62
     7
 10
-153.879846141309
 20
-7.682977919050183
 30
0.0
 40
4.0
  1
16
 41
0.7999999999999972
  7
FDASTYLE1
 72
     5
 11
-147.479846141309
 21
-7.682977919050183
 31
0.0
  0
ENDBLK
  5
72
  8
0
  0
BLOCK
  8
0
  2
DA_IMAGEDIMGROUP_13
 70
     0
 10
0.0
 20
0.0
 30
0.0
  3
DA_IMAGEDIMGROUP_13
  1

  0
LINE
  5
10F
  8
LAYER0014
  6
CONTINUOUS
 62
     7
 10
-40.94771509882853
 20
23.6265389876881
 30
0.0
 11
-28.26858744379923
 21
23.6265389876881
 31
0.0
  0
LINE
  5
110
  8
LAYER0014
  6
CONTINUOUS
 62
     7
 10
-30.55458674189494
 20
23.6265389876881
 30
0.0
 11
-30.55458674189494
 21
79.62653898768809
 31
0.0
  0
INSERT
  5
111
  8
LAYER0014
 62
     7
  2
_OPEN30
 10
-30.55458674189494
 20
23.6265389876881
 30
0.0
 41
1.50000139391263
 42
1.499998500689492
 50
270.0
  0
TEXT
  5
112
  8
LAYER0014
 62
     7
 10
-31.05458674189494
 20
51.25030164677172
 30
0.0
 40
4.0
  1
PCD70
 50
90.0
 41
0.8
  7
FDASTYLE1
 72
     5
 11
-31.05458674189494
 21
67.25030164677172
 31
0.0
  0
ENDBLK
  5
75
  8
0
  0
BLOCK
  8
0
  2
DA_IMAGEDIMGROUP_14
 70
     0
 10
0.0
 20
0.0
 30
0.0
  3
DA_IMAGEDIMGROUP_14
  1

  0
LINE
  5
113
  8
LAYER0014
  6
CONTINUOUS
 62
     7
 10
-45.13986140009806
 20
17.1265389876881
 30
0.0
 11
-16.27340922114298
 21
17.1265389876881
 31
0.0
  0
LINE
  5
114
  8
LAYER0014
  6
CONTINUOUS
 62
     7
 10
-18.55940851923869
 20
17.1265389876881
 30
0.0
 11
-18.55940851923869
 21
79.62653898768809
 31
0.0
  0
INSERT
  5
115
  8
LAYER0014
 62
     7
  2
_OPEN30
 10
-18.55940851923869
 20
17.1265389876881
 30
0.0
 41
1.50000139391263
 42
1.499998500689492
 50
270.0
  0
TEXT
  5
116
  8
LAYER0014
 62
     7
 10
-19.05940851923869
 20
54.59657356560541
 30
0.0
 40
4.0
  1
φ83
 50
90.0
 41
0.7499999999999996
  7
FDASTYLE1
 72
     5
 11
-19.05940851923869
 21
64.19657356560541
 31
0.0
  0
ENDBLK
  5
78
  8
0
  0
BLOCK
  8
0
  2
DA_IMAGEDIMGROUP_15
 70
     0
 10
0.0
 20
0.0
 30
0.0
  3
DA_IMAGEDIMGROUP_15
  1

  0
LINE
  5
117
  8
LAYER0014
  6
CONTINUOUS
 62
     7
 10
-16.57456904169963
 20
58.6265389876881
 30
0.0
 11
7.598645832567954
 21
58.6265389876881
 31
0.0
  0
LINE
  5
118
  8
LAYER0014
  6
CONTINUOUS
 62
     7
 10
-43.13986140009806
 20
91.12653898768809
 30
0.0
 11
7.598645832567954
 21
91.12653898768809
 31
0.0
  0
LINE
  5
119
  8
LAYER0014
  6
CONTINUOUS
 62
     7
 10
5.31264653447225
 20
58.6265389876881
 30
0.0
 11
5.31264653447225
 21
91.12653898768809
 31
0.0
  0
INSERT
  5
11A
  8
LAYER0014
 62
     7
  2
_OPEN30
 10
5.31264653447225
 20
58.6265389876881
 30
0.0
 41
1.50000139391263
 42
1.499998500689492
 50
270.0
  0
INSERT
  5
11B
  8
LAYER0014
 62
     7
  2
_OPEN30
 10
5.31264653447225
 20
91.12653898768809
 30
0.0
 41
1.50000139391263
 42
1.499998500689492
 50
90.0
  0
TEXT
  5
11C
  8
LAYER0014
 62
     7
 10
4.812646534472251
 20
63.67653898768809
 30
0.0
 40
4.0
  1
MAX34.1
 50
90.0
 41
0.8000000000000002
  7
FDASTYLE1
 72
     5
 11
4.812646534472251
 21
86.0765389876881
 31
0.0
  0
ENDBLK
  5
7B
  8
0
  0
BLOCK
  8
0
  2
DA_IMAGEDIMGROUP_16
 70
     0
 10
0.0
 20
0.0
 30
0.0
  3
DA_IMAGEDIMGROUP_16
  1

  0
LINE
  5
11D
  8
LAYER0014
  6
CONTINUOUS
 62
     7
 10
-43.13986140009806
 20
139.1265389876881
 30
0.0
 11
7.598645832567954
 21
139.1265389876881
 31
0.0
  0
LINE
  5
11E
  8
LAYER0014
  6
CONTINUOUS
 62
     7
 10
5.31264653447225
 20
91.12653898768809
 30
0.0
 11
5.31264653447225
 21
139.1265389876881
 31
0.0
  0
INSERT
  5
11F
  8
LAYER0014
 62
     7
  2
_OPEN30
 10
5.31264653447225
 20
91.12653898768809
 30
0.0
 41
1.50000139391263
 42
1.499998500689492
 50
270.0
  0
INSERT
  5
120
  8
LAYER0014
 62
     7
  2
_OPEN30
 10
5.31264653447225
 20
139.1265389876881
 30
0.0
 41
1.50000139391263
 42
1.499998500689492
 50
90.0
  0
TEXT
  5
121
  8
LAYER0014
 62
     7
 10
4.81264653447225
 20
111.9265389876881
 30
0.0
 40
4.0
  1
48
 50
90.0
 41
0.8000000000000007
  7
FDASTYLE1
 72
     5
 11
4.81264653447225
 21
118.3265389876881
 31
0.0
  0
ENDBLK
  5
7E
  8
0
  0
BLOCK
  8
0
  2
DA_IMAGEDIMGROUP_17
 70
     0
 10
0.0
 20
0.0
 30
0.0
  3
DA_IMAGEDIMGROUP_17
  1

  0
LINE
  5
122
  8
LAYER0014
  6
CONTINUOUS
 62
     7
 10
-126.679846141309
 20
16.8050334029713
 30
0.0
 11
-126.679846141309
 21
-43.93622804112049
 31
0.0
  0
LINE
  5
123
  8
LAYER0014
  6
CONTINUOUS
 62
     7
 10
-142.679846141309
 20
-41.65022492832753
 30
0.0
 11
-126.679846141309
 21
-41.65022492832753
 31
0.0
  0
INSERT
  5
124
  8
LAYER0014
 62
     7
  2
_OPEN30
 10
-142.679846141309
 20
-41.65022492832753
 30
0.0
 41
1.50000139391263
 42
1.499998500689492
 50
180.0
  0
INSERT
  5
125
  8
LAYER0014
 62
     7
  2
_OPEN30
 10
-126.679846141309
 20
-41.65022492832753
 30
0.0
 41
1.50000139391263
 42
1.499998500689492
 50
360.0
  0
TEXT
  5
126
  8
LAYER0014
 62
     7
 10
-137.879846141309
 20
-41.15022492832753
 30
0.0
 40
4.0
  1
16
 41
0.7999999999999972
  7
FDASTYLE1
 72
     5
 11
-131.479846141309
 21
-41.15022492832753
 31
0.0
  0
ENDBLK
  5
81
  8
0
  0
BLOCK
  8
0
  2
DA_IMAGEDIMGROUP_18
 70
     0
 10
0.0
 20
0.0
 30
0.0
  3
DA_IMAGEDIMGROUP_18
  1

  0
LINE
  5
127
  8
LAYER0014
  6
CONTINUOUS
 62
     7
 10
-121.6857360338871
 20
26.5865389876881
 30
0.0
 11
-121.6857360338871
 21
-56.14983582920643
 31
0.0
  0
LINE
  5
128
  8
LAYER0014
  6
CONTINUOUS
 62
     7
 10
-142.679846141309
 20
-53.86383271641346
 30
0.0
 11
-121.6857360338871
 21
-53.86383271641346
 31
0.0
  0
INSERT
  5
129
  8
LAYER0014
 62
     7
  2
_OPEN30
 10
-142.679846141309
 20
-53.86383271641346
 30
0.0
 41
1.50000139391263
 42
1.499998500689492
 50
180.0
  0
INSERT
  5
12A
  8
LAYER0014
 62
     7
  2
_OPEN30
 10
-121.6857360338871
 20
-53.86383271641346
 30
0.0
 41
1.50000139391263
 42
1.499998500689492
 50
360.0
  0
TEXT
  5
12B
  8
LAYER0014
 62
     7
 10
-140.1827789029044
 20
-53.34987008948627
 30
0.0
 40
4.0
  1
MAX28
 50
-0.1000000000000078
 41
0.7999999999999996
  7
FDASTYLE1
 72
     5
 11
-124.1828032722918
 21
-53.37779534334065
 31
0.0
  0
ENDBLK
  5
84
  8
0
  0
BLOCK
  8
0
  2
DA_IMAGEDIMGROUP_19
 70
     0
 10
0.0
 20
0.0
 30
0.0
  3
DA_IMAGEDIMGROUP_19
  1

  0
LINE
  5
12C
  8
LAYER0014
  6
CONTINUOUS
 62
     7
 10
-54.68573603388713
 20
33.0865389876881
 30
0.0
 11
-54.68573603388713
 21
-56.14983582920643
 31
0.0
  0
LINE
  5
12D
  8
LAYER0014
  6
CONTINUOUS
 62
     7
 10
-121.6857360338871
 20
-53.86383271641346
 30
0.0
 11
-54.68573603388713
 21
-53.86383271641346
 31
0.0
  0
INSERT
  5
12E
  8
LAYER0014
 62
     7
  2
_OPEN30
 10
-121.6857360338871
 20
-53.86383271641346
 30
0.0
 41
1.50000139391263
 42
1.499998500689492
 50
180.0
  0
INSERT
  5
12F
  8
LAYER0014
 62
     7
  2
_OPEN30
 10
-54.68573603388713
 20
-53.86383271641346
 30
0.0
 41
1.50000139391263
 42
1.499998500689492
 50
360.0
  0
TEXT
  5
130
  8
LAYER0014
 62
     7
 10
-91.38573603388713
 20
-53.36383271641346
 30
0.0
 40
4.0
  1
67
 41
0.8000000000000007
  7
FDASTYLE1
 72
     5
 11
-84.98573603388712
 21
-53.36383271641346
 31
0.0
  0
ENDBLK
  5
87
  8
0
  0
BLOCK
  8
0
  2
DA_IMAGEDIMGROUP_20
 70
     0
 10
0.0
 20
0.0
 30
0.0
  3
DA_IMAGEDIMGROUP_20
  1

  0
LINE
  5
131
  8
LAYER0014
  6
CONTINUOUS
 62
     7
 10
-142.679846141309
 20
-65.79985261387441
 30
0.0
 11
-47.67986140009806
 21
-65.79985261387441
 31
0.0
  0
INSERT
  5
132
  8
LAYER0014
 62
     7
  2
_OPEN30
 10
-142.679846141309
 20
-65.79985261387441
 30
0.0
 41
1.50000139391263
 42
1.499998500689492
 50
180.0
  0
INSERT
  5
133
  8
LAYER0014
 62
     7
  2
_OPEN30
 10
-47.67986140009806
 20
-65.79985261387441
 30
0.0
 41
1.50000139391263
 42
1.499998500689492
 50
360.0
  0
TEXT
  5
134
  8
LAYER0014
 62
     7
 10
-98.37985377070352
 20
-65.29985261387441
 30
0.0
 40
4.0
  1
95
 41
0.8000000000000007
  7
FDASTYLE1
 72
     5
 11
-91.97985377070351
 21
-65.29985261387441
 31
0.0
  0
ENDBLK
  5
8A
  8
0
  0
BLOCK
  8
0
  2
DA_IMAGEDIMGROUP_21
 70
     0
 10
0.0
 20
0.0
 30
0.0
  3
DA_IMAGEDIMGROUP_21
  1

  0
LINE
  5
135
  8
LAYER0014
  6
CONTINUOUS
 62
     7
 10
-143.679846141309
 20
-26.4134610123119
 30
0.0
 11
-143.679846141309
 21
-80.02189088291738
 31
0.0
  0
LINE
  5
136
  8
LAYER0014
  6
CONTINUOUS
 62
     7
 10
-47.67986140009806
 20
-24.4134610123119
 30
0.0
 11
-47.67986140009806
 21
-80.02189088291738
 31
0.0
  0
LINE
  5
137
  8
LAYER0014
  6
CONTINUOUS
 62
     7
 10
-143.679846141309
 20
-77.73588777012441
 30
0.0
 11
-47.67986140009806
 21
-77.73588777012441
 31
0.0
  0
INSERT
  5
138
  8
LAYER0014
 62
     7
  2
_OPEN30
 10
-143.679846141309
 20
-77.73588777012441
 30
0.0
 41
1.50000139391263
 42
1.499998500689492
 50
180.0
  0
INSERT
  5
139
  8
LAYER0014
 62
     7
  2
_OPEN30
 10
-47.67986140009806
 20
-77.73588777012441
 30
0.0
 41
1.50000139391263
 42
1.499998500689492
 50
360.0
  0
TEXT
  5
13A
  8
LAYER0014
 62
     7
 10
-98.87985377070352
 20
-77.23588777012441
 30
0.0
 40
4.0
  1
96
 41
0.8000000000000007
  7
FDASTYLE1
 72
     5
 11
-92.47985377070351
 21
-77.23588777012441
 31
0.0
  0
ENDBLK
  5
8D
  8
0
  0
BLOCK
  8
0
  2
DA_IMAGEDIMGROUP_22
 70
     0
 10
0.0
 20
0.0
 30
0.0
  3
DA_IMAGEDIMGROUP_22
  1

  0
LINE
  5
13B
  8
LAYER0014
  6
CONTINUOUS
 62
     7
 10
-121.6857360338871
 20
44.40020155482677
 30
0.0
 11
-104.6857360338871
 21
44.40020155482677
 31
0.0
  0
INSERT
  5
13C
  8
LAYER0014
 62
     7
  2
_OPEN30
 10
-121.6857360338871
 20
44.40020155482677
 30
0.0
 41
1.50000139391263
 42
1.499998500689492
 50
180.0
  0
INSERT
  5
13D
  8
LAYER0014
 62
     7
  2
_OPEN30
 10
-104.6857360338871
 20
44.40020155482677
 30
0.0
 41
1.50000139391263
 42
1.499998500689492
 50
360.0
  0
TEXT
  5
13E
  8
LAYER0014
 62
     7
 10
-116.3857360338871
 20
44.90020155482677
 30
0.0
 40
4.0
  1
17
 41
0.8000000000000007
  7
FDASTYLE1
 72
     5
 11
-109.9857360338871
 21
44.90020155482677
 31
0.0
  0
ENDBLK
  5
90
  8
0
  0
BLOCK
  8
0
  2
DA_IMAGEDIMGROUP_23
 70
     0
 10
0.0
 20
0.0
 30
0.0
  3
DA_IMAGEDIMGROUP_23
  1

  0
LINE
  5
13F
  8
LAYER0014
  6
CONTINUOUS
 62
     7
 10
-101.6857360338871
 20
44.40020155482677
 30
0.0
 11
-54.68573603388713
 21
44.40020155482677
 31
0.0
  0
INSERT
  5
140
  8
LAYER0014
 62
     7
  2
_OPEN30
 10
-101.6857360338871
 20
44.40020155482677
 30
0.0
 41
1.50000139391263
 42
1.499998500689492
 50
180.0
  0
INSERT
  5
141
  8
LAYER0014
 62
     7
  2
_OPEN30
 10
-54.68573603388713
 20
44.40020155482677
 30
0.0
 41
1.50000139391263
 42
1.499998500689492
 50
360.0
  0
TEXT
  5
142
  8
LAYER0014
 62
     7
 10
-81.38573603388713
 20
44.90020155482677
 30
0.0
 40
4.0
  1
47
 41
0.8000000000000007
  7
FDASTYLE1
 72
     5
 11
-74.98573603388712
 21
44.90020155482677
 31
0.0
  0
ENDBLK
  5
93
  8
0
  0
BLOCK
  8
0
  2
DA_IMAGEDIMGROUP_24
 70
     0
 10
0.0
 20
0.0
 30
0.0
  3
DA_IMAGEDIMGROUP_24
  1

  0
LINE
  5
143
  8
0
  6
CONTINUOUS
 62
     7
 10
-143.679846141309
 20
102.8865411239186
 30
0.0
 11
-185.5578956253153
 21
102.8865411239186
 31
0.0
  0
LINE
  5
144
  8
0
  6
CONTINUOUS
 62
     7
 10
-143.679846141309
 20
119.16654753261
 30
0.0
 11
-185.5578956253153
 21
119.16654753261
 31
0.0
  0
LINE
  5
145
  8
0
  6
CONTINUOUS
 62
     7
 10
-184.5578956253153
 20
102.8865411239186
 30
0.0
 11
-184.5578956253153
 21
119.16654753261
 31
0.0
  0
INSERT
  5
146
  8
0
 62
     7
  2
_OPEN30
 10
-184.5578956253153
 20
102.8865411239186
 30
0.0
 41
1.50000139391263
 42
1.499998500689492
 50
270.0
  0
INSERT
  5
147
  8
0
 62
     7
  2
_OPEN30
 10
-184.5578956253153
 20
119.16654753261
 30
0.0
 41
1.50000139391263
 42
1.499998500689492
 50
90.0
  0
TEXT
  5
148
  8
0
 62
     7
 10
-185.0578956253153
 20
103.3580088774114
 30
0.0
 40
4.0
  1
φ16.28
 50
90.0
 41
0.7741935483870963
  7
FDASTYLE1
 72
     5
 11
-185.0578956253153
 21
122.5580088774114
 31
0.0
  0
TEXT
  5
149
  8
0
 62
     7
 10
-187.5578956253153
 20
123.0580088774114
 30
0.0
 40
2.6
  1
+0.1
 50
90.0
 41
0.7999999999999979
  7
FDASTYLE1
 72
     5
 11
-187.5578956253153
 21
131.3780088774113
 31
0.0
  0
TEXT
  5
14A
  8
0
 62
     7
 10
-184.8578956253153
 20
123.0580088774114
 30
0.0
 40
2.6
  1
　0
 50
90.0
 41
0.7272727272727266
  7
FDASTYLE1
 72
     5
 11
-184.8578956253153
 21
127.2180088774114
 31
0.0
  0
ENDBLK
  5
96
  8
0
  0
BLOCK
  8
0
  2
DA_IMAGEDIMGROUP_25
 70
     0
 10
0.0
 20
0.0
 30
0.0
  3
DA_IMAGEDIMGROUP_25
  1

  0
LINE
  5
14B
  8
0
  6
CONTINUOUS
 62
     7
 10
-136.1798614000981
 20
120.16654753261
 30
0.0
 11
-136.1798614000981
 21
155.0464191059134
 31
0.0
  0
LINE
  5
14C
  8
0
  6
CONTINUOUS
 62
     7
 10
-142.679846141309
 20
132.1265389876881
 30
0.0
 11
-142.679846141309
 21
155.0464191059134
 31
0.0
  0
LINE
  5
14D
  8
0
  6
CONTINUOUS
 62
     7
 10
-142.679846141309
 20
154.0464191059134
 30
0.0
 11
-136.1798614000981
 21
154.0464191059134
 31
0.0
  0
LINE
  5
14E
  8
0
  6
CONTINUOUS
 62
     7
 10
-156.211696141309
 20
154.0464191059134
 30
0.0
 11
-142.679846141309
 21
154.0464191059134
 31
0.0
  0
INSERT
  5
14F
  8
0
 62
     7
  2
_OPEN30
 10
-142.679846141309
 20
154.0464191059134
 30
0.0
 41
1.50000139391263
 42
1.499998500689492
 50
360.0
  0
LINE
  5
150
  8
0
  6
CONTINUOUS
 62
     7
 10
-131.1798614000981
 20
154.0464191059134
 30
0.0
 11
-136.1798614000981
 21
154.0464191059134
 31
0.0
  0
INSERT
  5
151
  8
0
 62
     7
  2
_OPEN30
 10
-136.1798614000981
 20
154.0464191059134
 30
0.0
 41
1.50000139391263
 42
1.499998500689492
 50
180.0
  0
TEXT
  5
152
  8
0
 62
     7
 10
-155.211696141309
 20
154.5464191059134
 30
0.0
 40
4.0
  1
6.5
 41
0.7999999999999995
  7
FDASTYLE1
 72
     5
 11
-145.611696141309
 21
154.5464191059134
 31
0.0
  0
ENDBLK
  5
99
  8
0
  0
BLOCK
  8
0
  2
DA_IMAGEDIMGROUP_26
 70
     0
 10
0.0
 20
0.0
 30
0.0
  3
DA_IMAGEDIMGROUP_26
  1

  0
LINE
  5
153
  8
0
  6
CONTINUOUS
 62
     7
 10
-45.67986140009806
 20
90.12653898768809
 30
0.0
 11
-45.67986140009806
 21
70.57371080851011
 31
0.0
  0
LINE
  5
154
  8
0
  6
CONTINUOUS
 62
     7
 10
-47.67986140009806
 20
71.57371080851011
 30
0.0
 11
-45.67986140009806
 21
71.57371080851011
 31
0.0
  0
LINE
  5
155
  8
0
  6
CONTINUOUS
 62
     7
 10
-38.54801140009806
 20
71.57371080851011
 30
0.0
 11
-45.67986140009806
 21
71.57371080851011
 31
0.0
  0
INSERT
  5
156
  8
0
 62
     7
  2
_OPEN30
 10
-45.67986140009806
 20
71.57371080851011
 30
0.0
 41
1.50000139391263
 42
1.499998500689492
 50
180.0
  0
LINE
  5
157
  8
0
  6
CONTINUOUS
 62
     7
 10
-52.67986140009806
 20
71.57371080851011
 30
0.0
 11
-47.67986140009806
 21
71.57371080851011
 31
0.0
  0
INSERT
  5
158
  8
0
 62
     7
  2
_OPEN30
 10
-47.67986140009806
 20
71.57371080851011
 30
0.0
 41
1.50000139391263
 42
1.499998500689492
 50
360.0
  0
TEXT
  5
159
  8
0
 62
     7
 10
-42.74801140009807
 20
72.07371080851011
 30
0.0
 40
4.0
  1
2
 41
0.8000000000000007
  7
FDASTYLE1
 72
     5
 11
-39.54801140009806
 21
72.07371080851011
 31
0.0
  0
ENDBLK
  5
9C
  8
0
  0
BLOCK
  8
0
  2
DA_IMAGEDIMGROUP_27
 70
     0
 10
0.0
 20
0.0
 30
0.0
  3
DA_IMAGEDIMGROUP_27
  1

  0
LINE
  5
15A
  8
0
  6
CONTINUOUS
 62
     7
 10
-60.67986140009806
 20
97.12653898768809
 30
0.0
 11
-71.38197839972968
 21
97.12653898768809
 31
0.0
  0
LINE
  5
15B
  8
0
  6
CONTINUOUS
 62
     7
 10
-60.67986140009806
 20
135.1265389876881
 30
0.0
 11
-71.38197839972968
 21
135.1265389876881
 31
0.0
  0
LINE
  5
15C
  8
0
  6
CONTINUOUS
 62
     7
 10
-70.38197839972968
 20
97.12653898768809
 30
0.0
 11
-70.38197839972968
 21
135.1265389876881
 31
0.0
  0
INSERT
  5
15D
  8
0
 62
     7
  2
_OPEN30
 10
-70.38197839972968
 20
97.12653898768809
 30
0.0
 41
1.50000139391263
 42
1.499998500689492
 50
270.0
  0
INSERT
  5
15E
  8
0
 62
     7
  2
_OPEN30
 10
-70.38197839972968
 20
135.1265389876881
 30
0.0
 41
1.50000139391263
 42
1.499998500689492
 50
90.0
  0
TEXT
  5
15F
  8
0
 62
     7
 10
-70.88197839972968
 20
112.9265389876881
 30
0.0
 40
4.0
  1
38
 50
90.0
 41
0.8000000000000007
  7
FDASTYLE1
 72
     5
 11
-70.88197839972968
 21
119.3265389876881
 31
0.0
  0
ENDBLK
  5
9F
  8
0
  0
BLOCK
  8
0
  2
DA_IMAGEDIMGROUP_28
 70
     0
 10
0.0
 20
0.0
 30
0.0
  3
DA_IMAGEDIMGROUP_28
  1

  0
LINE
  5
160
  8
0
  6
CONTINUOUS
 62
     7
 10
-44.67986140009806
 20
91.12653898768809
 30
0.0
 11
-7.430252003082744
 21
91.12653898768809
 31
0.0
  0
LINE
  5
161
  8
0
  6
CONTINUOUS
 62
     7
 10
-22.80254969355509
 20
106.1265389876881
 30
0.0
 11
-7.430252003082744
 21
106.1265389876881
 31
0.0
  0
LINE
  5
162
  8
0
  6
CONTINUOUS
 62
     7
 10
-23.09630427119181
 20
126.1265389876881
 30
0.0
 11
-7.430252003082744
 21
126.1265389876881
 31
0.0
  0
LINE
  5
163
  8
0
  6
CONTINUOUS
 62
     7
 10
-8.430252003082744
 20
91.12653898768809
 30
0.0
 11
-8.430252003082744
 21
106.1265389876881
 31
0.0
  0
INSERT
  5
164
  8
0
 62
     7
  2
_OPEN30
 10
-8.430252003082744
 20
91.12653898768809
 30
0.0
 41
1.50000139391263
 42
1.499998500689492
 50
270.0
  0
INSERT
  5
165
  8
0
 62
     7
  2
_OPEN30
 10
-8.430252003082744
 20
106.1265389876881
 30
0.0
 41
1.50000139391263
 42
1.499998500689492
 50
90.0
  0
LINE
  5
166
  8
0
  6
CONTINUOUS
 62
     7
 10
-8.430252003082744
 20
106.1265389876881
 30
0.0
 11
-8.430252003082744
 21
126.1265389876881
 31
0.0
  0
INSERT
  5
167
  8
0
 62
     7
  2
_OPEN30
 10
-8.430252003082744
 20
106.1265389876881
 30
0.0
 41
1.50000139391263
 42
1.499998500689492
 50
270.0
  0
INSERT
  5
168
  8
0
 62
     7
  2
_OPEN30
 10
-8.430252003082744
 20
126.1265389876881
 30
0.0
 41
1.50000139391263
 42
1.499998500689492
 50
90.0
  0
TEXT
  5
169
  8
0
 62
     7
 10
-8.930252003082744
 20
95.42653898768809
 30
0.0
 40
4.0
  1
14
 50
90.0
 41
0.8000000000000007
  7
FDASTYLE1
 72
     5
 11
-8.930252003082744
 21
101.8265389876881
 31
0.0
  0
TEXT
  5
16A
  8
0
 62
     7
 10
-8.930252003082744
 20
112.9265389876881
 30
0.0
 40
4.0
  1
20
 50
90.0
 41
0.8000000000000007
  7
FDASTYLE1
 72
     5
 11
-8.930252003082744
 21
119.3265389876881
 31
0.0
  0
ENDBLK
  5
A2
  8
0
  0
BLOCK
  8
0
  2
DA_IMAGEDIMGROUP_29
 70
     0
 10
0.0
 20
0.0
 30
0.0
  3
DA_IMAGEDIMGROUP_29
  1

  0
LINE
  5
16B
  8
LAYER0014
  6
CONTINUOUS
 62
     7
 10
139.812341358691
 20
-33.9134610123119
 30
0.0
 11
139.812341358691
 21
-41.01303315586659
 31
0.0
  0
LINE
  5
16C
  8
LAYER0014
  6
CONTINUOUS
 62
     7
 10
151.6431414507321
 20
14.47444991146147
 30
0.0
 11
165.6012226486279
 21
-37.61789626712646
 31
0.0
  0
ARC
  5
16D
  8
LAYER0014
  6
CONTINUOUS
 62
     7
 10
139.812585499316
 20
58.62654661708263
 30
0.0
 40
97.35357666015625
 50
270.0000179860894
 51
284.9999944978403
  0
INSERT
  5
16E
  8
LAYER0014
 62
     7
  2
_OPEN30
 10
139.812616060208
 20
-38.72703004306882
 30
0.0
 41
1.50000139391263
 42
1.499998500689492
 50
180.4414179889392
  0
INSERT
  5
16F
  8
LAYER0014
 62
     7
  2
_OPEN30
 10
165.0095362174279
 20
-35.4097897802588
 30
0.0
 41
1.50000139391263
 42
1.499998500689492
 50
14.55859449499042
  0
TEXT
  5
170
  8
LAYER0014
 62
     7
 10
148.6633692169883
 20
-36.80868815255054
 30
0.0
 40
4.0
  1
15ﾟ
 50
7.8
 41
0.8000000000000006
  7
FDASTYLE1
 72
     5
 11
158.1745484855142
 21
-35.50581865718122
 31
0.0
  0
ENDBLK
  5
A5
  8
0
  0
BLOCK
  8
0
  2
DA_IMAGEDIMGROUP_30
 70
     0
 10
0.0
 20
0.0
 30
0.0
  3
DA_IMAGEDIMGROUP_30
  1

  0
LINE
  5
171
  8
LAYER0014
  6
CONTINUOUS
 62
     7
 10
222.0842169079043
 20
11.12701870885994
 30
0.0
 11
226.2493932209915
 21
8.722249592534416
 31
0.0
  0
LINE
  5
172
  8
LAYER0014
  6
CONTINUOUS
 62
     7
 10
233.5192267346675
 20
58.62668394618419
 30
0.0
 11
239.6212097668941
 21
58.62668394618419
 31
0.0
  0
ARC
  5
173
  8
LAYER0014
  6
CONTINUOUS
 62
     7
 10
139.8126465344723
 20
58.6265389876881
 30
0.0
 40
97.52256774902344
 50
330.0000059953631
 51
360.0
  0
INSERT
  5
174
  8
LAYER0014
 62
     7
  2
_OPEN30
 10
224.2696727497386
 20
9.865263950660186
 30
0.0
 41
1.50000139391263
 42
1.499998500689492
 50
240.4406411222585
  0
INSERT
  5
175
  8
LAYER0014
 62
     7
  2
_OPEN30
 10
237.3352142834957
 20
58.62653898768808
 30
0.0
 41
1.50000139391263
 42
1.499998500689492
 50
89.55936487310392
  0
TEXT
  5
176
  8
LAYER0014
 62
     7
 10
231.3427206453604
 20
29.60507896010186
 30
0.0
 40
4.0
  1
30ﾟ
 50
75.0
 41
0.8000000000000019
  7
FDASTYLE1
 72
     5
 11
233.8273834783446
 21
38.87796689247693
 31
0.0
  0
ENDBLK
  5
A8
  8
0
  0
BLOCK
  8
0
  2
DA_IMAGEDIMGROUP_31
 70
     0
 10
0.0
 20
0.0
 30
0.0
  3
DA_IMAGEDIMGROUP_31
  1

  0
LINE
  5
177
  8
LAYER0014
  6
CONTINUOUS
 62
     7
 10
213.8319625454362
 20
101.3616380952636
 30
0.0
 11
226.2493932756851
 21
108.530855357541
 31
0.0
  0
ARC
  5
178
  8
LAYER0014
  6
CONTINUOUS
 62
     7
 10
139.8126160168941
 20
58.6265389876881
 30
0.0
 40
97.52260589599609
 50
0.0
 51
30.00001108010981
  0
INSERT
  5
179
  8
LAYER0014
 62
     7
  2
_OPEN30
 10
237.3352219128902
 20
58.6265389876881
 30
0.0
 41
1.50000139391263
 42
1.499998500689492
 50
270.4406349545358
  0
INSERT
  5
17A
  8
LAYER0014
 62
     7
  2
_OPEN30
 10
224.2696607364081
 20
107.3878582683618
 30
0.0
 41
1.50000139391263
 42
1.499998500689492
 50
119.5593761255731
  0
TEXT
  5
17B
  8
LAYER0014
 62
     7
 10
234.4336832894854
 20
88.47625047718053
 30
0.0
 40
4.0
  1
30ﾟ
 50
-74.99999999999997
 41
0.8000000000000026
  7
FDASTYLE1
 72
     5
 11
236.9183461224696
 21
79.20336254480544
 31
0.0
  0
ENDBLK
  5
AB
  8
0
  0
BLOCK
  8
0
  2
DA_IMAGEDIMGROUP_32
 70
     0
 10
0.0
 20
0.0
 30
0.0
  3
DA_IMAGEDIMGROUP_32
  1

  0
LINE
  5
17C
  8
LAYER0014
  6
CONTINUOUS
 62
     7
 10
139.812585499316
 20
150.4998672347584
 30
0.0
 11
139.812585499316
 21
157.0214517074147
 31
0.0
  0
LINE
  5
17D
  8
LAYER0014
  6
CONTINUOUS
 62
     7
 10
109.812585499316
 20
130.1665389876881
 30
0.0
 11
109.812585499316
 21
157.0214517074147
 31
0.0
  0
LINE
  5
17E
  8
LAYER0014
  6
CONTINUOUS
 62
     7
 10
139.812585499316
 20
154.7354562240162
 30
0.0
 11
109.812585499316
 21
154.7354562240162
 31
0.0
  0
INSERT
  5
17F
  8
LAYER0014
 62
     7
  2
_OPEN30
 10
139.812585499316
 20
154.7354562240162
 30
0.0
 41
1.50000139391263
 42
1.499998500689492
 50
360.0
  0
INSERT
  5
180
  8
LAYER0014
 62
     7
  2
_OPEN30
 10
109.812585499316
 20
154.7354562240162
 30
0.0
 41
1.50000139391263
 42
1.499998500689492
 50
180.0
  0
TEXT
  5
181
  8
LAYER0014
 62
     7
 10
121.612585499316
 20
155.2354562240162
 30
0.0
 40
4.0
  1
30
 41
0.7999999999999989
  7
FDASTYLE1
 72
     5
 11
128.012585499316
 21
155.2354562240162
 31
0.0
  0
ENDBLK
  5
AE
  8
0
  0
BLOCK
  8
0
  2
DC_GROUP_2
 70
     0
 10
0.0
 20
0.0
 30
0.0
  3
DC_GROUP_2
  1

  0
LINE
  5
182
  8
LAYER0014
  6
CONTINUOUS
 62
     7
 10
150.32197162656
 20
22.52745197740212
 30
0.0
 11
194.4498580384235
 21
-53.80185540118958
 31
0.0
  0
INSERT
  5
183
  8
LAYER0014
 62
     7
  2
_OPEN30
 10
150.32197162656
 20
22.52745197740212
 30
0.0
 41
1.50000139391263
 42
1.499998500689492
 50
120.0332835773468
  0
LINE
  5
184
  8
LAYER0014
  6
CONTINUOUS
 62
     7
 10
194.4498535657223
 20
-53.80185151524159
 30
0.0
 11
228.2795349622066
 21
-53.80185151524159
 31
0.0
  0
TEXT
  5
185
  8
LAYER0014
 62
     7
 10
195.3017670178707
 20
-52.20185151524159
 30
0.0
 40
4.0
  1
3-M5 PCD70
 41
0.8
  7
FDASTYLE1
 72
     5
 11
227.3017670178707
 21
-52.20185151524159
 31
0.0
  0
ENDBLK
  5
B1
  8
0
  0
BLOCK
  8
0
  2
DC_GROUP_3
 70
     0
 10
0.0
 20
0.0
 30
0.0
  3
DC_GROUP_3
  1

  0
LINE
  5
186
  8
LAYER0014
  6
CONTINUOUS
 62
     7
 10
-93.67984614130899
 20
-23.8734610123119
 30
0.0
 11
-83.96930042421008
 21
-33.28975167728655
 31
0.0
  0
INSERT
  5
187
  8
LAYER0014
 62
     7
  2
_OPEN30
 10
-93.67984614130899
 20
-23.8734610123119
 30
0.0
 41
1.50000139391263
 42
1.499998500689492
 50
135.8813921095632
  0
LINE
  5
188
  8
LAYER0014
  6
CONTINUOUS
 62
     7
 10
-83.96930054554031
 20
-33.28975014572657
 30
0.0
 11
-67.28274479641659
 21
-33.28975014572657
 31
0.0
  0
TEXT
  5
189
  8
LAYER0014
 62
     7
 10
-83.60253266223953
 20
-31.68975014572658
 30
0.0
 40
4.0
  1
M8×16
 41
0.7692307692307692
  7
FDASTYLE1
 72
     5
 11
-67.60253266223953
 21
-31.68975014572658
 31
0.0
  0
ENDBLK
  5
B4
  8
0
  0
BLOCK
  8
0
  2
DA_IMAGEDIMGROUP_33
 70
     0
 10
0.0
 20
0.0
 30
0.0
  3
DA_IMAGEDIMGROUP_33
  1

  0
LINE
  5
18A
  8
0
  6
CONTINUOUS
 62
     7
 10
-93.67984614130899
 20
-41.70304366740177
 30
0.0
 11
-47.67986140009806
 21
-41.70304366740177
 31
0.0
  0
INSERT
  5
18B
  8
0
 62
     7
  2
_OPEN30
 10
-93.67984614130899
 20
-41.70304366740177
 30
0.0
 41
1.50000139391263
 42
1.499998500689492
 50
180.0
  0
INSERT
  5
18C
  8
0
 62
     7
  2
_OPEN30
 10
-47.67986140009806
 20
-41.70304366740177
 30
0.0
 41
1.50000139391263
 42
1.499998500689492
 50
360.0
  0
LINE
  5
18D
  8
0
  6
CONTINUOUS
 62
     7
 10
-93.67984614130899
 20
-28.32145267989741
 30
0.0
 11
-93.67984614130899
 21
-42.70304366740177
 31
0.0
  0
LINE
  5
18E
  8
0
  6
CONTINUOUS
 62
     7
 10
-47.67986140009806
 20
-22.8734610123119
 30
0.0
 11
-47.67986140009806
 21
-42.70304366740177
 31
0.0
  0
TEXT
  5
18F
  8
0
 62
     7
 10
-73.87985377070352
 20
-41.20304366740177
 30
0.0
 40
4.0
  1
46
 41
0.8000000000000007
  7
FDASTYLE1
 72
     5
 11
-67.47985377070351
 21
-41.20304366740177
 31
0.0
  0
ENDBLK
  5
B7
  8
0
  0
BLOCK
  8
0
  2
DC_GROUP_4
 70
     0
 10
0.0
 20
0.0
 30
0.0
  3
DC_GROUP_4
  1

  0
LINE
  5
190
  8
0
  6
CONTINUOUS
 62
     3
 10
-227.5654354765159
 20
-116.6662491766731
 30
0.0
 11
-224.9158905672539
 21
-116.7458746046744
 31
0.0
  0
LINE
  5
191
  8
0
  6
CONTINUOUS
 62
     3
 10
-224.9158905672539
 20
-116.7458746046744
 30
0.0
 11
-222.2664661546581
 21
-116.8270260286777
 31
0.0
  0
LINE
  5
192
  8
0
  6
CONTINUOUS
 62
     3
 10
-222.2664661546581
 20
-116.8270260286777
 30
0.0
 11
-219.6172827353944
 21
-116.9112294446849
 31
0.0
  0
LINE
  5
193
  8
0
  6
CONTINUOUS
 62
     3
 10
-219.6172827353944
 20
-116.9112294446849
 30
0.0
 11
-216.9684608061289
 21
-117.0000108486981
 31
0.0
  0
LINE
  5
194
  8
0
  6
CONTINUOUS
 62
     3
 10
-216.9684608061289
 20
-117.0000108486981
 30
0.0
 11
-214.3201208635276
 21
-117.0948962367194
 31
0.0
  0
LINE
  5
195
  8
0
  6
CONTINUOUS
 62
     3
 10
-214.3201208635276
 20
-117.0948962367194
 30
0.0
 11
-211.6723834042567
 21
-117.1974116047506
 31
0.0
  0
LINE
  5
196
  8
0
  6
CONTINUOUS
 62
     3
 10
-211.6723834042567
 20
-117.1974116047506
 30
0.0
 11
-209.0253689249822
 21
-117.3090829487938
 31
0.0
  0
LINE
  5
197
  8
0
  6
CONTINUOUS
 62
     3
 10
-209.0253689249822
 20
-117.3090829487938
 30
0.0
 11
-206.3791979223702
 21
-117.431436264851
 31
0.0
  0
LINE
  5
198
  8
0
  6
CONTINUOUS
 62
     3
 10
-206.3791979223702
 20
-117.431436264851
 30
0.0
 11
-203.7339908930868
 21
-117.5659975489242
 31
0.0
  0
LINE
  5
199
  8
0
  6
CONTINUOUS
 62
     3
 10
-203.7339908930868
 20
-117.5659975489242
 30
0.0
 11
-201.0898683337979
 21
-117.7142927970154
 31
0.0
  0
LINE
  5
19A
  8
0
  6
CONTINUOUS
 62
     3
 10
-201.0898683337979
 20
-117.7142927970154
 30
0.0
 11
-198.4469507411697
 21
-117.8778480051265
 31
0.0
  0
LINE
  5
19B
  8
0
  6
CONTINUOUS
 62
     3
 10
-198.4469507411697
 20
-117.8778480051265
 30
0.0
 11
-195.8053586118684
 21
-118.0581891692596
 31
0.0
  0
LINE
  5
19C
  8
0
  6
CONTINUOUS
 62
     3
 10
-195.8053586118684
 20
-118.0581891692596
 30
0.0
 11
-193.1652124425598
 21
-118.2568422854168
 31
0.0
  0
LINE
  5
19D
  8
0
  6
CONTINUOUS
 62
     3
 10
-193.1652124425598
 20
-118.2568422854168
 30
0.0
 11
-190.5266327299101
 21
-118.4753333495998
 31
0.0
  0
LINE
  5
19E
  8
0
  6
CONTINUOUS
 62
     3
 10
-190.5266327299101
 20
-118.4753333495998
 30
0.0
 11
-187.8897399705853
 21
-118.7151883578109
 31
0.0
  0
LINE
  5
19F
  8
0
  6
CONTINUOUS
 62
     3
 10
-187.8897399705853
 20
-118.7151883578109
 30
0.0
 11
-185.2546613388029
 21
-118.9776983788678
 31
0.0
  0
LINE
  5
1A0
  8
0
  6
CONTINUOUS
 62
     3
 10
-185.2546613388029
 20
-118.9776983788678
 30
0.0
 11
-182.6215627679234
 21
-119.2627908714758
 31
0.0
  0
LINE
  5
1A1
  8
0
  6
CONTINUOUS
 62
     3
 10
-182.6215627679234
 20
-119.2627908714758
 30
0.0
 11
-179.9906241407514
 21
-119.5699025300788
 31
0.0
  0
LINE
  5
1A2
  8
0
  6
CONTINUOUS
 62
     3
 10
-179.9906241407514
 20
-119.5699025300788
 30
0.0
 11
-177.3620253585302
 21
-119.8984694003999
 31
0.0
  0
LINE
  5
1A3
  8
0
  6
CONTINUOUS
 62
     3
 10
-177.3620253585302
 20
-119.8984694003999
 30
0.0
 11
-174.7359463225034
 21
-120.2479275281621
 31
0.0
  0
LINE
  5
1A4
  8
0
  6
CONTINUOUS
 62
     3
 10
-174.7359463225034
 20
-120.2479275281621
 30
0.0
 11
-172.1125669339147
 21
-120.6177129590886
 31
0.0
  0
LINE
  5
1A5
  8
0
  6
CONTINUOUS
 62
     3
 10
-172.1125669339147
 20
-120.6177129590886
 30
0.0
 11
-169.4920670940074
 21
-121.0072617389022
 31
0.0
  0
LINE
  5
1A6
  8
0
  6
CONTINUOUS
 62
     3
 10
-169.4920670940074
 20
-121.0072617389022
 30
0.0
 11
-166.874626035884
 21
-121.4160097553656
 31
0.0
  0
LINE
  5
1A7
  8
0
  6
CONTINUOUS
 62
     3
 10
-166.874626035884
 20
-121.4160097553656
 30
0.0
 11
-164.2603523606643
 21
-121.8433761975806
 31
0.0
  0
LINE
  5
1A8
  8
0
  6
CONTINUOUS
 62
     3
 10
-164.2603523606643
 20
-121.8433761975806
 30
0.0
 11
-161.6492226680076
 21
-122.288749047149
 31
0.0
  0
LINE
  5
1A9
  8
0
  6
CONTINUOUS
 62
     3
 10
-161.6492226680076
 20
-122.288749047149
 30
0.0
 11
-159.0411990897425
 21
-122.7515128652195
 31
0.0
  0
LINE
  5
1AA
  8
0
  6
CONTINUOUS
 62
     3
 10
-159.0411990897425
 20
-122.7515128652195
 30
0.0
 11
-156.4362437576977
 21
-123.2310522129406
 31
0.0
  0
LINE
  5
1AB
  8
0
  6
CONTINUOUS
 62
     3
 10
-156.4362437576977
 20
-123.2310522129406
 30
0.0
 11
-153.8343188037018
 21
-123.7267516514608
 31
0.0
  0
LINE
  5
1AC
  8
0
  6
CONTINUOUS
 62
     3
 10
-153.8343188037018
 20
-123.7267516514608
 30
0.0
 11
-151.2353863595836
 21
-124.2379957419287
 31
0.0
  0
LINE
  5
1AD
  8
0
  6
CONTINUOUS
 62
     3
 10
-151.2353863595836
 20
-124.2379957419287
 30
0.0
 11
-148.6394085571718
 21
-124.764169045493
 31
0.0
  0
LINE
  5
1AE
  8
0
  6
CONTINUOUS
 62
     3
 10
-148.6394085571718
 20
-124.764169045493
 30
0.0
 11
-146.046355635922
 21
-125.3046927207611
 31
0.0
  0
LINE
  5
1AF
  8
0
  6
CONTINUOUS
 62
     3
 10
-146.046355635922
 20
-125.3046927207611
 30
0.0
 11
-143.4563261586237
 21
-125.8595671720358
 31
0.0
  0
LINE
  5
1B0
  8
0
  6
CONTINUOUS
 62
     3
 10
-143.4563261586237
 20
-125.8595671720358
 30
0.0
 11
-140.869521183872
 21
-126.4292554650235
 31
0.0
  0
LINE
  5
1B1
  8
0
  6
CONTINUOUS
 62
     3
 10
-140.869521183872
 20
-126.4292554650235
 30
0.0
 11
-138.2861446304651
 21
-127.0142335762591
 31
0.0
  0
LINE
  5
1B2
  8
0
  6
CONTINUOUS
 62
     3
 10
-138.2861446304651
 20
-127.0142335762591
 30
0.0
 11
-135.7064004172014
 21
-127.6149774822775
 31
0.0
  0
LINE
  5
1B3
  8
0
  6
CONTINUOUS
 62
     3
 10
-135.7064004172014
 20
-127.6149774822775
 30
0.0
 11
-133.1304924628792
 21
-128.2319631596137
 31
0.0
  0
LINE
  5
1B4
  8
0
  6
CONTINUOUS
 62
     3
 10
-133.1304924628792
 20
-128.2319631596137
 30
0.0
 11
-130.5586246862969
 21
-128.8656665848028
 31
0.0
  0
LINE
  5
1B5
  8
0
  6
CONTINUOUS
 62
     3
 10
-130.5586246862969
 20
-128.8656665848028
 30
0.0
 11
-127.9910010062528
 21
-129.5165637343796
 31
0.0
  0
LINE
  5
1B6
  8
0
  6
CONTINUOUS
 62
     3
 10
-127.9910010062528
 20
-129.5165637343796
 30
0.0
 11
-125.4278242780263
 21
-130.1850907592936
 31
0.0
  0
LINE
  5
1B7
  8
0
  6
CONTINUOUS
 62
     3
 10
-125.4278242780263
 20
-130.1850907592936
 30
0.0
 11
-122.8692903034599
 21
-130.8714196805566
 31
0.0
  0
LINE
  5
1B8
  8
0
  6
CONTINUOUS
 62
     3
 10
-122.8692903034599
 20
-130.8714196805566
 30
0.0
 11
-120.3155920132023
 21
-131.5756150016061
 31
0.0
  0
LINE
  5
1B9
  8
0
  6
CONTINUOUS
 62
     3
 10
-120.3155920132023
 20
-131.5756150016061
 30
0.0
 11
-117.7669223295319
 21
-132.2977409124603
 31
0.0
  0
LINE
  5
1BA
  8
0
  6
CONTINUOUS
 62
     3
 10
-117.7669223295319
 20
-132.2977409124603
 30
0.0
 11
-115.2234741747276
 21
-133.0378616031373
 31
0.0
  0
LINE
  5
1BB
  8
0
  6
CONTINUOUS
 62
     3
 10
-115.2234741747276
 20
-133.0378616031373
 30
0.0
 11
-112.6854404710681
 21
-133.7960412636555
 31
0.0
  0
LINE
  5
1BC
  8
0
  6
CONTINUOUS
 62
     3
 10
-112.6854404710681
 20
-133.7960412636555
 30
0.0
 11
-110.1530141408322
 21
-134.5723440840328
 31
0.0
  0
LINE
  5
1BD
  8
0
  6
CONTINUOUS
 62
     3
 10
-110.1530141408322
 20
-134.5723440840328
 30
0.0
 11
-107.6263881062985
 21
-135.3668342542875
 31
0.0
  0
LINE
  5
1BE
  8
0
  6
CONTINUOUS
 62
     3
 10
-107.6263881062985
 20
-135.3668342542875
 30
0.0
 11
-105.1056089399287
 21
-136.1792115740649
 31
0.0
  0
LINE
  5
1BF
  8
0
  6
CONTINUOUS
 62
     3
 10
-105.1056089399287
 20
-136.1792115740649
 30
0.0
 11
-102.5900938071753
 21
-137.0076087084593
 31
0.0
  0
LINE
  5
1C0
  8
0
  6
CONTINUOUS
 62
     3
 10
-102.5900938071753
 20
-137.0076087084593
 30
0.0
 11
-100.079090705138
 21
-137.8497371172611
 31
0.0
  0
LINE
  5
1C1
  8
0
  6
CONTINUOUS
 62
     3
 10
-100.079090705138
 20
-137.8497371172611
 30
0.0
 11
-97.5718476286975
 21
-138.703308254736
 31
0.0
  0
LINE
  5
1C2
  8
0
  6
CONTINUOUS
 62
     3
 10
-97.5718476286975
 20
-138.703308254736
 30
0.0
 11
-95.06761257273436
 21
-139.5660335751492
 31
0.0
  0
LINE
  5
1C3
  8
0
  6
CONTINUOUS
 62
     3
 10
-95.06761257273436
 20
-139.5660335751492
 30
0.0
 11
-92.56563353212925
 21
-140.4356245327662
 31
0.0
  0
LINE
  5
1C4
  8
0
  6
CONTINUOUS
 62
     3
 10
-92.56563353212925
 20
-140.4356245327662
 30
0.0
 11
-90.06515850176288
 21
-141.3097925818524
 31
0.0
  0
LINE
  5
1C5
  8
0
  6
CONTINUOUS
 62
     3
 10
-90.06515850176288
 20
-141.3097925818524
 30
0.0
 11
-87.56543547651586
 21
-142.1862491766731
 31
0.0
  0
ENDBLK
  5
BA
  8
0
  0
BLOCK
  8
0
  2
_OPEN30
 70
     0
 10
0.0
 20
0.0
 30
0.0
  3
_OPEN30
  1

  0
LINE
  5
C1
  8
0
  6
BYBLOCK
 62
     0
 10
-1.0
 20
0.267949
 30
0.0
 11
0.0
 21
0.0
 31
0.0
  0
LINE
  5
C2
  8
0
  6
BYBLOCK
 62
     0
 10
0.0
 20
0.0
 30
0.0
 11
-1.0
 21
-0.267949
 31
0.0
  0
LINE
  5
C3
  8
0
  6
BYBLOCK
 62
     0
 10
0.0
 20
0.0
 30
0.0
 11
-1.0
 21
0.0
 31
0.0
  0
ENDBLK
  5
C0
  8
0
  0
ENDSEC
  0
SECTION
  2
ENTITIES
  0
LINE
  5
1C6
  8
ZUWAKU
  6
CONTINUOUS
 62
     3
 10
-277.0
 20
-190.0
 30
0.0
 11
-277.0
 21
190.0
 31
0.0
  0
LINE
  5
1C7
  8
ZUWAKU
  6
CONTINUOUS
 62
     3
 10
277.0
 20
-190.0
 30
0.0
 11
277.0
 21
190.0
 31
0.0
  0
LINE
  5
1C8
  8
ZUWAKU
  6
CONTINUOUS
 62
     3
 10
-277.0
 20
-190.0
 30
0.0
 11
277.0
 21
-190.0
 31
0.0
  0
LINE
  5
1C9
  8
ZUWAKU
  6
CONTINUOUS
 62
     3
 10
-277.0
 20
189.9999999999999
 30
0.0
 11
277.0
 21
189.9999999999999
 31
0.0
  0
LINE
  5
1CA
  8
ZUWAKU
  6
CONTINUOUS
 62
     3
 10
97.00000000000001
 20
-190.0
 30
0.0
 11
97.00000000000001
 21
-130.0
 31
0.0
  0
LINE
  5
1CB
  8
ZUWAKU
  6
CONTINUOUS
 62
     3
 10
97.00000000000001
 20
-176.0
 30
0.0
 11
277.0
 21
-176.0
 31
0.0
  0
LINE
  5
1CC
  8
ZUWAKU
  6
CONTINUOUS
 62
     3
 10
146.0
 20
-162.0
 30
0.0
 11
277.0
 21
-162.0
 31
0.0
  0
LINE
  5
1CD
  8
ZUWAKU
  6
CONTINUOUS
 62
     3
 10
146.0
 20
-148.0
 30
0.0
 11
277.0
 21
-148.0
 31
0.0
  0
LINE
  5
1CE
  8
ZUWAKU
  6
CONTINUOUS
 62
     3
 10
146.0
 20
-138.0
 30
0.0
 11
277.0
 21
-138.0
 31
0.0
  0
LINE
  5
1CF
  8
ZUWAKU
  6
CONTINUOUS
 62
     3
 10
146.0
 20
-176.0
 30
0.0
 11
146.0
 21
-130.0
 31
0.0
  0
LINE
  5
1D0
  8
ZUWAKU
  6
CONTINUOUS
 62
     3
 10
255.0
 20
-176.0
 30
0.0
 11
255.0
 21
-130.0
 31
0.0
  0
LINE
  5
1D1
  8
ZUWAKU
  6
CONTINUOUS
 62
     3
 10
171.0
 20
-190.0
 30
0.0
 11
171.0
 21
-176.0
 31
0.0
  0
LINE
  5
1D2
  8
ZUWAKU
  6
CONTINUOUS
 62
     3
 10
97.00000000000001
 20
-130.0
 30
0.0
 11
277.0
 21
-130.0
 31
0.0
  0
LINE
  5
1D3
  8
ZUWAKU
  6
CONTINUOUS
 62
     3
 10
226.0
 20
-176.0
 30
0.0
 11
226.0
 21
-148.0
 31
0.0
  0
LINE
  5
1D4
  8
ZUWAKU
  6
CONTINUOUS
 62
     4
 10
105.0
 20
-172.0
 30
0.0
 11
105.0
 21
-130.0
 31
0.0
  0
LINE
  5
1D5
  8
ZUWAKU
  6
CONTINUOUS
 62
     4
 10
109.0
 20
-172.0
 30
0.0
 11
109.0
 21
-130.0
 31
0.0
  0
LINE
  5
1D6
  8
ZUWAKU
  6
CONTINUOUS
 62
     4
 10
121.5
 20
-176.0
 30
0.0
 11
121.5
 21
-130.0
 31
0.0
  0
LINE
  5
1D7
  8
ZUWAKU
  6
CONTINUOUS
 62
     4
 10
97.00000000000001
 20
-137.0
 30
0.0
 11
146.0
 21
-137.0
 31
0.0
  0
LINE
  5
1D8
  8
ZUWAKU
  6
CONTINUOUS
 62
     4
 10
97.00000000000001
 20
-144.0
 30
0.0
 11
146.0
 21
-144.0
 31
0.0
  0
LINE
  5
1D9
  8
ZUWAKU
  6
CONTINUOUS
 62
     4
 10
97.00000000000001
 20
-165.0
 30
0.0
 11
146.0
 21
-165.0
 31
0.0
  0
LINE
  5
1DA
  8
ZUWAKU
  6
CONTINUOUS
 62
     4
 10
97.00000000000001
 20
-172.0
 30
0.0
 11
146.0
 21
-172.0
 31
0.0
  0
LINE
  5
1DB
  8
ZUWAKU
  6
CONTINUOUS
 62
     4
 10
255.0
 20
-166.0
 30
0.0
 11
277.0
 21
-166.0
 31
0.0
  0
LINE
  5
1DC
  8
ZUWAKU
  6
CONTINUOUS
 62
     4
 10
153.0
 20
-139.5
 30
0.0
 11
153.0
 21
-130.0
 31
0.0
  0
LINE
  5
1DD
  8
ZUWAKU
  6
CONTINUOUS
 62
     4
 10
202.0
 20
-148.0
 30
0.0
 11
202.0
 21
-146.5
 31
0.0
  0
LINE
  5
1DE
  8
ZUWAKU
  6
CONTINUOUS
 62
     4
 10
226.0
 20
-148.0
 30
0.0
 11
226.0
 21
-146.5
 31
0.0
  0
LINE
  5
1DF
  8
ZUWAKU
  6
CONTINUOUS
 62
     4
 10
243.0
 20
-148.0
 30
0.0
 11
243.0
 21
-146.5
 31
0.0
  0
LINE
  5
1E0
  8
ZUWAKU
  6
CONTINUOUS
 62
     4
 10
202.0
 20
-139.5
 30
0.0
 11
202.0
 21
-130.0
 31
0.0
  0
LINE
  5
1E1
  8
ZUWAKU
  6
CONTINUOUS
 62
     4
 10
226.0
 20
-139.5
 30
0.0
 11
226.0
 21
-130.0
 31
0.0
  0
LINE
  5
1E2
  8
ZUWAKU
  6
CONTINUOUS
 62
     4
 10
243.0
 20
-139.5
 30
0.0
 11
243.0
 21
-130.0
 31
0.0
  0
LINE
  5
1E3
  8
ZUWAKU
  6
CONTINUOUS
 62
     4
 10
97.00000000000001
 20
-151.0
 30
0.0
 11
146.0
 21
-151.0
 31
0.0
  0
LINE
  5
1E4
  8
ZUWAKU
  6
CONTINUOUS
 62
     4
 10
97.00000000000001
 20
-158.0
 30
0.0
 11
146.0
 21
-158.0
 31
0.0
  0
LINE
  5
1E5
  8
ZUWAKU
  6
CONTINUOUS
 62
     4
 10
101.0
 20
-130.5
 30
0.0
 11
98.00000000000001
 21
-136.5
 31
0.0
  0
LINE
  5
1E6
  8
ZUWAKU
  6
CONTINUOUS
 62
     4
 10
101.0
 20
-130.5
 30
0.0
 11
104.0
 21
-136.5
 31
0.0
  0
LINE
  5
1E7
  8
ZUWAKU
  6
CONTINUOUS
 62
     4
 10
98.00000000000001
 20
-136.5
 30
0.0
 11
104.0
 21
-136.5
 31
0.0
  0
LINE
  5
1E8
  8
ZUWAKU
  6
CONTINUOUS
 62
     4
 10
101.0
 20
-158.5
 30
0.0
 11
98.00000000000001
 21
-164.5
 31
0.0
  0
LINE
  5
1E9
  8
ZUWAKU
  6
CONTINUOUS
 62
     4
 10
101.0
 20
-158.5
 30
0.0
 11
104.0
 21
-164.5
 31
0.0
  0
LINE
  5
1EA
  8
ZUWAKU
  6
CONTINUOUS
 62
     4
 10
98.00000000000001
 20
-164.5
 30
0.0
 11
104.0
 21
-164.5
 31
0.0
  0
LINE
  5
1EB
  8
ZUWAKU
  6
CONTINUOUS
 62
     4
 10
101.0
 20
-151.5
 30
0.0
 11
98.00000000000001
 21
-157.5
 31
0.0
  0
LINE
  5
1EC
  8
ZUWAKU
  6
CONTINUOUS
 62
     4
 10
101.0
 20
-151.5
 30
0.0
 11
104.0
 21
-157.5
 31
0.0
  0
LINE
  5
1ED
  8
ZUWAKU
  6
CONTINUOUS
 62
     4
 10
98.00000000000001
 20
-157.5
 30
0.0
 11
104.0
 21
-157.5
 31
0.0
  0
LINE
  5
1EE
  8
ZUWAKU
  6
CONTINUOUS
 62
     4
 10
101.0
 20
-144.5
 30
0.0
 11
98.00000000000001
 21
-150.5
 31
0.0
  0
LINE
  5
1EF
  8
ZUWAKU
  6
CONTINUOUS
 62
     4
 10
101.0
 20
-144.5
 30
0.0
 11
104.0
 21
-150.5
 31
0.0
  0
LINE
  5
1F0
  8
ZUWAKU
  6
CONTINUOUS
 62
     4
 10
98.00000000000001
 20
-150.5
 30
0.0
 11
104.0
 21
-150.5
 31
0.0
  0
LINE
  5
1F1
  8
ZUWAKU
  6
CONTINUOUS
 62
     4
 10
101.0
 20
-137.5
 30
0.0
 11
98.00000000000001
 21
-143.5
 31
0.0
  0
LINE
  5
1F2
  8
ZUWAKU
  6
CONTINUOUS
 62
     4
 10
101.0
 20
-137.5
 30
0.0
 11
104.0
 21
-143.5
 31
0.0
  0
LINE
  5
1F3
  8
ZUWAKU
  6
CONTINUOUS
 62
     4
 10
98.00000000000001
 20
-143.5
 30
0.0
 11
104.0
 21
-143.5
 31
0.0
  0
LINE
  5
1F4
  8
ZUWAKU
  6
CONTINUOUS
 62
     4
 10
172.6666666666666
 20
-176.0
 30
0.0
 11
172.6666666666666
 21
-162.0
 31
0.0
  0
LINE
  5
1F5
  8
ZUWAKU
  6
CONTINUOUS
 62
     4
 10
199.3333333333333
 20
-176.0
 30
0.0
 11
199.3333333333333
 21
-161.9509415757253
 31
0.0
  0
LINE
  5
1F6
  8
ZUWAKU
  6
CONTINUOUS
 62
     4
 10
212.6666666666666
 20
-167.5
 30
0.0
 11
212.6666666666666
 21
-161.9509415757253
 31
0.0
  0
LINE
  5
1F7
  8
ZUWAKU
  6
CONTINUOUS
 62
     4
 10
226.0
 20
-155.0
 30
0.0
 11
255.0
 21
-155.0
 31
0.0
  0
LINE
  5
1F8
  8
ZUWAKU
  6
CONTINUOUS
 62
     4
 10
146.0
 20
-166.0
 30
0.0
 11
226.0
 21
-166.0
 31
0.0
  0
TEXT
  5
1FA
  8
ZUWAKU
 62
     7
 10
148.3132301474747
 20
-130.821188728956
 30
0.0
 40
2.6656
  1
符号
 41
0.8
  7
FDASTYLE0
  0
TEXT
  5
1FB
  8
ZUWAKU
 62
     7
 10
162.4141311219058
 20
-135.8245525019963
 30
0.0
 40
4.0
  1
品       名
 41
0.765957446808511
  7
FDASTYLE1
 72
     5
 11
191.2141311219058
 21
-135.8245525019963
 31
0.0
  0
TEXT
  5
1FC
  8
ZUWAKU
 62
     7
 10
207.2331564413096
 20
-135.8245525019963
 30
0.0
 40
4.0
  1
材  料
 41
0.7272727272727279
  7
FDASTYLE1
 72
     5
 11
220.0331564413096
 21
-135.8245525019963
 31
0.0
  0
TEXT
  5
1FD
  8
ZUWAKU
 62
     7
 10
229.516061684855
 20
-135.8245525019963
 30
0.0
 40
4.0
  1
個 数
 41
0.7058823529411761
  7
FDASTYLE1
 72
     5
 11
239.116061684855
 21
-135.8245525019963
 31
0.0
  0
TEXT
  5
1FE
  8
ZUWAKU
 62
     7
 10
245.721810952888
 20
-133.5649080050572
 30
0.0
 40
2.5
  1
単重量
 41
0.6666666666666666
  7
FDASTYLE1
 72
     5
 11
251.721810952888
 21
-133.5649080050572
 31
0.0
  0
TEXT
  5
1FF
  8
ZUWAKU
 62
     7
 10
244.7089516236359
 20
-137.3631304897525
 30
0.0
 40
2.5
  1
(kg)
 41
0.8
  7
FDASTYLE1
 72
     5
 11
252.7089516236359
 21
-137.3631304897525
 31
0.0
  0
TEXT
  5
200
  8
ZUWAKU
 62
     7
 10
259.1421970654778
 20
-135.8245525019963
 30
0.0
 40
4.0
  1
記  事
 41
0.7272727272727279
  7
FDASTYLE1
 72
     5
 11
271.9421970654778
 21
-135.8245525019963
 31
0.0
  0
TEXT
  5
201
  8
ZUWAKU
 62
     7
 10
258.8450794551645
 20
-165.4873041997729
 30
0.0
 40
3.0
  1
コード番号
 41
0.6666666666666666
  7
FDASTYLE1
 72
     5
 11
270.8450794551645
 21
-165.4873041997729
 31
0.0
  0
TEXT
  5
202
  8
ZUWAKU
 62
     7
 10
101.9119920158317
 20
-175.1879010540338
 30
0.0
 40
2.5
  1
訂 正 来 歴
 41
0.717948717948718
  7
FDASTYLE1
 72
     5
 11
115.9119920158317
 21
-175.1879010540338
 31
0.0
  0
TEXT
  5
203
  8
ZUWAKU
 62
     7
 10
125.890334846765
 20
-175.2166697391651
 30
0.0
 40
2.5
  1
工 事 番 号
 41
0.717948717948718
  7
FDASTYLE1
 72
     5
 11
139.890334846765
 21
-175.2166697391651
 31
0.0
  0
TEXT
  5
204
  8
ZUWAKU
 62
     7
 10
99.96483784660289
 20
-165.9634530565915
 30
0.0
 40
2.0825
  1
記号
 41
0.8
  7
FDASTYLE0
  0
TEXT
  5
205
  8
ZUWAKU
 62
     7
 10
105.9042249067618
 20
-165.9634530565915
 30
0.0
 40
2.0825
  1
理由
 41
0.8
  7
FDASTYLE0
  0
TEXT
  5
206
  8
ZUWAKU
 62
     7
 10
111.6193667909843
 20
-169.8786046700178
 30
0.0
 40
3.0
  1
日 付
 41
0.7058823529411754
  7
FDASTYLE1
 72
     5
 11
118.8193667909843
 21
-169.8786046700178
 31
0.0
  0
TEXT
  5
207
  8
ZUWAKU
 62
     7
 10
153.4481689819652
 20
-165.7187911464244
 30
0.0
 40
3.0
  1
承   認
 41
0.7407407407407408
  7
FDASTYLE1
 72
     5
 11
165.4481689819652
 21
-165.7187911464244
 31
0.0
  0
TEXT
  5
208
  8
ZUWAKU
 62
     7
 10
179.863228033234
 20
-165.4873041997729
 30
0.0
 40
3.0
  1
検   図
 41
0.7407407407407408
  7
FDASTYLE1
 72
     5
 11
191.863228033234
 21
-165.4873041997729
 31
0.0
  0
TEXT
  5
209
  8
ZUWAKU
 62
     7
 10
201.4771920983751
 20
-165.4873041997729
 30
0.0
 40
3.0
  1
担  当
 41
0.7272727272727269
  7
FDASTYLE1
 72
     5
 11
211.0771920983751
 21
-165.4873041997729
 31
0.0
  0
TEXT
  5
20A
  8
ZUWAKU
 62
     7
 10
214.6770574841112
 20
-165.4873041997729
 30
0.0
 40
3.0
  1
製  図
 41
0.7272727272727269
  7
FDASTYLE1
 72
     5
 11
224.2770574841112
 21
-165.4873041997729
 31
0.0
  0
TEXT
  5
20B
  8
ZUWAKU
 62
     7
 10
226.9462372304199
 20
-153.2184960272417
 30
0.0
 40
3.0
  1
作図
 41
0.6666666666666683
  7
FDASTYLE1
 72
     5
 11
231.7462372304199
 21
-153.2184960272417
 31
0.0
  0
TEXT
  5
20C
  8
ZUWAKU
 62
     7
 10
228.1036719636776
 20
-160.2371566401815
 30
0.0
 40
4.0
  1
第 三 角 法
 41
0.7179487179487182
  7
FDASTYLE1
 72
     5
 11
250.5036719636776
 21
-160.2371566401815
 31
0.0
  0
TEXT
  5
20D
  8
ZUWAKU
 62
     7
 10
227.409211123723
 20
-166.413251986379
 30
0.0
 40
3.0
  1
尺度
 41
0.6666666666666683
  7
FDASTYLE1
 72
     5
 11
232.209211123723
 21
-166.413251986379
 31
0.0
  0
TEXT
  5
20F
  8
ZUWAKU
 62
     3
 10
105.379154370034
 20
-185.9272077185017
 30
0.0
 40
7.0
  1
株式会社 野村製作所
 41
0.5763738641280831
  7
FDASTYLE2
 72
     5
 11
161.379154370034
 21
-185.9272077185017
 31
0.0
  0
TEXT
  5
211
  8
ZUWAKU
 62
     3
 10
183.6118217934165
 20
-187.1216685584563
 30
0.0
 40
8.0
  1
２－
 41
0.8244023083264632
  7
FDASTYLE3
 72
     5
 11
199.6118217934165
 21
-187.1216685584563
 31
0.0
  0
TEXT
  5
212
  8
ZUWAKU
 62
     3
 10
200.5237794178233
 20
-187.1216685584563
 30
0.0
 40
8.0
  1
830651
 41
1.645639056500274
  7
FDASTYLE3
 72
     5
 11
248.5237794178233
 21
-187.1216685584563
 31
0.0
  0
TEXT
  5
213
  8
ZUWAKU
 62
     6
 10
165.7570051766932
 20
-145.3589000228561
 30
0.0
 40
5.0
  1
外　形　図
 41
0.5833333333333334
  7
FDASTYLE1
 72
     5
 11
183.2570051766932
 21
-145.3589000228561
 31
0.0
  0
TEXT
  5
214
  8
ZUWAKU
 62
     6
 10
155.3545934631717
 20
-157.829135039116
 30
0.0
 40
6.0
  1
MAC3-165A5型チャック
 41
0.65625
  7
FDASTYLE1
 72
     5
 11
218.3545934631717
 21
-157.829135039116
 31
0.0
  0
TEXT
  5
215
  8
ZUWAKU
 62
     4
 10
239.3011788906399
 20
-172.297487439201
 30
0.0
 40
3.0
  1
1/1
 41
0.7000000000000013
  7
FDASTYLE1
 72
     5
 11
245.6011788906399
 21
-172.297487439201
 31
0.0
  0
LINE
  5
216
  8
0
  6
CONTINUOUS
 62
     6
 10
-41.23482157528481
 20
-107.5184602228626
 30
0.0
 11
-26.38682963192544
 21
-107.5184602228626
 31
0.0
  0
LINE
  5
217
  8
0
  6
CONTINUOUS
 62
     6
 10
-41.23482157528481
 20
-114.3184632746204
 30
0.0
 11
82.47742818057456
 21
-114.3184632746204
 31
0.0
  0
LINE
  5
218
  8
0
  6
CONTINUOUS
 62
     6
 10
-41.23482157528481
 20
-121.1184586969837
 30
0.0
 11
82.47742818057456
 21
-121.1184586969837
 31
0.0
  0
LINE
  5
219
  8
0
  6
CONTINUOUS
 62
     6
 10
-41.23482157528481
 20
-127.9184617487416
 30
0.0
 11
82.47742818057456
 21
-127.9184617487416
 31
0.0
  0
LINE
  5
21A
  8
0
  6
CONTINUOUS
 62
     6
 10
-41.23482157528481
 20
-134.7184800592884
 30
0.0
 11
82.47742818057456
 21
-134.7184800592884
 31
0.0
  0
LINE
  5
21B
  8
0
  6
CONTINUOUS
 62
     6
 10
-41.23482157528481
 20
-141.5184678522572
 30
0.0
 11
82.47742818057456
 21
-141.5184678522572
 31
0.0
  0
LINE
  5
21C
  8
0
  6
CONTINUOUS
 62
     6
 10
-41.23482157528481
 20
-148.318470904015
 30
0.0
 11
82.47742818057456
 21
-148.318470904015
 31
0.0
  0
LINE
  5
21D
  8
0
  6
CONTINUOUS
 62
     6
 10
-41.23482157528481
 20
-155.1184739557728
 30
0.0
 11
82.47742818057456
 21
-155.1184739557728
 31
0.0
  0
LINE
  5
21E
  8
0
  6
CONTINUOUS
 62
     6
 10
-41.23482157528481
 20
-175.5184678522572
 30
0.0
 11
82.47742818057456
 21
-175.5184678522572
 31
0.0
  0
LINE
  5
21F
  8
0
  6
CONTINUOUS
 62
     6
 10
-41.23482157528481
 20
-161.9184770075306
 30
0.0
 11
82.47742818057456
 21
-161.9184770075306
 31
0.0
  0
LINE
  5
220
  8
0
  6
CONTINUOUS
 62
     6
 10
-41.23482157528481
 20
-168.7184800592884
 30
0.0
 11
82.47742818057456
 21
-168.7184800592884
 31
0.0
  0
TEXT
  5
221
  8
0
 62
     6
 10
-20.61636524282146
 20
-181.0140428034291
 30
0.0
 40
4.0
  1
※最高使用回転数は、ﾁｬｯｸ及びシリンダーの低い方で制限されます
 41
0.6808510638297872
  7
FDASTYLE1
 72
     5
 11
81.78363475717855
 21
-181.0140428034291
 31
0.0
  0
TEXT
  5
222
  8
0
 62
     6
 10
69.36408436953941
 20
-113.1833848444447
 30
0.0
 40
4.0
  1
A5型
 41
0.7500000000000007
  7
FDASTYLE1
 72
     5
 11
78.96408436953942
 21
-113.1833848444447
 31
0.0
  0
TEXT
  5
223
  8
0
 62
     6
 10
-5.333607522570503
 20
-140.4364823786244
 30
0.0
 40
3.0
  1
(36TS-TA1型 引側油圧力 3.5MPa)
 41
0.7619047619047621
  7
FDASTYLE1
 72
     5
 11
52.26639247742951
 21
-140.4364823786244
 31
0.0
  0
TEXT
  5
224
  8
0
 62
     6
 10
35.44743258078785
 20
-174.4017838922962
 30
0.0
 40
4.0
  1
外周ﾆﾃ    　　1g以内
 41
0.736842105263158
  7
FDASTYLE1
 72
     5
 11
80.24743258078786
 21
-174.4017838922962
 31
0.0
  0
TEXT
  5
225
  8
0
 62
     6
 10
60.82194916041512
 20
-167.599165566325
 30
0.0
 40
4.0
  1
12.5kg
 41
0.8000000000000004
  7
FDASTYLE1
 72
     5
 11
80.02194916041513
 21
-167.599165566325
 31
0.0
  0
TEXT
  5
226
  8
0
 62
     6
 10
51.06851776949339
 20
-160.6222308341038
 30
0.0
 40
4.0
  1
0.043kg・m
 41
0.7826086956521741
  7
FDASTYLE1
 72
     5
 11
79.86851776949339
 21
-160.6222308341038
 31
0.0
  0
TEXT
  5
227
  8
0
 62
     6
 10
79.83418464301884
 20
-157.6900649182278
 30
0.0
 40
2.0
  1
2
 41
0.7999999999999972
  7
FDASTYLE1
 72
     5
 11
81.43418464301884
 21
-157.6900649182278
 31
0.0
  0
TEXT
  5
228
  8
0
 62
     6
 10
57.23940965728146
 20
-153.9287919489369
 30
0.0
 40
4.0
  1
7000min
 41
0.8000000000000005
  7
FDASTYLE1
 72
     5
 11
79.63940965728148
 21
-153.9287919489369
 31
0.0
  0
TEXT
  5
229
  8
0
 62
     6
 10
79.33303679635414
 20
-151.3904121192171
 30
0.0
 40
2.0
  1
-1
 41
0.8000000000000007
  7
FDASTYLE1
 72
     5
 11
82.53303679635414
 21
-151.3904121192171
 31
0.0
  0
TEXT
  5
22A
  8
0
 62
     6
 10
53.72915422366237
 20
-147.1344956842884
 30
0.0
 40
4.0
  1
  56.9kN
 41
0.8000000000000005
  7
FDASTYLE1
 72
     5
 11
79.32915422366239
 21
-147.1344956842884
 31
0.0
  0
TEXT
  5
22B
  8
0
 62
     6
 10
53.55994629552669
 20
-140.3295182672962
 30
0.0
 40
4.0
  1
  20.4kN
 41
0.8000000000000005
  7
FDASTYLE1
 72
     5
 11
79.15994629552671
 21
-140.3295182672962
 31
0.0
  0
TEXT
  5
22C
  8
0
 62
     6
 10
49.7633718675256
 20
-133.524525591515
 30
0.0
 40
4.0
  1
36TS-ＴＡ1型
 41
0.7500000000000001
  7
FDASTYLE1
 72
     5
 11
78.5633718675256
 21
-133.524525591515
 31
0.0
  0
TEXT
  5
22D
  8
0
 62
     6
 10
65.38978779971519
 20
-126.7145585504994
 30
0.0
 40
4.0
  1
13mm
 41
0.7999999999999998
  7
FDASTYLE1
 72
     5
 11
78.18978779971519
 21
-126.7145585504994
 31
0.0
  0
TEXT
  5
22E
  8
0
 62
     6
 10
61.73019888779689
 20
-119.9145554987415
 30
0.0
 40
4.0
  1
6.4mm
 41
0.8
  7
FDASTYLE1
 72
     5
 11
77.73019888779689
 21
-119.9145554987415
 31
0.0
  0
TEXT
  5
22F
  8
0
 62
     6
 10
-39.85194193661294
 20
-174.3145799128041
 30
0.0
 40
4.0
  1
アンバランス量
 41
0.6666666666666667
  7
FDASTYLE1
 72
     5
 11
-17.45194193661294
 21
-174.3145799128041
 31
0.0
  0
TEXT
  5
230
  8
0
 62
     6
 10
-39.85194193661294
 20
-167.5145616022572
 30
0.0
 40
4.0
  1
質 量
 41
0.7058823529411766
  7
FDASTYLE1
 72
     5
 11
-30.25194193661294
 21
-167.5145616022572
 31
0.0
  0
TEXT
  5
231
  8
0
 62
     6
 10
-39.85194193661294
 20
-160.7145585504994
 30
0.0
 40
4.0
  1
慣性モ－メント
 41
0.6666666666666667
  7
FDASTYLE1
 72
     5
 11
-17.45194193661294
 21
-160.7145585504994
 31
0.0
  0
TEXT
  5
232
  8
0
 62
     6
 10
-39.85194193661294
 20
-153.9145554987416
 30
0.0
 40
4.0
  1
最高使用回転速度
 41
0.6666666666666667
  7
FDASTYLE1
 72
     5
 11
-14.25194193661294
 21
-153.9145554987416
 31
0.0
  0
TEXT
  5
233
  8
0
 62
     6
 10
-39.85194193661294
 20
-147.1145524469837
 30
0.0
 40
4.0
  1
最大静的把握力
 41
0.6666666666666667
  7
FDASTYLE1
 72
     5
 11
-17.45194193661294
 21
-147.1145524469837
 31
0.0
  0
TEXT
  5
234
  8
0
 62
     6
 10
-39.85194193661294
 20
-140.3145493952259
 30
0.0
 40
4.0
  1
許容シリンダー力
 41
0.6666666666666667
  7
FDASTYLE1
 72
     5
 11
-14.25194193661294
 21
-140.3145493952259
 31
0.0
  0
TEXT
  5
235
  8
0
 62
     6
 10
-39.85194193661294
 20
-133.5145616022572
 30
0.0
 40
4.0
  1
適用シリンダー
 41
0.6666666666666667
  7
FDASTYLE1
 72
     5
 11
-17.45194193661294
 21
-133.5145616022572
 31
0.0
  0
TEXT
  5
236
  8
0
 62
     6
 10
-39.85194193661294
 20
-126.7145585504994
 30
0.0
 40
4.0
  1
ピストンストローク
 41
0.6666666666666669
  7
FDASTYLE1
 72
     5
 11
-11.05194193661293
 21
-126.7145585504994
 31
0.0
  0
TEXT
  5
237
  8
0
 62
     6
 10
-39.85194193661294
 20
-113.1145524469837
 30
0.0
 40
4.0
  1
主軸端番号
 41
0.6666666666666666
  7
FDASTYLE1
 72
     5
 11
-23.85194193661294
 21
-113.1145524469837
 31
0.0
  0
TEXT
  5
238
  8
0
 62
     6
 10
-39.85194193661294
 20
-119.9145554987415
 30
0.0
 40
4.0
  1
爪ﾉｽﾄﾛｰｸ       (直径ﾆﾃ)
 41
0.7766990291262136
  7
FDASTYLE1
 72
     5
 11
24.14805806338706
 21
-119.9145554987415
 31
0.0
  0
TEXT
  5
239
  8
0
 62
     6
 10
-39.85194193661294
 20
-106.3145570246204
 30
0.0
 40
4.0
  1
仕 様
 41
0.7058823529411766
  7
FDASTYLE1
 72
     5
 11
-30.25194193661294
 21
-106.3145570246204
 31
0.0
  0
TEXT
  5
23A
  8
0
 62
     6
 10
-212.9654537870627
 20
-168.1862644354622
 30
0.0
 40
4.0
  1
1000
 41
0.8000000000000007
  7
FDASTYLE1
 72
     5
 11
-200.1654537870627
 21
-168.1862644354622
 31
0.0
  0
TEXT
  5
23B
  8
0
 62
     6
 10
-192.9654537870627
 20
-168.1862644354622
 30
0.0
 40
4.0
  1
2000
 41
0.8000000000000007
  7
FDASTYLE1
 72
     5
 11
-180.1654537870627
 21
-168.1862644354622
 31
0.0
  0
TEXT
  5
23C
  8
0
 62
     6
 10
-172.9654537870627
 20
-168.1862644354622
 30
0.0
 40
4.0
  1
3000
 41
0.8000000000000007
  7
FDASTYLE1
 72
     5
 11
-160.1654537870627
 21
-168.1862644354622
 31
0.0
  0
TEXT
  5
23D
  8
0
 62
     6
 10
-152.9654537870627
 20
-168.1862644354622
 30
0.0
 40
4.0
  1
4000
 41
0.8000000000000007
  7
FDASTYLE1
 72
     5
 11
-140.1654537870627
 21
-168.1862644354622
 31
0.0
  0
TEXT
  5
23E
  8
0
 62
     6
 10
-132.9654537870627
 20
-168.1862644354622
 30
0.0
 40
4.0
  1
5000
 41
0.7999999999999998
  7
FDASTYLE1
 72
     5
 11
-120.1654537870627
 21
-168.1862644354622
 31
0.0
  0
TEXT
  5
23F
  8
0
 62
     6
 10
-112.9654537870627
 20
-168.1862644354622
 30
0.0
 40
4.0
  1
6000
 41
0.7999999999999998
  7
FDASTYLE1
 72
     5
 11
-100.1654537870627
 21
-168.1862644354622
 31
0.0
  0
TEXT
  5
240
  8
0
 62
     6
 10
-92.96545378706273
 20
-168.1862644354622
 30
0.0
 40
4.0
  1
7000
 41
0.7999999999999998
  7
FDASTYLE1
 72
     5
 11
-80.16545378706273
 21
-168.1862644354622
 31
0.0
  0
TEXT
  5
241
  8
0
 62
     6
 10
-231.3192278001538
 20
-166.9683404327175
 30
0.0
 40
4.0
  1
0
 41
0.7999999999999972
  7
FDASTYLE1
 72
     5
 11
-228.1192278001539
 21
-166.9683404327175
 31
0.0
  0
TEXT
  5
242
  8
0
 62
     6
 10
-236.4244659827796
 20
-156.1862491766731
 30
0.0
 40
4.0
  1
10
 41
0.8000000000000007
  7
FDASTYLE1
 72
     5
 11
-230.0244659827796
 21
-156.1862491766731
 31
0.0
  0
TEXT
  5
243
  8
0
 62
     6
 10
-236.4244659827796
 20
-148.1862491766731
 30
0.0
 40
4.0
  1
20
 41
0.8000000000000007
  7
FDASTYLE1
 72
     5
 11
-230.0244659827796
 21
-148.1862491766731
 31
0.0
  0
TEXT
  5
244
  8
0
 62
     6
 10
-236.4244659827796
 20
-140.1862491766731
 30
0.0
 40
4.0
  1
30
 41
0.8000000000000007
  7
FDASTYLE1
 72
     5
 11
-230.0244659827796
 21
-140.1862491766731
 31
0.0
  0
TEXT
  5
245
  8
0
 62
     6
 10
-236.4244659827796
 20
-132.1862491766731
 30
0.0
 40
4.0
  1
40
 41
0.8000000000000007
  7
FDASTYLE1
 72
     5
 11
-230.0244659827796
 21
-132.1862491766731
 31
0.0
  0
TEXT
  5
246
  8
0
 62
     6
 10
-236.4244659827796
 20
-124.1862491766731
 30
0.0
 40
4.0
  1
50
 41
0.8000000000000007
  7
FDASTYLE1
 72
     5
 11
-230.0244659827796
 21
-124.1862491766731
 31
0.0
  0
TEXT
  5
247
  8
0
 62
     6
 10
-236.4244659827796
 20
-116.1862491766731
 30
0.0
 40
4.0
  1
60
 41
0.8000000000000007
  7
FDASTYLE1
 72
     5
 11
-230.0244659827796
 21
-116.1862491766731
 31
0.0
  0
TEXT
  5
248
  8
0
 62
     6
 10
-236.4244659827796
 20
-108.1862491766731
 30
0.0
 40
4.0
  1
70
 41
0.8000000000000007
  7
FDASTYLE1
 72
     5
 11
-230.0244659827796
 21
-108.1862491766731
 31
0.0
  0
TEXT
  5
249
  8
0
 62
     6
 10
-221.9075161649924
 20
-103.579903046302
 30
0.0
 40
4.0
  1
把　握　力　特　性　表
 41
0.6666666666666665
  7
FDASTYLE1
 72
     5
 11
-186.7075161649924
 21
-103.579903046302
 31
0.0
  0
TEXT
  5
24A
  8
0
 62
     6
 10
-174.2280266921426
 20
-175.3062092518656
 30
0.0
 40
4.0
  1
回　転　速　度　min
 41
0.6984126984126982
  7
FDASTYLE1
 72
     5
 11
-139.0280266921426
 21
-175.3062092518656
 31
0.0
  0
TEXT
  5
24B
  8
0
 62
     6
 10
-239.6143531316043
 20
-146.358314751877
 30
0.0
 40
4.0
  1
把　握　力　kN
 50
90.0
 41
0.6956521739130434
  7
FDASTYLE1
 72
     5
 11
-239.6143531316043
 21
-120.758314751877
 31
0.0
  0
TEXT
  5
24C
  8
0
 62
     6
 10
-169.4572445585471
 20
-103.7785801092903
 30
0.0
 40
4.0
  1
(爪ﾉ回転ﾓｰﾒﾝﾄ10.4N･cm)
 41
0.7755102040816327
  7
FDASTYLE1
 72
     5
 11
-108.6572445585471
 21
-103.7785801092903
 31
0.0
  0
TEXT
  5
24D
  8
0
 62
     6
 10
-139.5483218714231
 20
-171.6729026874508
 30
0.0
 40
2.0
  1
-1
 41
0.7999999999999972
  7
FDASTYLE1
 72
     5
 11
-136.3483218714231
 21
-171.6729026874508
 31
0.0
  0
LINE
  5
24E
  8
0
  6
CENTER
 62
     7
 10
63.86631371903756
 20
14.77890166752974
 30
0.0
 11
139.8125802848005
 21
58.62649426885316
 31
0.0
  0
LINE
  5
24F
  8
0
  6
CENTER
 62
     7
 10
82.32151423879587
 20
91.81909962645767
 30
0.0
 11
117.29594388919
 21
71.62660548395485
 31
0.0
  0
LINE
  5
250
  8
0
  6
CENTER
 62
     7
 10
48.64592137578084
 20
58.6265389876881
 30
0.0
 11
230.9792419934566
 21
58.6265389876881
 31
0.0
  0
LINE
  5
251
  8
0
  6
CENTER
 62
     7
 10
74.85589881407019
 20
36.13485943349208
 30
0.0
 11
87.85589654909323
 21
13.61820594648027
 31
0.0
  0
LINE
  5
252
  8
0
  6
CENTER
 62
     7
 10
75.99514165165975
 20
116.6265389876881
 30
0.0
 11
120.812585499316
 21
116.6265389876881
 31
0.0
  0
LINE
  5
253
  8
0
  6
CENTER
 62
     7
 10
-160.577647260166
 20
6.241540666154895
 30
0.0
 11
-41.13381037470744
 21
6.241540666154895
 31
0.0
  0
LINE
  5
254
  8
0
  6
CENTER
 62
     7
 10
-150.6023162340824
 20
58.6265389876881
 30
0.0
 11
-40.13423762080119
 21
58.6265389876881
 31
0.0
  0
LINE
  5
255
  8
0
  6
CENTER
 62
     7
 10
-62.87132868525431
 20
126.1265389876881
 30
0.0
 11
-24.09630427119181
 21
126.1265389876881
 31
0.0
  0
LINE
  5
256
  8
0
  6
CENTER
 62
     7
 10
-62.87132868525431
 20
106.1265389876881
 30
0.0
 11
-23.80254969355509
 21
106.1265389876881
 31
0.0
  0
LINE
  5
257
  8
0
  6
CENTER
 62
     7
 10
-148.5251372790043
 20
111.026540513567
 30
0.0
 11
-129.6352447008793
 21
111.026540513567
 31
0.0
  0
ARC
  5
258
  8
0
  6
CENTER
 62
     7
 10
139.812585499316
 20
58.6265389876881
 30
0.0
 40
52.3849983215332
 50
134.6416612970071
 51
165.3583743720101
  0
LINE
  5
259
  8
0
  6
CENTER
 62
     7
 10
139.812585499316
 20
147.9598672347584
 30
0.0
 11
139.812585499316
 21
-31.3734610123119
 31
0.0
  0
LINE
  5
25A
  8
0
  6
CENTER
 62
     7
 10
139.8126055331719
 20
58.62660625881524
 30
0.0
 11
219.884531385365
 21
12.39706342104916
 31
0.0
  0
LINE
  5
25B
  8
0
  6
CENTER
 62
     7
 10
162.3292683577817
 20
71.62650875278092
 30
0.0
 11
213.0340385433074
 21
100.9009182342989
 31
0.0
  0
LINE
  5
25C
  8
0
  6
CENTER
 62
     7
 10
147.3183123851856
 20
30.61468790596911
 30
0.0
 11
150.9856789565999
 21
16.92789122218489
 31
0.0
  0
LINE
  5
25D
  8
0
  6
CENTER
 62
     7
 10
174.4488464707466
 20
23.61822206837503
 30
0.0
 11
187.4488518351651
 21
46.13488876988556
 31
0.0
  0
LINE
  5
25E
  8
0
  6
CENTER
 62
     7
 10
191.7693448357619
 20
13.61823511292693
 30
0.0
 11
204.7693463854827
 21
36.1348952071881
 31
0.0
  0
LINE
  5
25F
  8
0
  6
CENTER
 62
     7
 10
92.17640746408925
 20
46.13487435115673
 30
0.0
 11
105.1764071064612
 21
23.61821756052024
 31
0.0
  0
LINE
  5
260
  8
0
  6
CENTER
 62
     7
 10
199.5679900492611
 20
46.12585083864776
 30
0.0
 11
210.832460538819
 21
65.63648337089222
 31
0.0
  0
LINE
  5
261
  8
0
  6
CENTER
 62
     7
 10
93.80279485704487
 20
-2.578283001034771
 30
0.0
 11
115.0576171457211
 21
9.693193013133685
 31
0.0
  0
LINE
  5
262
  8
0
  6
CENTER
 62
     7
 10
194.7853483768178
 20
61.52908026736129
 30
0.0
 11
215.6542940617566
 21
49.48039018962079
 31
0.0
  0
LINE
  5
263
  8
0
  6
CENTER
 62
     7
 10
99.09455167058819
 20
13.15228529319149
 30
0.0
 11
111.0975457314613
 21
-7.637507411711733
 31
0.0
  0
LINE
  5
264
  8
0
  6
CENTER
 62
     7
 10
100.573254863
 20
69.14064882556755
 30
0.0
 11
111.8007275054948
 21
66.1322569191621
 31
0.0
  0
LINE
  5
265
  8
0
  6
CENTER
 62
     7
 10
160.3186877508243
 20
79.13261325957961
 30
0.0
 11
168.5115393304451
 21
87.32546414859468
 31
0.0
  0
LINE
  5
266
  8
0
  6
CENTER
 62
     7
 10
109.812585499316
 20
127.6265389876881
 30
0.0
 11
109.812585499316
 21
105.6265389876881
 31
0.0
  0
LINE
  5
267
  8
0
  6
CENTER
 62
     7
 10
126.812585499316
 20
106.1265389876881
 30
0.0
 11
152.812585499316
 21
106.1265389876881
 31
0.0
  0
LINE
  5
268
  8
0
  6
CENTER
 62
     7
 10
126.812585499316
 20
126.1265389876881
 30
0.0
 11
152.812585499316
 21
126.1265389876881
 31
0.0
  0
ARC
  5
269
  8
0
  6
CENTER
 62
     7
 10
139.812585499316
 20
58.6265389876881
 30
0.0
 40
52.3849983215332
 50
254.641627297642
 51
285.3583608632125
  0
ARC
  5
26A
  8
0
  6
CENTER
 62
     7
 10
139.812585499316
 20
58.6265389876881
 30
0.0
 40
52.3849983215332
 50
14.64163746713538
 51
45.35835395723297
  0
ARC
  5
26B
  8
0
  6
CENTER
 62
     7
 10
139.812585499316
 20
58.6265389876881
 30
0.0
 40
35.0
 50
135.2258610370967
 51
174.834223656649
  0
ARC
  5
26C
  8
0
  6
CENTER
 62
     7
 10
139.812585499316
 20
58.6265389876881
 30
0.0
 40
35.0
 50
255.7135298652271
 51
294.5165517099324
  0
ARC
  5
26D
  8
0
  6
CENTER
 62
     7
 10
139.812585499316
 20
58.6265389876881
 30
0.0
 40
35.0
 50
15.22586794307618
 51
54.83420324187182
  0
LINE
  5
26E
  8
0
  6
DASHED2
 62
     7
 10
72.00956120732381
 20
105.6265389876881
 30
0.0
 11
99.812585499316
 21
105.6265389876881
 31
0.0
  0
LINE
  5
26F
  8
0
  6
DASHED2
 62
     7
 10
90.312585499316
 20
119.0265328841725
 30
0.0
 11
90.312585499316
 21
114.2265374618092
 31
0.0
  0
LINE
  5
270
  8
0
  6
DASHED2
 62
     7
 10
92.61261297974862
 20
113.3265856377078
 30
0.0
 11
90.31261258433743
 21
114.2265855908166
 31
0.0
  0
LINE
  5
271
  8
0
  6
DASHED2
 62
     7
 10
90.31255889759028
 20
119.0265578382769
 30
0.0
 11
92.61255929300147
 21
119.9265577913857
 31
0.0
  0
ARC
  5
272
  8
0
  6
DASHED2
 62
     7
 10
90.79046788456991
 20
116.6265389876881
 30
0.0
 40
1.200000047683716
 50
113.46797241713
 51
246.5320171102151
  0
LINE
  5
273
  8
0
  6
DASHED2
 62
     7
 10
99.812585499316
 20
130.7808968978443
 30
0.0
 11
99.812585499316
 21
105.6265389876881
 31
0.0
  0
LINE
  5
274
  8
0
  6
DASHED2
 62
     7
 10
99.812585499316
 20
122.6265389876881
 30
0.0
 11
111.9570099377926
 21
122.6265389876881
 31
0.0
  0
LINE
  5
275
  8
0
  6
DASHED2
 62
     7
 10
99.812585499316
 20
110.6265389876881
 30
0.0
 11
112.1570068860348
 21
110.6265389876881
 31
0.0
  0
LINE
  5
276
  8
0
  6
DASHED2
 62
     7
 10
97.43568578007772
 20
112.6765420394459
 30
0.0
 11
99.12193455937459
 21
112.6765420394459
 31
0.0
  0
LINE
  5
277
  8
0
  6
DASHED2
 62
     7
 10
97.43568578007772
 20
120.5765359359303
 30
0.0
 11
99.12193455937459
 21
120.5765359359303
 31
0.0
  0
LINE
  5
278
  8
0
  6
DASHED2
 62
     7
 10
92.61258855107381
 20
119.9265420394459
 30
0.0
 11
92.61258855107381
 21
113.3265359359303
 31
0.0
  0
LINE
  5
279
  8
0
  6
DASHED2
 62
     7
 10
96.812585499316
 20
120.0191171126881
 30
0.0
 11
96.812585499316
 21
113.2339227157154
 31
0.0
  0
LINE
  5
27A
  8
0
  6
DASHED2
 62
     7
 10
97.57651677373006
 20
118.6265389876881
 30
0.0
 11
99.04865422490194
 21
118.6265389876881
 31
0.0
  0
LINE
  5
27B
  8
0
  6
DASHED2
 62
     7
 10
97.57651677373006
 20
114.6265389876881
 30
0.0
 11
99.04865422490194
 21
114.6265389876881
 31
0.0
  0
LINE
  5
27C
  8
0
  6
DASHED2
 62
     7
 10
93.61258855107381
 20
119.2396066146412
 30
0.0
 11
93.61258855107381
 21
113.9475839095631
 31
0.0
  0
LINE
  5
27D
  8
0
  6
DASHED2
 62
     7
 10
99.812585499316
 20
114.4265420394459
 30
0.0
 11
108.2805115247066
 21
114.4265420394459
 31
0.0
  0
LINE
  5
27E
  8
0
  6
DASHED2
 62
     7
 10
99.812585499316
 20
118.8265359359303
 30
0.0
 11
108.4552856946285
 21
118.8265359359303
 31
0.0
  0
LINE
  5
27F
  8
0
  6
DASHED2
 62
     7
 10
99.812585499316
 20
113.6265389876881
 30
0.0
 11
105.312585499316
 21
113.6265389876881
 31
0.0
  0
LINE
  5
280
  8
0
  6
DASHED2
 62
     7
 10
99.812585499316
 20
119.6265389876881
 30
0.0
 11
105.312585499316
 21
119.6265389876881
 31
0.0
  0
LINE
  5
281
  8
0
  6
DASHED2
 62
     7
 10
105.312585499316
 20
119.6265389876881
 30
0.0
 11
105.312585499316
 21
113.6265389876881
 31
0.0
  0
ARC
  5
282
  8
0
  6
DASHED2
 62
     7
 10
96.812585499316
 20
116.6265389876881
 30
0.0
 40
3.0
 50
0.0
 51
41.81031315512688
  0
ARC
  5
283
  8
0
  6
DASHED2
 62
     7
 10
99.812585499316
 20
116.6265389876881
 30
0.0
 40
3.0
 50
138.1896986840186
 51
221.8102840131373
  0
ARC
  5
284
  8
0
  6
DASHED2
 62
     7
 10
96.812585499316
 20
116.6265389876881
 30
0.0
 40
3.0
 50
318.1896868448731
 51
360.0
  0
ARC
  5
285
  8
0
  6
DASHED2
 62
     7
 10
92.61258855107381
 20
116.6265389876881
 30
0.0
 40
3.299999952316284
 50
72.3602944823007
 51
89.99998201391065
  0
ARC
  5
286
  8
0
  6
DASHED2
 62
     7
 10
92.61258855107381
 20
116.6265389876881
 30
0.0
 40
3.299999952316284
 50
270.0000179860894
 51
287.6397055176993
  0
ARC
  5
287
  8
0
  6
DASHED2
 62
     7
 10
95.01710667851522
 20
122.4224984603443
 30
0.0
 40
3.0
 50
242.1068914535913
 51
306.7619948916872
  0
ARC
  5
288
  8
0
  6
DASHED2
 62
     7
 10
95.01710667851522
 20
110.8305413680592
 30
0.0
 40
3.0
 50
53.23800510831277
 51
117.8898300556071
  0
ARC
  5
289
  8
0
  6
DASHED2
 62
     7
 10
97.74793401005819
 20
119.6265389876881
 30
0.0
 40
1.0
 50
200.7154669700721
 51
270.0000179860894
  0
ARC
  5
28A
  8
0
  6
DASHED2
 62
     7
 10
97.74793401005819
 20
119.6265389876881
 30
0.0
 40
1.0
 50
108.1948751325834
 51
159.2845330299279
  0
ARC
  5
28B
  8
0
  6
DASHED2
 62
     7
 10
97.74793401005819
 20
113.6265389876881
 30
0.0
 40
1.0
 50
89.99998201391065
 51
159.2845330299279
  0
ARC
  5
28C
  8
0
  6
DASHED2
 62
     7
 10
97.74793401005819
 20
113.6265389876881
 30
0.0
 40
1.0
 50
200.7154669700721
 51
251.8051248674166
  0
ARC
  5
28D
  8
0
  6
DASHED2
 62
     7
 10
98.80967869999959
 20
119.6265389876881
 30
0.0
 40
1.0
 50
0.0
 51
71.80513670656207
  0
ARC
  5
28E
  8
0
  6
DASHED2
 62
     7
 10
98.80967869999959
 20
113.6265389876881
 30
0.0
 40
1.0
 50
0.0
 51
89.99998201391065
  0
ARC
  5
28F
  8
0
  6
DASHED2
 62
     7
 10
98.80967869999959
 20
119.6265389876881
 30
0.0
 40
1.0
 50
270.0000179860894
 51
360.0
  0
ARC
  5
290
  8
0
  6
DASHED2
 62
     7
 10
98.80967869999959
 20
113.6265389876881
 30
0.0
 40
1.0
 50
288.194863293438
 51
360.0
  0
LINE
  5
291
  8
0
  6
DASHED2
 62
     7
 10
191.3730902093007
 20
92.32097930823076
 30
0.0
 11
209.498986099601
 21
102.7859701797988
 31
0.0
  0
LINE
  5
292
  8
0
  6
DASHED2
 62
     7
 10
195.4032172282229
 20
95.34059455050142
 30
0.0
 11
209.1952153934022
 21
103.3034084038305
 31
0.0
  0
LINE
  5
293
  8
0
  6
DASHED2
 62
     7
 10
194.7730902093007
 20
86.43200656249657
 30
0.0
 11
212.9131118449078
 21
96.90515293691998
 31
0.0
  0
LINE
  5
294
  8
0
  6
DASHED2
 62
     7
 10
199.4032172282229
 20
88.41239132022592
 30
0.0
 11
213.1952168501053
 21
96.3752060145829
 31
0.0
  0
LINE
  5
295
  8
0
  6
DASHED2
 62
     7
 10
194.7730902093007
 20
86.43200656249657
 30
0.0
 11
191.3730902093007
 21
92.32097930823076
 31
0.0
  0
LINE
  5
296
  8
0
  6
DASHED2
 62
     7
 10
191.3730902093007
 20
92.32097930823053
 30
0.0
 11
191.3730902093007
 21
88.39499747774143
 31
0.0
  0
LINE
  5
297
  8
0
  6
DASHED2
 62
     7
 10
194.7731027339444
 20
86.43198486918
 30
0.0
 11
191.3731027339447
 21
88.39497578442455
 31
0.0
  0
LINE
  5
298
  8
0
  6
DASHED2
 62
     7
 10
194.7730902093005
 20
86.43200656249668
 30
0.0
 11
191.3730902093008
 21
88.39499747774123
 31
0.0
  0
LINE
  5
299
  8
0
  6
DASHED2
 62
     7
 10
199.4032172282229
 20
88.41239132022592
 30
0.0
 11
195.4032172282229
 21
95.34059455050142
 31
0.0
  0
LINE
  5
29A
  8
0
  6
CONTINUOUS
 62
     7
 10
-53.67986650698221
 20
5.241522190735571
 30
0.0
 11
-49.67987050479714
 21
2.932123677263411
 31
0.0
  0
LINE
  5
29B
  8
0
  6
CONTINUOUS
 62
     7
 10
-57.67985864237598
 20
2.932144309387644
 30
0.0
 11
-53.67985603294109
 21
5.241546637556843
 31
0.0
  0
LINE
  5
29C
  8
0
  6
CONTINUOUS
 62
     7
 10
-56.67986907082617
 20
5.241532296835151
 30
0.0
 11
-49.67987441518984
 21
1.200083944584611
 31
0.0
  0
LINE
  5
29D
  8
0
  6
CONTINUOUS
 62
     7
 10
-57.6798656300514
 20
4.086834120528186
 30
0.0
 11
-49.67987032205635
 21
-0.5319648137646542
 31
0.0
  0
LINE
  5
29E
  8
0
  6
CONTINUOUS
 62
     7
 10
-57.67987526248966
 20
2.354784476974663
 30
0.0
 11
-52.28756654288794
 21
-0.7584660698830081
 31
0.0
  0
LINE
  5
29F
  8
0
  6
CONTINUOUS
 62
     7
 10
-57.6798749840532
 20
0.6227291113755822
 30
0.0
 11
-55.28756822152765
 21
-0.7584696893551897
 31
0.0
  0
LINE
  5
2A0
  8
0
  6
CONTINUOUS
 62
     7
 10
-57.67986368918373
 20
1.200097202850833
 30
0.0
 11
-50.67985912267268
 21
5.241551277146931
 31
0.0
  0
LINE
  5
2A1
  8
0
  6
CONTINUOUS
 62
     7
 10
-57.67985736037038
 20
-0.5319543480512099
 30
0.0
 11
-49.67985874875042
 21
4.08684649359015
 31
0.0
  0
LINE
  5
2A2
  8
0
  6
CONTINUOUS
 62
     7
 10
-55.07216400056156
 20
-0.758450648732202
 30
0.0
 11
-49.67986188820966
 21
2.354796083428431
 31
0.0
  0
LINE
  5
2A3
  8
0
  6
CONTINUOUS
 62
     7
 10
-52.07216136824759
 20
-0.7584559200168375
 30
0.0
 11
-49.67985460572204
 21
0.6227428807139344
 31
0.0
  0
LINE
  5
2A4
  8
0
  6
CONTINUOUS
 62
     7
 10
-50.67987473921723
 20
5.24153153225331
 30
0.0
 11
-49.6798740868585
 21
4.66418095021101
 31
0.0
  0
LINE
  5
2A5
  8
0
  6
CONTINUOUS
 62
     7
 10
-57.67985931761378
 20
4.664201326799178
 30
0.0
 11
-56.67985866525505
 21
5.241551908841478
 31
0.0
  0
LINE
  5
2A6
  8
0
  6
CONTINUOUS
 62
     7
 10
-183.0801431176487
 20
111.026540513567
 30
0.0
 11
-150.385900828809
 21
111.026540513567
 31
0.0
  0
LINE
  5
2A7
  8
0
  6
CONTINUOUS
 62
     7
 10
-52.17987426539231
 20
22.82654057690838
 30
0.0
 11
-50.47987513855743
 21
21.84504573184558
 31
0.0
  0
LINE
  5
2A8
  8
0
  6
CONTINUOUS
 62
     7
 10
-53.87986554447561
 20
21.84505511510356
 30
0.0
 11
-52.17986311401582
 21
22.82655186751487
 31
0.0
  0
LINE
  5
2A9
  8
0
  6
CONTINUOUS
 62
     7
 10
-50.77986393224462
 20
22.8265333753879
 30
0.0
 11
-50.47986836161188
 21
22.65333087106314
 31
0.0
  0
LINE
  5
2AA
  8
0
  6
CONTINUOUS
 62
     7
 10
-53.87987048254264
 20
22.65335232808042
 30
0.0
 11
-53.5798749119099
 21
22.82655483240519
 31
0.0
  0
LINE
  5
2AB
  8
0
  6
CONTINUOUS
 62
     7
 10
-53.57986668413908
 20
22.82653303071283
 30
0.0
 11
-50.47987060835187
 21
21.03674965960904
 31
0.0
  0
LINE
  5
2AC
  8
0
  6
CONTINUOUS
 62
     7
 10
-53.87986998539164
 20
22.19144874400758
 30
0.0
 11
-50.47987833897169
 21
20.22846286857902
 31
0.0
  0
LINE
  5
2AD
  8
0
  6
CONTINUOUS
 62
     7
 10
-53.87986685146247
 20
21.38315788274446
 30
0.0
 11
-51.78993426950332
 21
20.17653487727223
 31
0.0
  0
LINE
  5
2AE
  8
0
  6
CONTINUOUS
 62
     7
 10
-53.87986632845413
 20
21.03676781300141
 30
0.0
 11
-50.77987025266693
 21
22.82655118410521
 31
0.0
  0
LINE
  5
2AF
  8
0
  6
CONTINUOUS
 62
     7
 10
-53.87986380880774
 20
20.22848241824779
 30
0.0
 11
-50.4798754660127
 21
22.19146638632783
 31
0.0
  0
LINE
  5
2B0
  8
0
  6
CONTINUOUS
 62
     7
 10
-52.56980597092759
 20
20.17655112331608
 30
0.0
 11
-50.47987338896844
 21
21.38317412878832
 31
0.0
  0
LINE
  5
2B1
  8
0
  6
CONTINUOUS
 62
     7
 10
-51.16980789860527
 20
20.17654904363003
 30
0.0
 11
-50.47987226559845
 21
20.57488352306127
 31
0.0
  0
LINE
  5
2B2
  8
0
  6
CONTINUOUS
 62
     7
 10
-53.8798637175333
 20
20.57486702148135
 30
0.0
 11
-53.18992808452647
 21
20.1765325420501
 31
0.0
  0
LINE
  5
2B3
  8
0
  6
CONTINUOUS
 62
     7
 10
-33.67985768203711
 20
125.1265621670228
 30
0.0
 11
-29.67985507260222
 21
122.8171598388536
 31
0.0
  0
LINE
  5
2B4
  8
0
  6
CONTINUOUS
 62
     7
 10
-33.67986281942127
 20
105.1265664052369
 30
0.0
 11
-29.67986020998639
 21
102.8171640770677
 31
0.0
  0
LINE
  5
2B5
  8
0
  6
CONTINUOUS
 62
     7
 10
-37.67988026546585
 20
102.8171713132788
 30
0.0
 11
-33.67987435240606
 21
105.1265755487965
 31
0.0
  0
LINE
  5
2B6
  8
0
  6
CONTINUOUS
 62
     7
 10
-37.67987543267726
 20
122.8171860458448
 30
0.0
 11
-33.67987612686729
 21
125.1265864666655
 31
0.0
  0
LINE
  5
2B7
  8
0
  6
CONTINUOUS
 62
     7
 10
-31.67987045887311
 20
125.1265608566005
 30
0.0
 11
-29.67986915415567
 21
123.9718596925159
 31
0.0
  0
LINE
  5
2B8
  8
0
  6
CONTINUOUS
 62
     7
 10
-37.67987838032049
 20
123.9718848773629
 30
0.0
 11
-35.67987377197814
 21
125.126587948796
 31
0.0
  0
LINE
  5
2B9
  8
0
  6
CONTINUOUS
 62
     7
 10
-31.67984433041671
 20
105.126573472473
 30
0.0
 11
-29.67984963294909
 21
103.9718761230855
 31
0.0
  0
LINE
  5
2BA
  8
0
  6
CONTINUOUS
 62
     7
 10
-37.6798680366161
 20
101.6624602209353
 30
0.0
 11
-31.67985999293263
 21
105.1265660973748
 31
0.0
  0
LINE
  5
2BB
  8
0
  6
CONTINUOUS
 62
     7
 10
-37.67987055548237
 20
100.5077670429928
 30
0.0
 11
-29.67986946614373
 21
105.1265693151456
 31
0.0
  0
LINE
  5
2BC
  8
0
  6
CONTINUOUS
 62
     7
 10
-37.67988019267058
 20
99.35307856495157
 30
0.0
 11
-29.67987414789458
 21
103.9718836981271
 31
0.0
  0
LINE
  5
2BD
  8
0
  6
CONTINUOUS
 62
     7
 10
-36.07215736919547
 20
99.12655308564561
 30
0.0
 11
-29.67985873401598
 21
102.8171480156629
 31
0.0
  0
LINE
  5
2BE
  8
0
  6
CONTINUOUS
 62
     7
 10
-34.07216239804133
 20
99.12656767903749
 30
0.0
 11
-29.67986671939174
 21
101.6624604912959
 31
0.0
  0
LINE
  5
2BF
  8
0
  6
CONTINUOUS
 62
     7
 10
-32.07217733776191
 20
99.12657655038382
 30
0.0
 11
-29.6798747047675
 21
100.5077729669289
 31
0.0
  0
LINE
  5
2C0
  8
0
  6
CONTINUOUS
 62
     7
 10
-35.67985767197935
 20
105.1265545011596
 30
0.0
 11
-29.67986036507683
 21
101.6624548236028
 31
0.0
  0
LINE
  5
2C1
  8
0
  6
CONTINUOUS
 62
     7
 10
-37.67985429494594
 20
105.1265700482257
 30
0.0
 11
-29.67984907607617
 21
100.5077653918873
 31
0.0
  0
LINE
  5
2C2
  8
0
  6
CONTINUOUS
 62
     7
 10
-37.67986487198324
 20
103.971858002208
 30
0.0
 11
-29.67985965311347
 21
99.35305334586957
 31
0.0
  0
LINE
  5
2C3
  8
0
  6
CONTINUOUS
 62
     7
 10
-37.6798507904298
 20
102.8171581485456
 30
0.0
 11
-31.28754141846936
 21
99.12655701964565
 31
0.0
  0
LINE
  5
2C4
  8
0
  6
CONTINUOUS
 62
     7
 10
-37.67984713082321
 20
101.6624555023305
 30
0.0
 11
-33.28754567083003
 21
99.12655935221216
 31
0.0
  0
LINE
  5
2C5
  8
0
  6
CONTINUOUS
 62
     7
 10
-37.67986948753732
 20
103.9718692595926
 30
0.0
 11
-35.67986487919497
 21
105.1265723310258
 31
0.0
  0
LINE
  5
2C6
  8
0
  6
CONTINUOUS
 62
     7
 10
-37.67985389316347
 20
100.5077500635626
 30
0.0
 11
-35.28754713063792
 21
99.12655126283181
 31
0.0
  0
LINE
  5
2C7
  8
0
  6
CONTINUOUS
 62
     7
 10
-35.67984871989815
 20
125.1265568701952
 30
0.0
 11
-29.67985141299563
 21
121.6624571926384
 31
0.0
  0
LINE
  5
2C8
  8
0
  6
CONTINUOUS
 62
     7
 10
-37.67987476651469
 20
121.6624682777816
 30
0.0
 11
-31.67986754873745
 21
125.1265736773839
 31
0.0
  0
LINE
  5
2C9
  8
0
  6
CONTINUOUS
 62
     7
 10
-37.67988275189045
 20
120.5077807534146
 30
0.0
 11
-29.67987753302067
 21
125.126585409753
 31
0.0
  0
LINE
  5
2CA
  8
0
  6
CONTINUOUS
 62
     7
 10
-37.67987496740592
 20
119.35305828545
 30
0.0
 11
-29.67986974853615
 21
123.9718629417884
 31
0.0
  0
LINE
  5
2CB
  8
0
  6
CONTINUOUS
 62
     7
 10
-36.07217668392549
 20
119.1265714959687
 30
0.0
 11
-29.67987391921487
 21
122.8171688101716
 31
0.0
  0
LINE
  5
2CC
  8
0
  6
CONTINUOUS
 62
     7
 10
-34.0721800609589
 20
119.1265870430348
 30
0.0
 11
-29.67987860096572
 21
121.6624831931532
 31
0.0
  0
LINE
  5
2CD
  8
0
  6
CONTINUOUS
 62
     7
 10
-32.07217427538184
 20
119.1265638318063
 30
0.0
 11
-29.67987412010611
 21
120.5077588178401
 31
0.0
  0
LINE
  5
2CE
  8
0
  6
CONTINUOUS
 62
     7
 10
-37.6798766087053
 20
125.126564039603
 30
0.0
 11
-29.67987138983553
 21
120.5077593832646
 31
0.0
  0
LINE
  5
2CF
  8
0
  6
CONTINUOUS
 62
     7
 10
-37.67986252715186
 20
123.9718641859407
 30
0.0
 11
-29.6798639155319
 21
119.3530633442993
 31
0.0
  0
LINE
  5
2D0
  8
0
  6
CONTINUOUS
 62
     7
 10
-37.67984844559841
 20
122.8171643322783
 30
0.0
 11
-31.28753907363797
 21
119.1265632033783
 31
0.0
  0
LINE
  5
2D1
  8
0
  6
CONTINUOUS
 62
     7
 10
-37.67985800049145
 20
121.6624693154573
 30
0.0
 11
-33.28755654049827
 21
119.1265731653389
 31
0.0
  0
LINE
  5
2D2
  8
0
  6
CONTINUOUS
 62
     7
 10
-37.67986094813467
 20
120.5077704839392
 30
0.0
 11
-35.28755418560913
 21
119.1265716832084
 31
0.0
  0
LINE
  5
2D3
  8
0
  6
CONTINUOUS
 62
     7
 10
-87.56543547651586
 20
-106.1862491766731
 30
0.0
 11
-87.56543547651586
 21
-162.1862491766731
 31
0.0
  0
LINE
  5
2D4
  8
0
  6
CONTINUOUS
 62
     7
 10
-227.5654354765159
 20
-154.1862491766731
 30
0.0
 11
-87.56543547651586
 21
-154.1862491766731
 31
0.0
  0
LINE
  5
2D5
  8
0
  6
CONTINUOUS
 62
     7
 10
-227.5654354765159
 20
-146.1862491766731
 30
0.0
 11
-87.56543547651586
 21
-146.1862491766731
 31
0.0
  0
LINE
  5
2D6
  8
0
  6
CONTINUOUS
 62
     7
 10
-227.5654354765159
 20
-138.1862491766731
 30
0.0
 11
-87.56543547651586
 21
-138.1862491766731
 31
0.0
  0
LINE
  5
2D7
  8
0
  6
CONTINUOUS
 62
     7
 10
-227.5654354765159
 20
-130.1862491766731
 30
0.0
 11
-87.56543547651586
 21
-130.1862491766731
 31
0.0
  0
LINE
  5
2D8
  8
0
  6
CONTINUOUS
 62
     7
 10
-227.5654354765159
 20
-122.1862491766731
 30
0.0
 11
-87.56543547651586
 21
-122.1862491766731
 31
0.0
  0
LINE
  5
2D9
  8
0
  6
CONTINUOUS
 62
     7
 10
-227.5654354765159
 20
-114.1862491766731
 30
0.0
 11
-87.56543547651586
 21
-114.1862491766731
 31
0.0
  0
LINE
  5
2DA
  8
0
  6
CONTINUOUS
 62
     7
 10
-227.5654354765159
 20
-106.1862491766731
 30
0.0
 11
-87.56543547651586
 21
-106.1862491766731
 31
0.0
  0
LINE
  5
2DB
  8
0
  6
CONTINUOUS
 62
     7
 10
-207.5654354765159
 20
-106.1862491766731
 30
0.0
 11
-207.5654354765159
 21
-139.4776310126106
 31
0.0
  0
LINE
  5
2DC
  8
0
  6
CONTINUOUS
 62
     7
 10
-187.5654354765159
 20
-106.1862491766731
 30
0.0
 11
-187.5654354765159
 21
-139.1862491766731
 31
0.0
  0
LINE
  5
2DD
  8
0
  6
CONTINUOUS
 62
     7
 10
-167.5654354765159
 20
-106.1862491766731
 30
0.0
 11
-167.5654354765159
 21
-139.1862491766731
 31
0.0
  0
LINE
  5
2DE
  8
0
  6
CONTINUOUS
 62
     7
 10
-147.5654354765159
 20
-106.1862491766731
 30
0.0
 11
-147.5654354765159
 21
-139.1862491766731
 31
0.0
  0
LINE
  5
2DF
  8
0
  6
CONTINUOUS
 62
     7
 10
-127.5654354765159
 20
-106.1862491766731
 30
0.0
 11
-127.5654354765159
 21
-162.1862491766731
 31
0.0
  0
LINE
  5
2E0
  8
0
  6
CONTINUOUS
 62
     7
 10
-107.5654354765159
 20
-106.1862491766731
 30
0.0
 11
-107.5654354765159
 21
-162.1862491766731
 31
0.0
  0
LINE
  5
2E1
  8
0
  6
CONTINUOUS
 62
     7
 10
-187.5654354765159
 20
-145.1862491766731
 30
0.0
 11
-187.5654354765159
 21
-162.1862491766731
 31
0.0
  0
LINE
  5
2E2
  8
0
  6
CONTINUOUS
 62
     7
 10
-167.5654354765159
 20
-145.1862491766731
 30
0.0
 11
-167.5654354765159
 21
-162.1862491766731
 31
0.0
  0
LINE
  5
2E3
  8
0
  6
CONTINUOUS
 62
     7
 10
-147.5654354765159
 20
-145.1862491766731
 30
0.0
 11
-147.5654354765159
 21
-162.1862491766731
 31
0.0
  0
LINE
  5
2E4
  8
0
  6
CONTINUOUS
 62
     7
 10
-207.5654354765159
 20
-145.1870273749153
 30
0.0
 11
-207.5654354765159
 21
-162.1862491766731
 31
0.0
  0
LINE
  5
2E5
  8
0
  6
CONTINUOUS
 62
     3
 10
65.09755287023152
 20
27.03677981995083
 30
0.0
 11
75.09755310864999
 21
9.716273706946884
 31
0.0
  0
LINE
  5
2E6
  8
0
  6
CONTINUOUS
 62
     3
 10
61.24139850201046
 20
33.47068438181311
 30
0.0
 11
108.5459440923771
 21
60.78197349490012
 31
0.0
  0
LINE
  5
2E7
  8
0
  6
CONTINUOUS
 62
     3
 10
78.74140931138742
 20
3.159788436950583
 30
0.0
 11
126.0459482945042
 21
30.47107373534056
 31
0.0
  0
LINE
  5
2E8
  8
0
  6
CONTINUOUS
 62
     3
 10
73.59755979250257
 20
12.31434586556936
 30
0.0
 11
81.50178631804373
 21
16.87785267364126
 31
0.0
  0
LINE
  5
2E9
  8
0
  6
CONTINUOUS
 62
     3
 10
66.59755455615952
 20
24.43869666889629
 30
0.0
 11
74.5017876889505
 21
29.00220729166524
 31
0.0
  0
LINE
  5
2EA
  8
0
  6
CONTINUOUS
 62
     3
 10
63.08793444185392
 20
34.53678243520461
 30
0.0
 11
65.09755331603805
 21
27.03678361936603
 31
0.0
  0
LINE
  5
2EB
  8
0
  6
CONTINUOUS
 62
     3
 10
75.09755850663974
 20
9.716287135922419
 30
0.0
 11
80.58793779380163
 21
4.22590831156487
 31
0.0
  0
LINE
  5
2EC
  8
0
  6
CONTINUOUS
 62
     3
 10
70.0616697238563
 20
26.43870821941773
 30
0.0
 11
77.06166769729803
 21
14.31435773948335
 31
0.0
  0
LINE
  5
2ED
  8
0
  6
CONTINUOUS
 62
     3
 10
81.35588526933422
 20
29.57653110720191
 30
0.0
 11
77.2855528517204
 21
27.22652934589593
 31
0.0
  0
LINE
  5
2EE
  8
0
  6
CONTINUOUS
 62
     3
 10
77.28556218388631
 20
27.22652983241466
 30
0.0
 11
77.28556218388631
 21
22.52652906947521
 31
0.0
  0
LINE
  5
2EF
  8
0
  6
CONTINUOUS
 62
     3
 10
77.28555850933581
 20
22.52651723761125
 30
0.0
 11
81.35587323017636
 21
20.17651540179038
 31
0.0
  0
LINE
  5
2F0
  8
0
  6
CONTINUOUS
 62
     3
 10
81.35591208806964
 20
20.17649284486976
 30
0.0
 11
85.42623129117656
 21
22.52648711686613
 31
0.0
  0
LINE
  5
2F1
  8
0
  6
CONTINUOUS
 62
     3
 10
85.42620244267538
 20
22.52652144008068
 30
0.0
 11
85.42620244267538
 21
27.22652220302013
 31
0.0
  0
LINE
  5
2F2
  8
0
  6
CONTINUOUS
 62
     3
 10
85.4261755539893
 20
27.22648759372266
 30
0.0
 11
81.35586856095971
 21
29.57648785597036
 31
0.0
  0
LINE
  5
2F3
  8
0
  6
CONTINUOUS
 62
     3
 10
81.20998967460029
 20
32.875189085964
 30
0.0
 11
91.82229003860986
 21
39.00220288092175
 31
0.0
  0
LINE
  5
2F4
  8
0
  6
CONTINUOUS
 62
     3
 10
88.21000151819315
 20
20.75084209733411
 30
0.0
 11
98.82229527495291
 21
26.87785207759482
 31
0.0
  0
LINE
  5
2F5
  8
0
  6
CONTINUOUS
 62
     3
 10
-58.67986140009806
 20
14.9915406661549
 30
0.0
 11
-47.67986140009806
 21
14.9915406661549
 31
0.0
  0
LINE
  5
2F6
  8
0
  6
CONTINUOUS
 62
     3
 10
-58.67986140009806
 20
-2.508459333845105
 30
0.0
 11
-47.67986140009806
 21
-2.508459333845105
 31
0.0
  0
LINE
  5
2F7
  8
0
  6
CONTINUOUS
 62
     3
 10
-58.67986140009806
 20
14.9915406661549
 30
0.0
 11
-58.67986140009806
 21
-2.508459333845105
 31
0.0
  0
LINE
  5
2F8
  8
0
  6
CONTINUOUS
 62
     3
 10
-143.6798614000981
 20
141.1265389876881
 30
0.0
 11
-79.67986140009806
 21
141.1265389876881
 31
0.0
  0
LINE
  5
2F9
  8
0
  6
CONTINUOUS
 62
     3
 10
-158.6798614000981
 20
1.241540666154895
 30
0.0
 11
-58.67986140009806
 21
1.241540666154895
 31
0.0
  0
LINE
  5
2FA
  8
0
  6
CONTINUOUS
 62
     3
 10
-158.6798614000981
 20
11.2415406661549
 30
0.0
 11
-58.67986140009806
 21
11.2415406661549
 31
0.0
  0
LINE
  5
2FB
  8
0
  6
CONTINUOUS
 62
     3
 10
-58.67986140009806
 20
-1.758459333845105
 30
0.0
 11
-48.67986140009806
 21
-1.758459333845105
 31
0.0
  0
LINE
  5
2FC
  8
0
  6
CONTINUOUS
 62
     3
 10
-58.67986140009806
 20
14.2415406661549
 30
0.0
 11
-48.67986140009806
 21
14.2415406661549
 31
0.0
  0
LINE
  5
2FD
  8
0
  6
CONTINUOUS
 62
     3
 10
-48.67986140009806
 20
14.2415406661549
 30
0.0
 11
-48.67986140009806
 21
-1.758459333845105
 31
0.0
  0
LINE
  5
2FE
  8
0
  6
CONTINUOUS
 62
     3
 10
-47.67986140009806
 20
90.42394041591075
 30
0.0
 11
-47.67986140009806
 21
-21.8734610123119
 31
0.0
  0
LINE
  5
2FF
  8
0
  6
CONTINUOUS
 62
     3
 10
-143.679846141309
 20
141.1265389876881
 30
0.0
 11
-143.679846141309
 21
11.7415406661549
 31
0.0
  0
LINE
  5
300
  8
0
  6
CONTINUOUS
 62
     3
 10
-142.679846141309
 20
131.1265389876881
 30
0.0
 11
-142.679846141309
 21
11.2415406661549
 31
0.0
  0
LINE
  5
301
  8
0
  6
CONTINUOUS
 62
     3
 10
-126.679846141309
 20
11.2415406661549
 30
0.0
 11
-126.679846141309
 21
1.241540666154895
 31
0.0
  0
LINE
  5
302
  8
0
  6
CONTINUOUS
 62
     3
 10
-142.679846141309
 20
1.241540666154895
 30
0.0
 11
-142.679846141309
 21
-13.8734610123119
 31
0.0
  0
LINE
  5
303
  8
0
  6
CONTINUOUS
 62
     3
 10
-143.679846141309
 20
0.7415406661548953
 30
0.0
 11
-143.679846141309
 21
-23.8734610123119
 31
0.0
  0
LINE
  5
304
  8
0
  6
CONTINUOUS
 62
     3
 10
-126.679846141309
 20
97.90804838710216
 30
0.0
 11
-126.679846141309
 21
19.3450334029713
 31
0.0
  0
LINE
  5
305
  8
0
  6
CONTINUOUS
 62
     3
 10
-142.6798746160341
 20
17.34503354999499
 30
0.0
 11
-126.6798473808496
 21
19.34503226904219
 31
0.0
  0
LINE
  5
306
  8
0
  6
CONTINUOUS
 62
     3
 10
-142.679851254008
 20
99.90804720817783
 30
0.0
 11
-126.6798543007425
 21
97.90805227436164
 31
0.0
  0
LINE
  5
307
  8
0
  6
CONTINUOUS
 62
     3
 10
-136.179846141309
 20
119.16654753261
 30
0.0
 11
-136.179846141309
 21
102.8865411239186
 31
0.0
  0
LINE
  5
308
  8
0
  6
CONTINUOUS
 62
     3
 10
-142.6798614000981
 20
119.16654753261
 30
0.0
 11
-136.1798614000981
 21
119.16654753261
 31
0.0
  0
LINE
  5
309
  8
0
  6
CONTINUOUS
 62
     3
 10
-142.6798614000981
 20
102.8865411239186
 30
0.0
 11
-136.1798614000981
 21
102.8865411239186
 31
0.0
  0
LINE
  5
30A
  8
0
  6
CONTINUOUS
 62
     3
 10
-143.6798614000981
 20
-23.8734610123119
 30
0.0
 11
-49.67986140009806
 21
-23.8734610123119
 31
0.0
  0
LINE
  5
30B
  8
0
  6
CONTINUOUS
 62
     3
 10
-126.679846141309
 20
28.1265389876881
 30
0.0
 11
-57.67986140009806
 21
28.1265389876881
 31
0.0
  0
LINE
  5
30C
  8
0
  6
CONTINUOUS
 62
     3
 10
-126.679846141309
 20
89.12653898768809
 30
0.0
 11
-77.68573860510172
 21
89.12653898768809
 31
0.0
  0
LINE
  5
30D
  8
0
  6
CONTINUOUS
 62
     3
 10
-136.1798678317226
 20
116.1265450657321
 30
0.0
 11
-133.2353789553216
 21
111.026541428988
 31
0.0
  0
LINE
  5
30E
  8
0
  6
CONTINUOUS
 62
     3
 10
-136.1798695037409
 20
105.9265316417678
 30
0.0
 11
-133.2353782431538
 21
111.0265394080428
 31
0.0
  0
LINE
  5
30F
  8
0
  6
CONTINUOUS
 62
     3
 10
-57.67986140009806
 20
139.7491128402272
 30
0.0
 11
-57.67986140009806
 21
139.1265389876881
 31
0.0
  0
LINE
  5
310
  8
0
  6
CONTINUOUS
 62
     3
 10
-57.67986140009806
 20
17.1265389876881
 30
0.0
 11
-47.67986140009806
 21
17.1265389876881
 31
0.0
  0
LINE
  5
311
  8
0
  6
CONTINUOUS
 62
     3
 10
-72.67986140009806
 20
25.6265389876881
 30
0.0
 11
-72.67986140009806
 21
21.6265389876881
 31
0.0
  0
LINE
  5
312
  8
0
  6
CONTINUOUS
 62
     3
 10
-57.67986140009806
 20
21.1265389876881
 30
0.0
 11
-57.67986140009806
 21
17.1265389876881
 31
0.0
  0
LINE
  5
313
  8
0
  6
CONTINUOUS
 62
     3
 10
-73.83456546413869
 20
23.62655022035137
 30
0.0
 11
-72.67986886194957
 21
25.626543128356
 31
0.0
  0
LINE
  5
314
  8
0
  6
CONTINUOUS
 62
     3
 10
-73.83456505661196
 20
23.6265331210762
 30
0.0
 11
-72.6798636860507
 21
21.62653195400987
 31
0.0
  0
LINE
  5
315
  8
0
  6
CONTINUOUS
 62
     3
 10
-113.6868120340828
 20
134.6265389876881
 30
0.0
 11
-79.67986140009806
 21
134.6265389876881
 31
0.0
  0
LINE
  5
316
  8
0
  6
CONTINUOUS
 62
     3
 10
-79.67986140009806
 20
141.1265389876881
 30
0.0
 11
-79.67986140009806
 21
129.1265389876881
 31
0.0
  0
LINE
  5
317
  8
0
  6
CONTINUOUS
 62
     3
 10
-49.67986212221429
 20
-23.8734634455825
 30
0.0
 11
-47.6798653938318
 21
-21.87346671720001
 31
0.0
  0
LINE
  5
318
  8
0
  6
CONTINUOUS
 62
     3
 10
-121.6857360338871
 20
88.12653898768809
 30
0.0
 11
-121.6857360338871
 21
29.1265389876881
 31
0.0
  0
LINE
  5
319
  8
0
  6
CONTINUOUS
 62
     3
 10
-54.68573603388713
 20
81.62653898768809
 30
0.0
 11
-54.68573603388713
 21
35.6265389876881
 31
0.0
  0
LINE
  5
31A
  8
0
  6
CONTINUOUS
 62
     3
 10
-121.6856968275908
 20
88.12650102639128
 30
0.0
 11
-120.6856957660013
 21
89.12650208798078
 31
0.0
  0
LINE
  5
31B
  8
0
  6
CONTINUOUS
 62
     3
 10
-121.6857318937681
 20
29.12655438073586
 30
0.0
 11
-120.6857308321786
 21
28.12655331914636
 31
0.0
  0
LINE
  5
31C
  8
0
  6
CONTINUOUS
 62
     3
 10
-73.68573603388713
 20
85.12653898768809
 30
0.0
 11
-73.68573603388713
 21
81.37653898768809
 31
0.0
  0
LINE
  5
31D
  8
0
  6
CONTINUOUS
 62
     3
 10
-70.68573603388713
 20
35.6265389876881
 30
0.0
 11
-49.67986140009806
 21
35.6265389876881
 31
0.0
  0
LINE
  5
31E
  8
0
  6
CONTINUOUS
 62
     3
 10
-70.68573603388713
 20
81.62653898768809
 30
0.0
 11
-49.67986140009806
 21
81.62653898768809
 31
0.0
  0
LINE
  5
31F
  8
0
  6
CONTINUOUS
 62
     3
 10
-101.6857360338871
 20
37.6265389876881
 30
0.0
 11
-54.68573603388713
 21
37.6265389876881
 31
0.0
  0
LINE
  5
320
  8
0
  6
CONTINUOUS
 62
     3
 10
-101.6857360338871
 20
79.62653898768809
 30
0.0
 11
-54.68573603388713
 21
79.62653898768809
 31
0.0
  0
LINE
  5
321
  8
0
  6
CONTINUOUS
 62
     3
 10
-120.6857360338871
 20
82.82653593593028
 30
0.0
 11
-104.6857360338871
 21
82.82653593593028
 31
0.0
  0
LINE
  5
322
  8
0
  6
CONTINUOUS
 62
     3
 10
-120.6857360338871
 20
34.42653822474865
 30
0.0
 11
-104.6857360338871
 21
34.42653822474865
 31
0.0
  0
LINE
  5
323
  8
0
  6
CONTINUOUS
 62
     3
 10
-101.6857360338871
 20
83.42654203944591
 30
0.0
 11
-101.6857360338871
 21
33.82653975062755
 31
0.0
  0
LINE
  5
324
  8
0
  6
CONTINUOUS
 62
     3
 10
-104.6857360338871
 20
83.42654203944591
 30
0.0
 11
-104.6857360338871
 21
33.82653975062755
 31
0.0
  0
LINE
  5
325
  8
0
  6
CONTINUOUS
 62
     3
 10
-77.68573860510172
 20
89.12653898768809
 30
0.0
 11
-73.68573640272376
 21
85.12653678531014
 31
0.0
  0
LINE
  5
326
  8
0
  6
CONTINUOUS
 62
     3
 10
-73.68568869252694
 20
32.12650104491974
 30
0.0
 11
-77.68569698498676
 21
28.12650050748841
 31
0.0
  0
LINE
  5
327
  8
0
  6
CONTINUOUS
 62
     3
 10
-73.68573603388713
 20
35.8765389876881
 30
0.0
 11
-73.68573603388713
 21
32.1265389876881
 31
0.0
  0
LINE
  5
328
  8
0
  6
CONTINUOUS
 62
     3
 10
-57.67986140009806
 20
33.6265389876881
 30
0.0
 11
-57.67986140009806
 21
26.1265389876881
 31
0.0
  0
LINE
  5
329
  8
0
  6
CONTINUOUS
 62
     3
 10
-103.9857390856449
 20
33.1265389876881
 30
0.0
 11
-102.3857329821293
 21
33.1265389876881
 31
0.0
  0
LINE
  5
32A
  8
0
  6
CONTINUOUS
 62
     3
 10
-103.9857390856449
 20
84.12653898768809
 30
0.0
 11
-102.3857329821293
 21
84.12653898768809
 31
0.0
  0
LINE
  5
32B
  8
0
  6
CONTINUOUS
 62
     3
 10
-73.68573603388713
 20
81.37653898768809
 30
0.0
 11
-70.68573603388713
 21
81.37653898768809
 31
0.0
  0
LINE
  5
32C
  8
0
  6
CONTINUOUS
 62
     3
 10
-73.68573603388713
 20
35.8765389876881
 30
0.0
 11
-70.68573603388713
 21
35.8765389876881
 31
0.0
  0
LINE
  5
32D
  8
0
  6
CONTINUOUS
 62
     3
 10
-70.68573603388713
 20
81.62653898768809
 30
0.0
 11
-70.68573603388713
 21
81.37653898768809
 31
0.0
  0
LINE
  5
32E
  8
0
  6
CONTINUOUS
 62
     3
 10
-70.68573603388713
 20
35.8765389876881
 30
0.0
 11
-70.68573603388713
 21
35.6265389876881
 31
0.0
  0
LINE
  5
32F
  8
0
  6
CONTINUOUS
 62
     3
 10
-120.6856732132591
 20
34.4264741822895
 30
0.0
 11
-121.6856750334927
 21
33.42647379505031
 31
0.0
  0
LINE
  5
330
  8
0
  6
CONTINUOUS
 62
     3
 10
-120.6857253872289
 20
82.8265540063631
 30
0.0
 11
-121.6857245100613
 21
83.82655700670972
 31
0.0
  0
LINE
  5
331
  8
0
  6
CONTINUOUS
 62
     3
 10
-120.6857360338871
 20
82.82653593593028
 30
0.0
 11
-120.6857360338871
 21
75.62653898768809
 31
0.0
  0
LINE
  5
332
  8
0
  6
CONTINUOUS
 62
     3
 10
-120.6857360338871
 20
41.6265389876881
 30
0.0
 11
-120.6857360338871
 21
34.42653822474865
 31
0.0
  0
LINE
  5
333
  8
0
  6
CONTINUOUS
 62
     3
 10
-65.67986140009806
 20
35.6265389876881
 30
0.0
 11
-65.67986140009806
 21
33.6265389876881
 31
0.0
  0
LINE
  5
334
  8
0
  6
CONTINUOUS
 62
     3
 10
-65.67986140009806
 20
83.62653898768809
 30
0.0
 11
-65.67986140009806
 21
81.62653898768809
 31
0.0
  0
LINE
  5
335
  8
0
  6
CONTINUOUS
 62
     3
 10
-48.67986140009806
 20
90.42394041591075
 30
0.0
 11
-48.67986140009806
 21
17.1265389876881
 31
0.0
  0
LINE
  5
336
  8
0
  6
CONTINUOUS
 62
     3
 10
-65.67986140009806
 20
33.6265389876881
 30
0.0
 11
-57.67986140009806
 21
33.6265389876881
 31
0.0
  0
LINE
  5
337
  8
0
  6
CONTINUOUS
 62
     3
 10
-65.67986140009806
 20
83.62653898768809
 30
0.0
 11
-57.67986140009806
 21
83.62653898768809
 31
0.0
  0
LINE
  5
338
  8
0
  6
CONTINUOUS
 62
     3
 10
-54.67986140009806
 20
28.3765389876881
 30
0.0
 11
-54.67986140009806
 21
18.8765389876881
 31
0.0
  0
LINE
  5
339
  8
0
  6
CONTINUOUS
 62
     3
 10
-49.67986140009806
 20
27.8765389876881
 30
0.0
 11
-49.67986140009806
 21
19.3765389876881
 31
0.0
  0
LINE
  5
33A
  8
0
  6
CONTINUOUS
 62
     3
 10
-54.67986140009806
 20
28.3765389876881
 30
0.0
 11
-48.67986140009806
 21
28.3765389876881
 31
0.0
  0
LINE
  5
33B
  8
0
  6
CONTINUOUS
 62
     3
 10
-54.67986140009806
 20
18.8765389876881
 30
0.0
 11
-48.67986140009806
 21
18.8765389876881
 31
0.0
  0
LINE
  5
33C
  8
0
  6
CONTINUOUS
 62
     3
 10
-54.67986140009806
 20
19.3765389876881
 30
0.0
 11
-49.67986140009806
 21
19.3765389876881
 31
0.0
  0
LINE
  5
33D
  8
0
  6
CONTINUOUS
 62
     3
 10
-54.67986140009806
 20
27.8765389876881
 30
0.0
 11
-49.67986140009806
 21
27.8765389876881
 31
0.0
  0
LINE
  5
33E
  8
0
  6
CONTINUOUS
 62
     3
 10
-57.67986140009806
 20
88.62653898768809
 30
0.0
 11
-55.67986140009806
 21
88.62653898768809
 31
0.0
  0
LINE
  5
33F
  8
0
  6
CONTINUOUS
 62
     3
 10
-55.67986351482843
 20
88.62656331486284
 30
0.0
 11
-48.67986555556719
 21
84.58511305526378
 31
0.0
  0
LINE
  5
340
  8
0
  6
CONTINUOUS
 62
     3
 10
-49.67985293429992
 20
35.62654192487441
 30
0.0
 11
-48.67985330570481
 21
34.62653943029051
 31
0.0
  0
LINE
  5
341
  8
0
  6
CONTINUOUS
 62
     3
 10
-49.67981742544761
 20
81.62648751590319
 30
0.0
 11
-48.67981712250447
 21
82.6264840256361
 31
0.0
  0
LINE
  5
342
  8
0
  6
CONTINUOUS
 62
     3
 10
-49.67986140009806
 20
81.62653898768809
 30
0.0
 11
-49.67986140009806
 21
75.53843473964122
 31
0.0
  0
LINE
  5
343
  8
0
  6
CONTINUOUS
 62
     3
 10
-49.67986140009806
 20
41.87414335780529
 30
0.0
 11
-49.67986140009806
 21
35.6265389876881
 31
0.0
  0
LINE
  5
344
  8
0
  6
CONTINUOUS
 62
     3
 10
-79.67986140009806
 20
139.1265389876881
 30
0.0
 11
-45.67986140009806
 21
139.1265389876881
 31
0.0
  0
LINE
  5
345
  8
0
  6
CONTINUOUS
 62
     3
 10
-68.67986140009806
 20
85.62653898768809
 30
0.0
 11
-57.67986140009806
 21
85.62653898768809
 31
0.0
  0
LINE
  5
346
  8
0
  6
CONTINUOUS
 62
     3
 10
-68.67986627661264
 20
85.62654338525097
 30
0.0
 11
-79.67986716450412
 21
96.62654427314244
 31
0.0
  0
LINE
  5
347
  8
0
  6
CONTINUOUS
 62
     3
 10
-57.67986140009806
 20
91.12653898768809
 30
0.0
 11
-45.67986140009806
 21
91.12653898768809
 31
0.0
  0
LINE
  5
348
  8
0
  6
CONTINUOUS
 62
     3
 10
-60.67986140009806
 20
92.12653898768809
 30
0.0
 11
-53.67986140009806
 21
92.12653898768809
 31
0.0
  0
LINE
  5
349
  8
0
  6
CONTINUOUS
 62
     3
 10
-53.67986140009806
 20
139.1265389876881
 30
0.0
 11
-53.67986140009806
 21
135.1265389876881
 31
0.0
  0
LINE
  5
34A
  8
0
  6
CONTINUOUS
 62
     3
 10
-60.67986140009806
 20
139.1265389876881
 30
0.0
 11
-60.67986140009806
 21
92.12653898768809
 31
0.0
  0
LINE
  5
34B
  8
0
  6
CONTINUOUS
 62
     3
 10
-57.67986140009806
 20
139.7491128402272
 30
0.0
 11
-49.67986140009806
 21
139.7491128402272
 31
0.0
  0
LINE
  5
34C
  8
0
  6
CONTINUOUS
 62
     3
 10
-49.67986414526298
 20
139.7490985011357
 30
0.0
 11
-49.05729383760048
 21
139.1265281934732
 31
0.0
  0
LINE
  5
34D
  8
0
  6
CONTINUOUS
 62
     3
 10
-57.67986140009806
 20
92.12653898768809
 30
0.0
 11
-57.67986140009806
 21
83.62653898768809
 31
0.0
  0
LINE
  5
34E
  8
0
  6
CONTINUOUS
 62
     3
 10
-59.67986140009806
 20
97.12653898768809
 30
0.0
 11
-44.67986140009806
 21
97.12653898768809
 31
0.0
  0
LINE
  5
34F
  8
0
  6
CONTINUOUS
 62
     3
 10
-59.67986140009806
 20
135.1265389876881
 30
0.0
 11
-44.67986140009806
 21
135.1265389876881
 31
0.0
  0
LINE
  5
350
  8
0
  6
CONTINUOUS
 62
     3
 10
-59.67986140009806
 20
135.1265389876881
 30
0.0
 11
-59.67986140009806
 21
97.12653898768809
 31
0.0
  0
LINE
  5
351
  8
0
  6
CONTINUOUS
 62
     3
 10
-53.67986140009806
 20
97.12653898768809
 30
0.0
 11
-53.67986140009806
 21
92.12653898768809
 31
0.0
  0
LINE
  5
352
  8
0
  6
CONTINUOUS
 62
     3
 10
-59.67986140009806
 20
131.1265389876881
 30
0.0
 11
-38.67986140009806
 21
131.1265389876881
 31
0.0
  0
LINE
  5
353
  8
0
  6
CONTINUOUS
 62
     3
 10
-59.67986140009806
 20
121.1265389876881
 30
0.0
 11
-38.67986140009806
 21
121.1265389876881
 31
0.0
  0
LINE
  5
354
  8
0
  6
CONTINUOUS
 62
     3
 10
-59.67986140009806
 20
111.1265389876881
 30
0.0
 11
-38.67986140009806
 21
111.1265389876881
 31
0.0
  0
LINE
  5
355
  8
0
  6
CONTINUOUS
 62
     3
 10
-59.67986140009806
 20
101.1265389876881
 30
0.0
 11
-38.67986140009806
 21
101.1265389876881
 31
0.0
  0
LINE
  5
356
  8
0
  6
CONTINUOUS
 62
     3
 10
-58.67986140009806
 20
131.1265389876881
 30
0.0
 11
-58.67986140009806
 21
121.1265389876881
 31
0.0
  0
LINE
  5
357
  8
0
  6
CONTINUOUS
 62
     3
 10
-58.67986140009806
 20
111.1265389876881
 30
0.0
 11
-58.67986140009806
 21
101.1265389876881
 31
0.0
  0
LINE
  5
358
  8
0
  6
CONTINUOUS
 62
     3
 10
-142.679846141309
 20
11.7415406661549
 30
0.0
 11
-58.67986140009806
 21
11.7415406661549
 31
0.0
  0
LINE
  5
359
  8
0
  6
CONTINUOUS
 62
     3
 10
-142.679846141309
 20
0.7415406661548953
 30
0.0
 11
-58.67986140009806
 21
0.7415406661548953
 31
0.0
  0
CIRCLE
  5
35A
  8
0
  6
CONTINUOUS
 62
     3
 10
94.44584050419881
 20
84.81903624110606
 30
0.0
 40
5.5
  0
CIRCLE
  5
35B
  8
0
  6
CONTINUOUS
 62
     3
 10
98.67638554814413
 20
34.87652372889904
 30
0.0
 40
8.0
  0
CIRCLE
  5
35C
  8
0
  6
CONTINUOUS
 62
     3
 10
81.35587468388631
 20
24.8765275435963
 30
0.0
 40
8.0
  0
ARC
  5
35D
  8
0
  6
CONTINUOUS
 62
     3
 10
139.812585499316
 20
58.6265389876881
 30
0.0
 40
80.5
 50
102.5558777840101
 51
197.4441169038721
  0
ARC
  5
35E
  8
0
  6
CONTINUOUS
 62
     3
 10
139.812585499316
 20
58.6265389876881
 30
0.0
 40
80.5
 50
223.6520345049187
 51
317.4441682818716
  0
CIRCLE
  5
35F
  8
0
  6
CONTINUOUS
 62
     3
 10
94.44584050419881
 20
84.81903624110606
 30
0.0
 40
8.75
  0
ARC
  5
360
  8
0
  6
CONTINUOUS
 62
     3
 10
-103.9857390856449
 20
83.42654203944591
 30
0.0
 40
0.699999988079071
 50
89.99998201391065
 51
179.9999640278213
  0
ARC
  5
361
  8
0
  6
CONTINUOUS
 62
     3
 10
-102.3857329821293
 20
83.42654203944591
 30
0.0
 40
0.699999988079071
 50
0.0
 51
89.99998201391065
  0
ARC
  5
362
  8
0
  6
CONTINUOUS
 62
     3
 10
-102.3857329821293
 20
33.82653975062755
 30
0.0
 40
0.699999988079071
 50
270.0000179860894
 51
360.0
  0
ARC
  5
363
  8
0
  6
CONTINUOUS
 62
     3
 10
-103.9857390856449
 20
33.82653975062755
 30
0.0
 40
0.699999988079071
 50
179.9999813306654
 51
270.0000179860894
  0
LINE
  5
364
  8
0
  6
CONTINUOUS
 62
     3
 10
137.4625793958004
 20
10.31186079554943
 30
0.0
 11
142.1625916028316
 21
10.31186079554943
 31
0.0
  0
LINE
  5
365
  8
0
  6
CONTINUOUS
 62
     3
 10
142.162545492867
 20
10.31181937669778
 30
0.0
 11
144.5125492151709
 21
6.241488079654181
 31
0.0
  0
LINE
  5
366
  8
0
  6
CONTINUOUS
 62
     3
 10
144.5126170193331
 20
6.241525816739857
 30
0.0
 11
142.162617371005
 21
2.171214119380982
 31
0.0
  0
LINE
  5
367
  8
0
  6
CONTINUOUS
 62
     3
 10
142.1625916028316
 20
2.171220536760364
 30
0.0
 11
137.4625793958004
 21
2.171220536760364
 31
0.0
  0
LINE
  5
368
  8
0
  6
CONTINUOUS
 62
     3
 10
137.4625686090245
 20
2.171216338498715
 30
0.0
 11
135.1125715356117
 21
6.241533860755743
 31
0.0
  0
LINE
  5
369
  8
0
  6
CONTINUOUS
 62
     3
 10
135.1128640976841
 20
6.241386268821605
 30
0.0
 11
137.4628682938511
 21
10.31171286152773
 31
0.0
  0
LINE
  5
36A
  8
0
  6
CONTINUOUS
 62
     3
 10
204.5276826911019
 20
9.716323717287713
 30
0.0
 11
214.5276762537993
 21
27.03681826760528
 31
0.0
  0
LINE
  5
36B
  8
0
  6
CONTINUOUS
 62
     3
 10
171.0792958771652
 20
60.78202669023614
 30
0.0
 11
218.3838282530322
 21
33.47074520654321
 31
0.0
  0
LINE
  5
36C
  8
0
  6
CONTINUOUS
 62
     3
 10
153.5792666765502
 20
30.47114466718342
 30
0.0
 11
200.8838386959161
 21
3.159840295308248
 31
0.0
  0
LINE
  5
36D
  8
0
  6
CONTINUOUS
 62
     3
 10
102.916797010916
 20
57.53198917747694
 30
0.0
 11
108.1668000209508
 21
48.43871847141754
 31
0.0
  0
LINE
  5
36E
  8
0
  6
CONTINUOUS
 62
     3
 10
159.2084824081099
 20
27.22110769321495
 30
0.0
 11
164.458479219261
 21
36.31436766249414
 31
0.0
  0
LINE
  5
36F
  8
0
  6
CONTINUOUS
 62
     3
 10
153.5793069625976
 20
30.4711052880935
 30
0.0
 11
171.0793128634579
 21
60.78200048377136
 31
0.0
  0
LINE
  5
370
  8
0
  6
CONTINUOUS
 62
     3
 10
108.5459573345808
 20
60.78198244658473
 30
0.0
 11
126.045960851255
 21
30.47109138043772
 31
0.0
  0
LINE
  5
371
  8
0
  6
CONTINUOUS
 62
     3
 10
157.0434151228102
 20
28.47110123497721
 30
0.0
 11
174.4536611863101
 21
58.62652785319148
 31
0.0
  0
LINE
  5
372
  8
0
  6
CONTINUOUS
 62
     3
 10
105.0818581658036
 20
58.7819780786353
 30
0.0
 11
122.5818612056406
 21
28.47108783839446
 31
0.0
  0
LINE
  5
373
  8
0
  6
CONTINUOUS
 62
     3
 10
164.4584327967656
 20
36.3144290924725
 30
0.0
 11
174.0947366469969
 21
30.75090708521709
 31
0.0
  0
LINE
  5
374
  8
0
  6
CONTINUOUS
 62
     3
 10
171.4584494087297
 20
48.43878434016467
 30
0.0
 11
181.0947268299618
 21
42.8752775916974
 31
0.0
  0
LINE
  5
375
  8
0
  6
CONTINUOUS
 62
     3
 10
115.1667979943926
 20
36.31436799148316
 30
0.0
 11
120.4167986202414
 21
27.22110141495461
 31
0.0
  0
LINE
  5
376
  8
0
  6
CONTINUOUS
 62
     3
 10
171.4584762390283
 20
48.43871649061618
 30
0.0
 11
176.7084844942725
 21
57.53199628164345
 31
0.0
  0
LINE
  5
377
  8
0
  6
CONTINUOUS
 62
     3
 10
214.5276377666677
 20
27.03681804309651
 30
0.0
 11
216.5372610837757
 21
34.5368334401506
 31
0.0
  0
LINE
  5
378
  8
0
  6
CONTINUOUS
 62
     3
 10
199.0373134620842
 20
4.225880410347662
 30
0.0
 11
204.5276954466445
 21
9.716261932103469
 31
0.0
  0
LINE
  5
379
  8
0
  6
CONTINUOUS
 62
     3
 10
102.9706354306817
 20
45.43870883258189
 30
0.0
 11
109.970632450449
 21
33.31436000445985
 31
0.0
  0
LINE
  5
37A
  8
0
  6
CONTINUOUS
 62
     3
 10
169.6546353634036
 20
33.31437391211563
 30
0.0
 11
176.6546361978686
 21
45.43872934748703
 31
0.0
  0
LINE
  5
37B
  8
0
  6
CONTINUOUS
 62
     3
 10
202.5635869020558
 20
14.31437927653457
 30
0.0
 11
209.5635877365208
 21
26.43873471190597
 31
0.0
  0
LINE
  5
37C
  8
0
  6
CONTINUOUS
 62
     3
 10
137.7774128589643
 20
24.80155179098853
 30
0.0
 11
139.8125790677713
 21
25.97655267164152
 31
0.0
  0
LINE
  5
37D
  8
0
  6
CONTINUOUS
 62
     3
 10
139.8125551020222
 20
25.97651248450354
 30
0.0
 11
141.8477185094035
 21
24.80150663132014
 31
0.0
  0
LINE
  5
37E
  8
0
  6
CONTINUOUS
 62
     3
 10
141.847741749316
 20
24.80153441005138
 30
0.0
 11
141.847741749316
 21
22.45153593593029
 31
0.0
  0
LINE
  5
37F
  8
0
  6
CONTINUOUS
 62
     3
 10
141.8477830479225
 20
22.45147438744704
 30
0.0
 11
139.8126168391156
 21
21.27647343675842
 31
0.0
  0
LINE
  5
380
  8
0
  6
CONTINUOUS
 62
     3
 10
139.8125717686509
 20
21.27650571949022
 30
0.0
 11
137.7774078009844
 21
22.45151045210339
 31
0.0
  0
LINE
  5
381
  8
0
  6
CONTINUOUS
 62
     3
 10
137.777429249316
 20
22.45153975062755
 30
0.0
 11
137.777429249316
 21
24.80154203944591
 31
0.0
  0
LINE
  5
382
  8
0
  6
CONTINUOUS
 62
     3
 10
198.2693420574784
 20
29.57657130085733
 30
0.0
 11
194.1990096398646
 21
27.22656953955136
 31
0.0
  0
LINE
  5
383
  8
0
  6
CONTINUOUS
 62
     3
 10
194.1990143323238
 20
27.22656797938732
 30
0.0
 11
194.1990143323238
 21
22.52657103114513
 31
0.0
  0
LINE
  5
384
  8
0
  6
CONTINUOUS
 62
     3
 10
194.198963884077
 20
22.52656429588939
 30
0.0
 11
198.2692918194099
 21
20.17655483066307
 31
0.0
  0
LINE
  5
385
  8
0
  6
CONTINUOUS
 62
     3
 10
198.2693728679752
 20
20.17645586546684
 30
0.0
 11
202.3397052855891
 21
22.5264577668441
 31
0.0
  0
LINE
  5
386
  8
0
  6
CONTINUOUS
 62
     3
 10
202.3396393323238
 20
22.5265634017506
 30
0.0
 11
202.3396393323238
 21
27.22656034999279
 31
0.0
  0
LINE
  5
387
  8
0
  6
CONTINUOUS
 62
     3
 10
202.3396123883723
 20
27.22653571499365
 30
0.0
 11
198.2692855736096
 21
29.57654742136044
 31
0.0
  0
LINE
  5
388
  8
0
  6
CONTINUOUS
 62
     3
 10
180.9487867077404
 20
39.57656806650318
 30
0.0
 11
176.8784542901266
 21
37.2265663051972
 31
0.0
  0
LINE
  5
389
  8
0
  6
CONTINUOUS
 62
     3
 10
176.878503468066
 20
37.22656797938732
 30
0.0
 11
176.878503468066
 21
32.52657103114513
 31
0.0
  0
LINE
  5
38A
  8
0
  6
CONTINUOUS
 62
     3
 10
176.8784415756946
 20
32.52653895752707
 30
0.0
 11
180.9487695110275
 21
30.17652949230075
 31
0.0
  0
LINE
  5
38B
  8
0
  6
CONTINUOUS
 62
     3
 10
180.9488716305087
 20
30.17651030175245
 30
0.0
 11
185.0192040481226
 21
32.52651220312971
 31
0.0
  0
LINE
  5
38C
  8
0
  6
CONTINUOUS
 62
     3
 10
185.019128468066
 20
32.5265634017506
 30
0.0
 11
185.019128468066
 21
37.22656034999279
 31
0.0
  0
LINE
  5
38D
  8
0
  6
CONTINUOUS
 62
     3
 10
185.0191080628284
 20
37.22651228397269
 30
0.0
 11
180.9487812480658
 21
39.57652399033947
 31
0.0
  0
LINE
  5
38E
  8
0
  6
CONTINUOUS
 62
     3
 10
98.67638666533502
 20
39.57652698501881
 30
0.0
 11
94.6060674622281
 21
37.22653285309327
 31
0.0
  0
LINE
  5
38F
  8
0
  6
CONTINUOUS
 62
     3
 10
94.60606541874959
 20
37.22652983241466
 30
0.0
 11
94.60606541874959
 21
32.52652906947521
 31
0.0
  0
LINE
  5
390
  8
0
  6
CONTINUOUS
 62
     3
 10
94.60604858899852
 20
32.52650323373752
 30
0.0
 11
98.67636330983906
 21
30.17650139791665
 31
0.0
  0
LINE
  5
391
  8
0
  6
CONTINUOUS
 62
     3
 10
98.67640783048897
 20
30.17648385222908
 30
0.0
 11
102.7467270335959
 21
32.52647812422544
 31
0.0
  0
LINE
  5
392
  8
0
  6
CONTINUOUS
 62
     3
 10
102.7467056775387
 20
32.52652144008068
 30
0.0
 11
102.7467056775387
 21
37.22652220302013
 31
0.0
  0
LINE
  5
393
  8
0
  6
CONTINUOUS
 62
     3
 10
102.7466876525378
 20
37.22647739536485
 30
0.0
 11
98.67637405226388
 21
39.57648147231891
 31
0.0
  0
LINE
  5
394
  8
0
  6
CONTINUOUS
 62
     3
 10
105.5305038678525
 20
30.75083768659062
 30
0.0
 11
115.1667812890846
 21
36.31434443505788
 31
0.0
  0
LINE
  5
395
  8
0
  6
CONTINUOUS
 62
     3
 10
98.53049863150947
 20
42.87518848991756
 30
0.0
 11
108.1667694454917
 21
48.43869142368778
 31
0.0
  0
LINE
  5
396
  8
0
  6
CONTINUOUS
 62
     3
 10
180.8029452398965
 20
26.87792147622128
 30
0.0
 11
191.4152588184057
 21
20.75090005186946
 31
0.0
  0
LINE
  5
397
  8
0
  6
CONTINUOUS
 62
     3
 10
187.8029618518607
 20
39.00227672391345
 30
0.0
 11
198.4152490013706
 21
32.87527055834978
 31
0.0
  0
LINE
  5
398
  8
0
  6
CONTINUOUS
 62
     3
 10
205.1234708087699
 20
29.00227731995989
 30
0.0
 11
213.0276841198114
 21
24.43877814128206
 31
0.0
  0
LINE
  5
399
  8
0
  6
CONTINUOUS
 62
     3
 10
198.1234541968057
 20
16.87792207226773
 30
0.0
 11
206.0276807223469
 21
12.31441526419582
 31
0.0
  0
LINE
  5
39A
  8
0
  6
CONTINUOUS
 62
     3
 10
100.583130590279
 20
3.645760188796492
 30
0.0
 11
102.5831310671161
 21
7.10986150334117
 31
0.0
  0
LINE
  5
39B
  8
0
  6
CONTINUOUS
 62
     3
 10
102.5831238293941
 20
7.109868760637317
 30
0.0
 11
106.5831238293941
 21
7.109868760637317
 31
0.0
  0
LINE
  5
39C
  8
0
  6
CONTINUOUS
 62
     3
 10
106.5831372919289
 20
7.109871414052412
 30
0.0
 11
108.5831377687647
 21
3.645765603789249
 31
0.0
  0
LINE
  5
39D
  8
0
  6
CONTINUOUS
 62
     3
 10
108.5831584571339
 20
3.645745527252592
 30
0.0
 11
106.5831560729481
 21
0.1816451663822303
 31
0.0
  0
LINE
  5
39E
  8
0
  6
CONTINUOUS
 62
     3
 10
106.5831238293941
 20
0.1816613631763797
 30
0.0
 11
102.5831238293941
 21
0.1816613631763797
 31
0.0
  0
LINE
  5
39F
  8
0
  6
CONTINUOUS
 62
     3
 10
102.5831711930147
 20
0.1816874446495316
 30
0.0
 11
100.583172146689
 21
3.645789474449947
 31
0.0
  0
LINE
  5
3A0
  8
0
  6
CONTINUOUS
 62
     3
 10
201.0420400290733
 20
55.60733918087141
 30
0.0
 11
203.0420405059105
 21
59.07144049541609
 31
0.0
  0
LINE
  5
3A1
  8
0
  6
CONTINUOUS
 62
     3
 10
203.042077686816
 20
59.07143187098888
 30
0.0
 11
207.042077686816
 21
59.07143187098888
 31
0.0
  0
LINE
  5
3A2
  8
0
  6
CONTINUOUS
 62
     3
 10
207.0421190148301
 20
59.07144920188654
 30
0.0
 11
209.0421175843186
 21
55.60734669524897
 31
0.0
  0
LINE
  5
3A3
  8
0
  6
CONTINUOUS
 62
     3
 10
209.042138674202
 20
55.60731133996348
 30
0.0
 11
207.0421362900162
 21
52.14321097909312
 31
0.0
  0
LINE
  5
3A4
  8
0
  6
CONTINUOUS
 62
     3
 10
207.042077686816
 20
52.14322447352794
 30
0.0
 11
203.042077686816
 21
52.14322447352794
 31
0.0
  0
LINE
  5
3A5
  8
0
  6
CONTINUOUS
 62
     3
 10
203.0421562149342
 20
52.14326662080936
 30
0.0
 11
201.0421571686085
 21
55.60736865060978
 31
0.0
  0
LINE
  5
3A6
  8
0
  6
CONTINUOUS
 62
     3
 10
122.312585499316
 20
139.2491128402272
 30
0.0
 11
122.312585499316
 21
84.62653898768809
 31
0.0
  0
LINE
  5
3A7
  8
0
  6
CONTINUOUS
 62
     3
 10
157.312585499316
 20
139.2491128402272
 30
0.0
 11
157.312585499316
 21
84.62653898768809
 31
0.0
  0
LINE
  5
3A8
  8
0
  6
CONTINUOUS
 62
     3
 10
122.312585499316
 20
84.62653898768809
 30
0.0
 11
157.312585499316
 21
84.62653898768809
 31
0.0
  0
LINE
  5
3A9
  8
0
  6
CONTINUOUS
 62
     3
 10
107.4665379813755
 20
77.3015641324443
 30
0.0
 11
109.5017041901824
 21
78.47656501309729
 31
0.0
  0
LINE
  5
3AA
  8
0
  6
CONTINUOUS
 62
     3
 10
109.5016852524978
 20
78.47653317015926
 30
0.0
 11
111.5368387490126
 21
77.30153303903541
 31
0.0
  0
LINE
  5
3AB
  8
0
  6
CONTINUOUS
 62
     3
 10
111.5368668103512
 20
77.3015649276295
 30
0.0
 11
111.5368668103512
 21
74.95156645350841
 31
0.0
  0
LINE
  5
3AC
  8
0
  6
CONTINUOUS
 62
     3
 10
111.5368755602191
 20
74.95157059979289
 30
0.0
 11
109.5017093514122
 21
73.77656964910426
 31
0.0
  0
LINE
  5
3AD
  8
0
  6
CONTINUOUS
 62
     3
 10
109.5016764820449
 20
73.77653414163984
 30
0.0
 11
107.4665224252477
 21
74.95153315219892
 31
0.0
  0
LINE
  5
3AE
  8
0
  6
CONTINUOUS
 62
     3
 10
107.4665543103512
 20
74.95156645350841
 30
0.0
 11
107.4665543103512
 21
77.30157255702403
 31
0.0
  0
LINE
  5
3AF
  8
0
  6
CONTINUOUS
 62
     3
 10
168.0883076290611
 20
77.30151362916428
 30
0.0
 11
170.123473837868
 21
78.47651450981726
 31
0.0
  0
LINE
  5
3B0
  8
0
  6
CONTINUOUS
 62
     3
 10
170.1234456350832
 20
78.47647112206511
 30
0.0
 11
172.1586090424645
 21
77.30146526888171
 31
0.0
  0
LINE
  5
3B1
  8
0
  6
CONTINUOUS
 62
     3
 10
172.1586395764645
 20
77.30151152186778
 30
0.0
 11
172.1586395764645
 21
74.95152067714122
 31
0.0
  0
LINE
  5
3B2
  8
0
  6
CONTINUOUS
 62
     3
 10
172.1586785482097
 20
74.95149599615257
 30
0.0
 11
170.1235123394027
 21
73.77649504546395
 31
0.0
  0
LINE
  5
3B3
  8
0
  6
CONTINUOUS
 62
     3
 10
170.1234420465627
 20
73.77650905405977
 30
0.0
 11
168.0882780788962
 21
74.95151378667293
 31
0.0
  0
LINE
  5
3B4
  8
0
  6
CONTINUOUS
 62
     3
 10
168.0883270764645
 20
74.95152067714122
 30
0.0
 11
168.0883270764645
 21
77.30151915126231
 31
0.0
  0
LINE
  5
3B5
  8
0
  6
CONTINUOUS
 62
     3
 10
105.8125806998674
 20
116.6265384635686
 30
0.0
 11
107.812588806101
 21
120.0906529926111
 31
0.0
  0
LINE
  5
3B6
  8
0
  6
CONTINUOUS
 62
     3
 10
107.812585499316
 20
120.0906503158131
 30
0.0
 11
111.812585499316
 21
120.0906503158131
 31
0.0
  0
LINE
  5
3B7
  8
0
  6
CONTINUOUS
 62
     3
 10
111.8126386171672
 20
120.0906740318897
 30
0.0
 11
113.8126371866557
 21
116.6265715252521
 31
0.0
  0
LINE
  5
3B8
  8
0
  6
CONTINUOUS
 62
     3
 10
113.8125926006161
 20
116.6265069874863
 30
0.0
 11
111.8126054752375
 21
113.1624330556043
 31
0.0
  0
LINE
  5
3B9
  8
0
  6
CONTINUOUS
 62
     3
 10
111.812585499316
 20
113.1624352889576
 30
0.0
 11
107.812585499316
 21
113.1624352889576
 31
0.0
  0
LINE
  5
3BA
  8
0
  6
CONTINUOUS
 62
     3
 10
107.8126331165246
 20
113.1624761920302
 30
0.0
 11
105.812633116525
 21
116.6265798736432
 31
0.0
  0
LINE
  5
3BB
  8
0
  6
CONTINUOUS
 62
     3
 10
129.812585499316
 20
139.1265389876881
 30
0.0
 11
149.812585499316
 21
139.1265389876881
 31
0.0
  0
LINE
  5
3BC
  8
0
  6
CONTINUOUS
 62
     3
 10
146.812585499316
 20
139.1265389876881
 30
0.0
 11
146.812585499316
 21
129.9995248275318
 31
0.0
  0
LINE
  5
3BD
  8
0
  6
CONTINUOUS
 62
     3
 10
132.812585499316
 20
139.1265389876881
 30
0.0
 11
132.812585499316
 21
129.9995248275318
 31
0.0
  0
LINE
  5
3BE
  8
0
  6
CONTINUOUS
 62
     3
 10
122.312585499316
 20
88.62653898768809
 30
0.0
 11
157.312585499316
 21
88.62653898768809
 31
0.0
  0
LINE
  5
3BF
  8
0
  6
CONTINUOUS
 62
     3
 10
122.3125518328007
 20
137.1168823411586
 30
0.0
 11
129.8125672298548
 21
139.1265051954611
 31
0.0
  0
LINE
  5
3C0
  8
0
  6
CONTINUOUS
 62
     3
 10
149.8125729318577
 20
139.1264995012853
 30
0.0
 11
157.3125441123372
 21
137.116888494777
 31
0.0
  0
LINE
  5
3C1
  8
0
  6
CONTINUOUS
 62
     3
 10
146.812585499316
 20
91.12653898768809
 30
0.0
 11
157.312585499316
 21
91.12653898768809
 31
0.0
  0
LINE
  5
3C2
  8
0
  6
CONTINUOUS
 62
     3
 10
122.312585499316
 20
91.12653898768809
 30
0.0
 11
132.812585499316
 21
91.12653898768809
 31
0.0
  0
LINE
  5
3C3
  8
0
  6
CONTINUOUS
 62
     3
 10
132.812585499316
 20
97.12653898768809
 30
0.0
 11
146.812585499316
 21
97.12653898768809
 31
0.0
  0
LINE
  5
3C4
  8
0
  6
CONTINUOUS
 62
     3
 10
132.812585499316
 20
135.1265389876881
 30
0.0
 11
146.812585499316
 21
135.1265389876881
 31
0.0
  0
LINE
  5
3C5
  8
0
  6
CONTINUOUS
 62
     3
 10
139.812578370403
 20
110.8265318217119
 30
0.0
 11
135.7422459527892
 21
108.4765300604059
 31
0.0
  0
LINE
  5
3C6
  8
0
  6
CONTINUOUS
 62
     3
 10
135.742272999316
 20
108.4765374618092
 30
0.0
 11
135.742272999316
 21
103.776540513567
 31
0.0
  0
LINE
  5
3C7
  8
0
  6
CONTINUOUS
 62
     3
 10
135.7422244212868
 20
103.7765258979017
 30
0.0
 11
139.8125391421273
 21
101.4265240620808
 31
0.0
  0
LINE
  5
3C8
  8
0
  6
CONTINUOUS
 62
     3
 10
139.8125826755103
 20
101.4265484090711
 30
0.0
 11
143.8829150931241
 21
103.7765503104484
 31
0.0
  0
LINE
  5
3C9
  8
0
  6
CONTINUOUS
 62
     3
 10
143.882897999316
 20
103.7765328841725
 30
0.0
 11
143.882897999316
 21
108.4765298324147
 31
0.0
  0
LINE
  5
3CA
  8
0
  6
CONTINUOUS
 62
     3
 10
143.8828601424103
 20
108.4764829997276
 30
0.0
 11
139.8125465421364
 21
110.8264870766816
 31
0.0
  0
LINE
  5
3CB
  8
0
  6
CONTINUOUS
 62
     3
 10
139.8125967565264
 20
130.8265364979062
 30
0.0
 11
135.7422643389126
 21
128.4765347366002
 31
0.0
  0
LINE
  5
3CC
  8
0
  6
CONTINUOUS
 62
     3
 10
135.742272999316
 20
128.4765450912037
 30
0.0
 11
135.742272999316
 21
123.7765328841725
 31
0.0
  0
LINE
  5
3CD
  8
0
  6
CONTINUOUS
 62
     3
 10
135.7422415097682
 20
123.7765109403318
 30
0.0
 11
139.8125562306087
 21
121.4265091045109
 31
0.0
  0
LINE
  5
3CE
  8
0
  6
CONTINUOUS
 62
     3
 10
139.8125610034299
 20
121.4265608369606
 30
0.0
 11
143.8828934210437
 21
123.7765627383379
 31
0.0
  0
LINE
  5
3CF
  8
0
  6
CONTINUOUS
 62
     3
 10
143.882897999316
 20
123.7765328841725
 30
0.0
 11
143.882897999316
 21
128.4765298324147
 31
0.0
  0
LINE
  5
3D0
  8
0
  6
CONTINUOUS
 62
     3
 10
143.8828583786491
 20
128.4764328522379
 30
0.0
 11
139.8125480819973
 21
130.8264350218388
 31
0.0
  0
LINE
  5
3D1
  8
0
  6
CONTINUOUS
 62
     3
 10
132.812585499316
 20
122.2535531478443
 30
0.0
 11
132.812585499316
 21
109.9995248275318
 31
0.0
  0
LINE
  5
3D2
  8
0
  6
CONTINUOUS
 62
     3
 10
146.812585499316
 20
122.2535531478443
 30
0.0
 11
146.812585499316
 21
109.9995248275318
 31
0.0
  0
LINE
  5
3D3
  8
0
  6
CONTINUOUS
 62
     3
 10
146.812585499316
 20
102.2535531478443
 30
0.0
 11
146.812585499316
 21
91.12653898768809
 31
0.0
  0
LINE
  5
3D4
  8
0
  6
CONTINUOUS
 62
     3
 10
132.812585499316
 20
102.2535531478443
 30
0.0
 11
132.812585499316
 21
91.12653898768809
 31
0.0
  0
CIRCLE
  5
3D5
  8
0
  6
CONTINUOUS
 62
     3
 10
139.812585499316
 20
6.241540666154895
 30
0.0
 40
8.0
  0
CIRCLE
  5
3D6
  8
0
  6
CONTINUOUS
 62
     3
 10
139.812585499316
 20
6.241540666154895
 30
0.0
 40
8.75
  0
CIRCLE
  5
3D7
  8
0
  6
CONTINUOUS
 62
     3
 10
185.1793304944332
 20
84.81903624110606
 30
0.0
 40
5.5
  0
ARC
  5
3D8
  8
0
  6
CONTINUOUS
 62
     3
 10
139.812585499316
 20
58.6265389876881
 30
0.0
 40
41.5
 50
114.9411417682643
 51
185.0588665799963
  0
CIRCLE
  5
3D9
  8
0
  6
CONTINUOUS
 62
     3
 10
139.812585499316
 20
23.6265389876881
 30
0.0
 40
4.900000095367432
  0
ARC
  5
3DA
  8
0
  6
CONTINUOUS
 62
     3
 10
139.812585499316
 20
58.6265389876881
 30
0.0
 40
41.5
 50
234.9411214292774
 51
305.0589145429012
  0
ARC
  5
3DB
  8
0
  6
CONTINUOUS
 62
     3
 10
139.812585499316
 20
58.6265389876881
 30
0.0
 40
41.5
 50
354.9411730067927
 51
425.0588769010705
  0
CIRCLE
  5
3DC
  8
0
  6
CONTINUOUS
 62
     3
 10
139.812585499316
 20
58.6265389876881
 30
0.0
 40
23.0
  0
ARC
  5
3DD
  8
0
  6
CONTINUOUS
 62
     3
 10
102.1404892468746
 20
36.87652372889904
 30
0.0
 40
10.0
 50
345.5730131803633
 51
434.4270277628766
  0
ARC
  5
3DE
  8
0
  6
CONTINUOUS
 62
     3
 10
177.484704639941
 20
36.87656569056896
 30
0.0
 40
10.0
 50
105.5730318875932
 51
194.426962800289
  0
CIRCLE
  5
3DF
  8
0
  6
CONTINUOUS
 62
     3
 10
139.812585499316
 20
23.6265389876881
 30
0.0
 40
4.25
  0
CIRCLE
  5
3E0
  8
0
  6
CONTINUOUS
 62
     3
 10
198.2693268323238
 20
24.87656950526623
 30
0.0
 40
8.0
  0
CIRCLE
  5
3E1
  8
0
  6
CONTINUOUS
 62
     3
 10
180.948815968066
 20
34.87656569056896
 30
0.0
 40
8.0
  0
ARC
  5
3E2
  8
0
  6
CONTINUOUS
 62
     3
 10
139.812585499316
 20
58.6265389876881
 30
0.0
 40
80.5
 50
342.555881274895
 51
437.4441408853246
  0
CIRCLE
  5
3E3
  8
0
  6
CONTINUOUS
 62
     3
 10
139.812585499316
 20
58.6265389876881
 30
0.0
 40
21.0
  0
CIRCLE
  5
3E4
  8
0
  6
CONTINUOUS
 62
     3
 10
205.042077686816
 20
55.60732817225841
 30
0.0
 40
8.0
  0
CIRCLE
  5
3E5
  8
0
  6
CONTINUOUS
 62
     3
 10
104.5831238293941
 20
3.645765061906849
 30
0.0
 40
8.0
  0
CIRCLE
  5
3E6
  8
0
  6
CONTINUOUS
 62
     3
 10
104.5831238293941
 20
3.645765061906849
 30
0.0
 40
3.299999952316284
  0
CIRCLE
  5
3E7
  8
0
  6
CONTINUOUS
 62
     3
 10
104.5831238293941
 20
3.645765061906849
 30
0.0
 40
0.75
  0
CIRCLE
  5
3E8
  8
0
  6
CONTINUOUS
 62
     3
 10
104.5831238293941
 20
3.645765061906849
 30
0.0
 40
2.400000095367432
  0
CIRCLE
  5
3E9
  8
0
  6
CONTINUOUS
 62
     3
 10
205.042077686816
 20
55.60732817225841
 30
0.0
 40
3.299999952316284
  0
CIRCLE
  5
3EA
  8
0
  6
CONTINUOUS
 62
     3
 10
205.042077686816
 20
55.60732817225841
 30
0.0
 40
0.75
  0
CIRCLE
  5
3EB
  8
0
  6
CONTINUOUS
 62
     3
 10
205.042077686816
 20
55.60732817225841
 30
0.0
 40
2.400000095367432
  0
CIRCLE
  5
3EC
  8
0
  6
CONTINUOUS
 62
     3
 10
170.1234833264645
 20
76.12652372889903
 30
0.0
 40
4.900000095367432
  0
CIRCLE
  5
3ED
  8
0
  6
CONTINUOUS
 62
     3
 10
109.5017105603512
 20
76.12656950526622
 30
0.0
 40
4.900000095367432
  0
CIRCLE
  5
3EE
  8
0
  6
CONTINUOUS
 62
     3
 10
185.1793304944332
 20
84.81903624110606
 30
0.0
 40
8.75
  0
CIRCLE
  5
3EF
  8
0
  6
CONTINUOUS
 62
     3
 10
109.5017105603512
 20
76.12656950526622
 30
0.0
 40
4.25
  0
CIRCLE
  5
3F0
  8
0
  6
CONTINUOUS
 62
     3
 10
170.1234833264645
 20
76.12652372889903
 30
0.0
 40
4.25
  0
CIRCLE
  5
3F1
  8
0
  6
CONTINUOUS
 62
     3
 10
109.812585499316
 20
116.6265389876881
 30
0.0
 40
8.0
  0
CIRCLE
  5
3F2
  8
0
  6
CONTINUOUS
 62
     3
 10
109.812585499316
 20
116.6265389876881
 30
0.0
 40
3.299999952316284
  0
CIRCLE
  5
3F3
  8
0
  6
CONTINUOUS
 62
     3
 10
109.812585499316
 20
116.6265389876881
 30
0.0
 40
0.75
  0
CIRCLE
  5
3F4
  8
0
  6
CONTINUOUS
 62
     3
 10
109.812585499316
 20
116.6265389876881
 30
0.0
 40
2.400000095367432
  0
ARC
  5
3F5
  8
0
  6
CONTINUOUS
 62
     3
 10
139.812585499316
 20
102.1265389876881
 30
0.0
 40
10.0
 50
225.5729705674714
 51
314.4270141782886
  0
CIRCLE
  5
3F6
  8
0
  6
CONTINUOUS
 62
     3
 10
139.812585499316
 20
106.1265389876881
 30
0.0
 40
8.0
  0
CIRCLE
  5
3F7
  8
0
  6
CONTINUOUS
 62
     3
 10
139.812585499316
 20
126.1265389876881
 30
0.0
 40
8.0
  0
LINE
  5
3F8
  8
0
  6
CONTINUOUS
 62
     3
 10
-96.87984308955117
 20
-3.873461012311893
 30
0.0
 11
-96.87984308955117
 21
-23.8734610123119
 31
0.0
  0
LINE
  5
3F9
  8
0
  6
CONTINUOUS
 62
     3
 10
-90.4798491930668
 20
-3.873461012311893
 30
0.0
 11
-90.4798491930668
 21
-23.8734610123119
 31
0.0
  0
LINE
  5
3FA
  8
0
  6
CONTINUOUS
 62
     3
 10
-96.87984308955117
 20
-3.873461012311893
 30
0.0
 11
-90.4798491930668
 21
-3.873461012311893
 31
0.0
  0
LINE
  5
3FB
  8
0
  6
CONTINUOUS
 62
     3
 10
-96.87984932182729
 20
-3.873462429447883
 30
0.0
 11
-93.67985252007924
 21
-2.025943618670155
 31
0.0
  0
LINE
  5
3FC
  8
0
  6
CONTINUOUS
 62
     3
 10
-93.6798489544027
 20
-2.025942167219611
 30
0.0
 11
-90.47985215265464
 21
-3.87346097799734
 31
0.0
  0
LINE
  5
3FD
  8
0
  6
CONTINUOUS
 62
     4
 10
-158.6798614000981
 20
1.941541429094349
 30
0.0
 11
-126.6798614000981
 21
1.941541429094349
 31
0.0
  0
LINE
  5
3FE
  8
0
  6
CONTINUOUS
 62
     4
 10
-158.6798614000981
 20
10.54153990321544
 30
0.0
 11
-126.6798614000981
 21
10.54153990321544
 31
0.0
  0
LINE
  5
3FF
  8
0
  6
CONTINUOUS
 62
     4
 10
-121.4857238268559
 20
83.62653898768809
 30
0.0
 11
-104.5517638659184
 21
83.62653898768809
 31
0.0
  0
LINE
  5
400
  8
0
  6
CONTINUOUS
 62
     4
 10
-121.4857390856449
 20
33.6265389876881
 30
0.0
 11
-104.5517638659184
 21
33.6265389876881
 31
0.0
  0
LINE
  5
401
  8
0
  6
CONTINUOUS
 62
     4
 10
-45.67986140009806
 20
139.1265389876881
 30
0.0
 11
-45.67986140009806
 21
135.1265389876881
 31
0.0
  0
LINE
  5
402
  8
0
  6
CONTINUOUS
 62
     4
 10
-46.67986140009806
 20
139.1265389876881
 30
0.0
 11
-46.67986140009806
 21
135.1265389876881
 31
0.0
  0
LINE
  5
403
  8
0
  6
CONTINUOUS
 62
     4
 10
-45.67986140009806
 20
97.12653898768809
 30
0.0
 11
-45.67986140009806
 21
91.12653898768809
 31
0.0
  0
LINE
  5
404
  8
0
  6
CONTINUOUS
 62
     4
 10
-46.67986140009806
 20
97.12653898768809
 30
0.0
 11
-46.67986140009806
 21
91.12653898768809
 31
0.0
  0
LINE
  5
405
  8
0
  6
CONTINUOUS
 62
     4
 10
-59.67986140009806
 20
102.1265389876881
 30
0.0
 11
-38.67986140009806
 21
102.1265389876881
 31
0.0
  0
LINE
  5
406
  8
0
  6
CONTINUOUS
 62
     4
 10
-59.67986140009806
 20
110.1265389876881
 30
0.0
 11
-38.67986140009806
 21
110.1265389876881
 31
0.0
  0
LINE
  5
407
  8
0
  6
CONTINUOUS
 62
     4
 10
-59.67986140009806
 20
130.1265389876881
 30
0.0
 11
-38.67986140009806
 21
130.1265389876881
 31
0.0
  0
LINE
  5
408
  8
0
  6
CONTINUOUS
 62
     4
 10
-59.67986140009806
 20
122.1265389876881
 30
0.0
 11
-38.67986140009806
 21
122.1265389876881
 31
0.0
  0
LINE
  5
409
  8
0
  6
CONTINUOUS
 62
     4
 10
-69.67986140009806
 20
25.6265389876881
 30
0.0
 11
-54.67986140009806
 21
25.6265389876881
 31
0.0
  0
LINE
  5
40A
  8
0
  6
CONTINUOUS
 62
     4
 10
-69.67986140009806
 20
21.6265389876881
 30
0.0
 11
-54.67986140009806
 21
21.6265389876881
 31
0.0
  0
CIRCLE
  5
40B
  8
0
  6
CONTINUOUS
 62
     4
 10
148.8712555432613
 20
24.81913542323498
 30
0.0
 40
2.5
  0
CIRCLE
  5
40C
  8
0
  6
CONTINUOUS
 62
     4
 10
106.0051819348629
 20
67.68520903163341
 30
0.0
 40
2.5
  0
CIRCLE
  5
40D
  8
0
  6
CONTINUOUS
 62
     4
 10
164.5613190198238
 20
83.37527250819591
 30
0.0
 40
2.5
  0
LINE
  5
40E
  8
0
  6
CONTINUOUS
 62
     4
 10
-97.67984614130899
 20
-7.873461012311893
 30
0.0
 11
-97.67984614130899
 21
-23.8734610123119
 31
0.0
  0
LINE
  5
40F
  8
0
  6
CONTINUOUS
 62
     4
 10
-89.67984614130899
 20
-7.873461012311893
 30
0.0
 11
-89.67984614130899
 21
-23.8734610123119
 31
0.0
  0
LINE
  5
410
  8
0
  6
CONTINUOUS
 62
     4
 10
-143.6798614000981
 20
-13.8734610123119
 30
0.0
 11
-142.6798614000981
 21
-13.8734610123119
 31
0.0
  0
LINE
  5
411
  8
0
  6
CONTINUOUS
 62
     4
 10
-143.6798614000981
 20
131.1265389876881
 30
0.0
 11
-142.6798614000981
 21
131.1265389876881
 31
0.0
  0
LINE
  5
412
  8
0
  6
CONTINUOUS
 62
     3
 10
-158.679846141309
 20
11.2415406661549
 30
0.0
 11
-158.679846141309
 21
1.241540666154895
 31
0.0
  0
LINE
  5
413
  8
0
  6
CONTINUOUS
 62
     3
 10
-44.67986140009806
 20
135.1265389876881
 30
0.0
 11
-44.67986140009806
 21
131.1265389876881
 31
0.0
  0
LINE
  5
414
  8
0
  6
CONTINUOUS
 62
     3
 10
-38.67986140009806
 20
114.1265389876881
 30
0.0
 11
-38.67986140009806
 21
98.12653898768809
 31
0.0
  0
LINE
  5
415
  8
0
  6
CONTINUOUS
 62
     3
 10
-38.67986140009806
 20
134.1265389876881
 30
0.0
 11
-38.67986140009806
 21
118.1265389876881
 31
0.0
  0
LINE
  5
416
  8
0
  6
CONTINUOUS
 62
     3
 10
-28.67986140009806
 20
134.1265389876881
 30
0.0
 11
-28.67986140009806
 21
118.1265389876881
 31
0.0
  0
LINE
  5
417
  8
0
  6
CONTINUOUS
 62
     3
 10
-28.67986140009806
 20
114.1265389876881
 30
0.0
 11
-28.67986140009806
 21
98.12653898768809
 31
0.0
  0
LINE
  5
418
  8
0
  6
CONTINUOUS
 62
     3
 10
-38.67986140009806
 20
98.12653898768809
 30
0.0
 11
-28.67986140009806
 21
98.12653898768809
 31
0.0
  0
LINE
  5
419
  8
0
  6
CONTINUOUS
 62
     3
 10
-38.67986140009806
 20
114.1265389876881
 30
0.0
 11
-28.67986140009806
 21
114.1265389876881
 31
0.0
  0
LINE
  5
41A
  8
0
  6
CONTINUOUS
 62
     3
 10
-38.67986140009806
 20
118.1265389876881
 30
0.0
 11
-28.67986140009806
 21
118.1265389876881
 31
0.0
  0
LINE
  5
41B
  8
0
  6
CONTINUOUS
 62
     3
 10
-38.67986140009806
 20
134.1265389876881
 30
0.0
 11
-28.67986140009806
 21
134.1265389876881
 31
0.0
  0
LINE
  5
41C
  8
0
  6
CONTINUOUS
 62
     3
 10
-44.67986140009806
 20
101.1265389876881
 30
0.0
 11
-44.67986140009806
 21
97.12653898768809
 31
0.0
  0
LINE
  5
41D
  8
0
  6
CONTINUOUS
 62
     3
 10
-44.67986140009806
 20
121.1265389876881
 30
0.0
 11
-44.67986140009806
 21
111.1265389876881
 31
0.0
  0
CIRCLE
  5
41E
  8
0
  6
CONTINUOUS
 62
     3
 10
139.812585499316
 20
58.6265389876881
 30
0.0
 40
82.5
  0
LINE
  5
41F
  8
0
  6
CONTINUOUS
 62
     3
 10
-72.67986140009806
 20
25.6265389876881
 30
0.0
 11
-69.67986140009806
 21
25.6265389876881
 31
0.0
  0
LINE
  5
420
  8
0
  6
CONTINUOUS
 62
     3
 10
-72.67986140009806
 20
21.6265389876881
 30
0.0
 11
-69.67986140009806
 21
21.6265389876881
 31
0.0
  0
LINE
  5
421
  8
0
  6
CENTER
 62
     3
 10
-77.08103022334025
 20
23.6265389876881
 30
0.0
 11
-43.48771509882853
 21
23.6265389876881
 31
0.0
  0
LINE
  5
422
  8
0
  6
CONTINUOUS
 62
     3
 10
-69.67986140009806
 20
26.1265389876881
 30
0.0
 11
-69.67986140009806
 21
21.1265389876881
 31
0.0
  0
LINE
  5
423
  8
0
  6
CONTINUOUS
 62
     3
 10
-69.67986140009806
 20
26.1265389876881
 30
0.0
 11
-54.67986140009806
 21
26.1265389876881
 31
0.0
  0
LINE
  5
424
  8
0
  6
CONTINUOUS
 62
     3
 10
-69.67986140009806
 20
21.1265389876881
 30
0.0
 11
-54.67986140009806
 21
21.1265389876881
 31
0.0
  0
CIRCLE
  5
425
  8
0
  6
CONTINUOUS
 62
     3
 10
148.8712555432613
 20
24.81913542323498
 30
0.0
 40
2.0
  0
CIRCLE
  5
426
  8
0
  6
CONTINUOUS
 62
     3
 10
164.5613190198238
 20
83.37527250819591
 30
0.0
 40
2.0
  0
CIRCLE
  5
427
  8
0
  6
CONTINUOUS
 62
     3
 10
106.0051819348629
 20
67.68520903163341
 30
0.0
 40
2.0
  0
LINE
  5
428
  8
0
  6
CONTINUOUS
 62
     3
 10
-97.67984614130899
 20
-7.873461012311893
 30
0.0
 11
-89.67984614130899
 21
-7.873461012311893
 31
0.0
  0
ARC
  5
429
  8
0
  6
CONTINUOUS
 62
     4
 10
139.812585499316
 20
58.6265389876881
 30
0.0
 40
51.0
 50
161.2760932484986
 51
188.1270695174361
  0
LINE
  5
42A
  8
0
  6
CONTINUOUS
 62
     4
 10
161.0074997061817
 20
27.33712740694552
 30
0.0
 11
165.2575002128211
 21
34.69834320699244
 31
0.0
  0
LINE
  5
42B
  8
0
  6
CONTINUOUS
 62
     4
 10
173.2575011664954
 20
48.55474941884547
 30
0.0
 11
177.5075016731349
 21
55.91596521889239
 31
0.0
  0
LINE
  5
42C
  8
0
  6
CONTINUOUS
 62
     4
 10
212.2286512667275
 20
26.05475995113518
 30
0.0
 11
214.3063187507329
 21
29.65338510108774
 31
0.0
  0
LINE
  5
42D
  8
0
  6
CONTINUOUS
 62
     4
 10
202.1713876471541
 20
8.635070766161396
 30
0.0
 11
204.2286541277509
 21
12.19836034653151
 31
0.0
  0
LINE
  5
42E
  8
0
  6
CONTINUOUS
 62
     4
 10
162.3065416032406
 20
26.58713392478791
 30
0.0
 11
166.5565421098801
 21
33.94834972483483
 31
0.0
  0
LINE
  5
42F
  8
0
  6
CONTINUOUS
 62
     4
 10
163.6055758709041
 20
25.83712722813159
 30
0.0
 11
167.8555763775436
 21
33.19834302817851
 31
0.0
  0
LINE
  5
430
  8
0
  6
CONTINUOUS
 62
     4
 10
164.9046347971595
 20
25.0871327238279
 30
0.0
 11
169.154635303799
 21
32.44834852387482
 31
0.0
  0
LINE
  5
431
  8
0
  6
CONTINUOUS
 62
     4
 10
166.2036652501253
 20
24.33711941992221
 30
0.0
 11
170.4536657567647
 21
31.69833521996913
 31
0.0
  0
LINE
  5
432
  8
0
  6
CONTINUOUS
 62
     4
 10
167.5026977473832
 20
23.58714017440941
 30
0.0
 11
171.7526982540227
 21
30.94835597445633
 31
0.0
  0
LINE
  5
433
  8
0
  6
CONTINUOUS
 62
     4
 10
174.5565392488567
 20
47.8047493294385
 30
0.0
 11
178.8065473848916
 21
55.16597834398414
 31
0.0
  0
LINE
  5
434
  8
0
  6
CONTINUOUS
 62
     4
 10
175.8555773312179
 20
47.05474924003153
 30
0.0
 11
180.1055854672528
 21
54.41597825457718
 31
0.0
  0
LINE
  5
435
  8
0
  6
CONTINUOUS
 62
     4
 10
177.1546362574733
 20
46.30475473572785
 30
0.0
 11
181.4046367641128
 21
53.66597053577477
 31
0.0
  0
LINE
  5
436
  8
0
  6
CONTINUOUS
 62
     4
 10
178.4536667104391
 20
45.55474143182216
 30
0.0
 11
182.7036672170785
 21
52.91595723186908
 31
0.0
  0
LINE
  5
437
  8
0
  6
CONTINUOUS
 62
     4
 10
179.752699207697
 20
44.80476218630935
 30
0.0
 11
184.0026997143365
 21
52.16597798635628
 31
0.0
  0
LINE
  5
438
  8
0
  6
CONTINUOUS
 62
     4
 10
210.9296340282605
 20
26.80476562564542
 30
0.0
 11
215.1796269055045
 21
34.16596821119362
 31
0.0
  0
LINE
  5
439
  8
0
  6
CONTINUOUS
 62
     4
 10
209.6305674726096
 20
27.55474691545039
 30
0.0
 11
213.8805756086446
 21
34.91597592999603
 31
0.0
  0
LINE
  5
43A
  8
0
  6
CONTINUOUS
 62
     4
 10
208.3315161757497
 20
28.3047546342528
 30
0.0
 11
212.5815243117846
 21
35.66598364879844
 31
0.0
  0
LINE
  5
43B
  8
0
  6
CONTINUOUS
 62
     4
 10
207.0324989372826
 20
29.05476030876304
 30
0.0
 11
211.2824994439221
 21
36.41597610880996
 31
0.0
  0
LINE
  5
43C
  8
0
  6
CONTINUOUS
 62
     4
 10
205.7334816988156
 20
29.80476598327329
 30
0.0
 11
209.9834745760596
 21
37.16596856882149
 31
0.0
  0
LINE
  5
43D
  8
0
  6
CONTINUOUS
 62
     4
 10
198.679628753249
 20
5.587137006496112
 30
0.0
 11
202.9296292598884
 21
12.94835280654303
 31
0.0
  0
LINE
  5
43E
  8
0
  6
CONTINUOUS
 62
     4
 10
197.3805698269936
 20
6.337131510799798
 30
0.0
 11
201.6305703336331
 21
13.69834731084672
 31
0.0
  0
LINE
  5
43F
  8
0
  6
CONTINUOUS
 62
     4
 10
196.0815223448313
 20
7.087145836851567
 30
0.0
 11
200.3315228514708
 21
14.44836163689849
 31
0.0
  0
LINE
  5
440
  8
0
  6
CONTINUOUS
 62
     4
 10
194.7825012916666
 20
7.837144904112455
 30
0.0
 11
199.032501798306
 21
15.19836070415938
 31
0.0
  0
LINE
  5
441
  8
0
  6
CONTINUOUS
 62
     4
 10
193.4834764238041
 20
8.587137364123981
 30
0.0
 11
197.7334769304435
 21
15.9483531641709
 31
0.0
  0
LINE
  5
442
  8
0
  6
CONTINUOUS
 62
     4
 10
147.812585499316
 20
92.62653898768809
 30
0.0
 11
156.312585499316
 21
92.62653898768809
 31
0.0
  0
LINE
  5
443
  8
0
  6
CONTINUOUS
 62
     4
 10
123.312585499316
 20
92.62653898768809
 30
0.0
 11
131.812585499316
 21
92.62653898768809
 31
0.0
  0
LINE
  5
444
  8
0
  6
CONTINUOUS
 62
     4
 10
147.812585499316
 20
137.6265389876881
 30
0.0
 11
152.357003834277
 21
137.6265389876881
 31
0.0
  0
LINE
  5
445
  8
0
  6
CONTINUOUS
 62
     4
 10
127.1570068860348
 20
137.6265389876881
 30
0.0
 11
131.812585499316
 21
137.6265389876881
 31
0.0
  0
LINE
  5
446
  8
0
  6
CONTINUOUS
 62
     4
 10
123.312585499316
 20
94.12653898768809
 30
0.0
 11
131.812585499316
 21
94.12653898768809
 31
0.0
  0
LINE
  5
447
  8
0
  6
CONTINUOUS
 62
     4
 10
123.312585499316
 20
95.62653898768809
 30
0.0
 11
131.812585499316
 21
95.62653898768809
 31
0.0
  0
LINE
  5
448
  8
0
  6
CONTINUOUS
 62
     4
 10
123.312585499316
 20
97.12653898768809
 30
0.0
 11
131.812585499316
 21
97.12653898768809
 31
0.0
  0
LINE
  5
449
  8
0
  6
CONTINUOUS
 62
     4
 10
123.312585499316
 20
98.62653898768809
 30
0.0
 11
131.812585499316
 21
98.62653898768809
 31
0.0
  0
LINE
  5
44A
  8
0
  6
CONTINUOUS
 62
     4
 10
123.312585499316
 20
100.1265389876881
 30
0.0
 11
131.812585499316
 21
100.1265389876881
 31
0.0
  0
LINE
  5
44B
  8
0
  6
CONTINUOUS
 62
     4
 10
147.812585499316
 20
94.12653898768809
 30
0.0
 11
156.312585499316
 21
94.12653898768809
 31
0.0
  0
LINE
  5
44C
  8
0
  6
CONTINUOUS
 62
     4
 10
147.812585499316
 20
95.62653898768809
 30
0.0
 11
156.312585499316
 21
95.62653898768809
 31
0.0
  0
LINE
  5
44D
  8
0
  6
CONTINUOUS
 62
     4
 10
147.812585499316
 20
97.12653898768809
 30
0.0
 11
156.312585499316
 21
97.12653898768809
 31
0.0
  0
LINE
  5
44E
  8
0
  6
CONTINUOUS
 62
     4
 10
147.812585499316
 20
98.62653898768809
 30
0.0
 11
156.312585499316
 21
98.62653898768809
 31
0.0
  0
LINE
  5
44F
  8
0
  6
CONTINUOUS
 62
     4
 10
147.812585499316
 20
100.1265389876881
 30
0.0
 11
156.312585499316
 21
100.1265389876881
 31
0.0
  0
LINE
  5
450
  8
0
  6
CONTINUOUS
 62
     4
 10
147.812585499316
 20
136.1265389876881
 30
0.0
 11
156.312585499316
 21
136.1265389876881
 31
0.0
  0
LINE
  5
451
  8
0
  6
CONTINUOUS
 62
     4
 10
147.812585499316
 20
134.6265389876881
 30
0.0
 11
156.312585499316
 21
134.6265389876881
 31
0.0
  0
LINE
  5
452
  8
0
  6
CONTINUOUS
 62
     4
 10
147.812585499316
 20
133.1265389876881
 30
0.0
 11
156.312585499316
 21
133.1265389876881
 31
0.0
  0
LINE
  5
453
  8
0
  6
CONTINUOUS
 62
     4
 10
147.812585499316
 20
131.6265389876881
 30
0.0
 11
156.312585499316
 21
131.6265389876881
 31
0.0
  0
LINE
  5
454
  8
0
  6
CONTINUOUS
 62
     4
 10
147.812585499316
 20
130.1265389876881
 30
0.0
 11
156.312585499316
 21
130.1265389876881
 31
0.0
  0
LINE
  5
455
  8
0
  6
CONTINUOUS
 62
     4
 10
123.312585499316
 20
136.1265389876881
 30
0.0
 11
131.812585499316
 21
136.1265389876881
 31
0.0
  0
LINE
  5
456
  8
0
  6
CONTINUOUS
 62
     4
 10
123.312585499316
 20
134.6265389876881
 30
0.0
 11
131.812585499316
 21
134.6265389876881
 31
0.0
  0
LINE
  5
457
  8
0
  6
CONTINUOUS
 62
     4
 10
123.312585499316
 20
133.1265389876881
 30
0.0
 11
131.812585499316
 21
133.1265389876881
 31
0.0
  0
LINE
  5
458
  8
0
  6
CONTINUOUS
 62
     4
 10
123.312585499316
 20
131.6265389876881
 30
0.0
 11
131.812585499316
 21
131.6265389876881
 31
0.0
  0
LINE
  5
459
  8
0
  6
CONTINUOUS
 62
     4
 10
123.312585499316
 20
130.1265389876881
 30
0.0
 11
131.812585499316
 21
130.1265389876881
 31
0.0
  0
ARC
  5
45A
  8
0
  6
CONTINUOUS
 62
     4
 10
139.812585499316
 20
58.6265389876881
 30
0.0
 40
45.0
 50
158.3956112302074
 51
185.0250161624697
  0
ARC
  5
45B
  8
0
  6
CONTINUOUS
 62
     4
 10
139.812585499316
 20
58.6265389876881
 30
0.0
 40
51.0
 50
111.8729251704461
 51
138.723956080897
  0
ARC
  5
45C
  8
0
  6
CONTINUOUS
 62
     4
 10
139.812585499316
 20
58.6265389876881
 30
0.0
 40
45.0
 50
114.9749785254125
 51
141.6044244388098
  0
ARC
  5
45D
  8
0
  6
CONTINUOUS
 62
     4
 10
139.812585499316
 20
58.6265389876881
 30
0.0
 40
45.0
 50
38.39559081543028
 51
65.0250401439222
  0
ARC
  5
45E
  8
0
  6
CONTINUOUS
 62
     4
 10
139.812585499316
 20
58.6265389876881
 30
0.0
 40
51.0
 50
41.27605575824849
 51
68.12709349888854
  0
ARC
  5
45F
  8
0
  6
CONTINUOUS
 62
     4
 10
139.812585499316
 20
58.6265389876881
 30
0.0
 40
45.0
 50
354.9750089101673
 51
381.6044040240327
  0
ARC
  5
460
  8
0
  6
CONTINUOUS
 62
     4
 10
139.812585499316
 20
58.6265389876881
 30
0.0
 40
51.0
 50
351.8729440292567
 51
378.7239271283834
  0
ARC
  5
461
  8
0
  6
CONTINUOUS
 62
     4
 10
139.812585499316
 20
58.6265389876881
 30
0.0
 40
45.0
 50
234.9749581864257
 51
261.6043904394447
  0
ARC
  5
462
  8
0
  6
CONTINUOUS
 62
     4
 10
139.812585499316
 20
58.6265389876881
 30
0.0
 40
51.0
 50
231.8729048314594
 51
258.7239084211536
  0
ARC
  5
463
  8
0
  6
CONTINUOUS
 62
     4
 10
139.812585499316
 20
58.6265389876881
 30
0.0
 40
45.0
 50
278.3955908912207
 51
305.0250812008476
  0
ARC
  5
464
  8
0
  6
CONTINUOUS
 62
     4
 10
139.812585499316
 20
58.6265389876881
 30
0.0
 40
51.0
 50
281.2760729095118
 51
308.1271379709085
  0
TEXT
  5
465
  8
0
 62
     7
 10
-199.4859679674809
 20
-3.555991987653691
 30
0.0
 40
4.0
  1
7ﾟ7′30″
 50
90.0
 41
0.7567567567567569
  7
FDASTYLE1
 72
     5
 11
-199.4859679674809
 21
18.84400801234632
 31
0.0
  0
TEXT
  5
466
  8
0
 62
     7
 10
-140.0053569248446
 20
-58.57001289416878
 30
0.0
 40
4.0
  1
MIN15
 41
0.8
  7
FDASTYLE1
 72
     5
 11
-124.0053569248446
 21
-58.57001289416878
 31
0.0
  0
TEXT
  5
467
  8
0
 62
     7
 10
9.704057012355163
 20
63.7436768834878
 30
0.0
 40
4.0
  1
MIN30.9
 50
90.0
 41
0.7999999999999999
  7
FDASTYLE1
 72
     5
 11
9.704057012355163
 21
86.1436768834878
 31
0.0
  0
TEXT
  5
468
  8
0
 62
     7
 10
-13.72656284081486
 20
94.18952725792136
 30
0.0
 40
4.0
  1
MIN
 50
90.0
 41
0.7999999999999995
  7
FDASTYLE1
 72
     5
 11
-13.72656284081486
 21
103.7895272579214
 31
0.0
  0
ARC
  5
469
  8
LAYER0014
  6
CONTINUOUS
 62
     7
 10
-142.679846141309
 20
17.34503721766857
 30
0.0
 40
53.80963897705078
 50
187.1249988039251
 51
193.8863933574779
  0
INSERT
  5
46A
  8
LAYER0014
 62
     7
  2
_OPEN30
 10
-196.0739624959607
 20
10.67078927902733
 30
0.0
 41
1.50000139391263
 42
1.499998500689492
 50
97.92358935075212
  0
LINE
  5
46B
  8
LAYER0014
  6
CONTINUOUS
 62
     7
 10
-143.679846141309
 20
-65.79985261387441
 30
0.0
 11
-150.029846141309
 21
-65.79985261387441
 31
0.0
  0
INSERT
  5
46C
  8
LAYER0014
 62
     7
  2
_OPEN30
 10
-143.679846141309
 20
-65.79985261387441
 30
0.0
 41
1.50000139391263
 42
1.499998500689492
 50
360.0
  0
LINE
  5
46D
  8
LAYER0014
  6
CONTINUOUS
 62
     7
 10
-104.6857360338871
 20
44.40020155482677
 30
0.0
 11
-111.0357360338871
 21
44.40020155482677
 31
0.0
  0
INSERT
  5
46E
  8
LAYER0014
 62
     7
  2
_OPEN30
 10
-104.6857360338871
 20
44.40020155482677
 30
0.0
 41
1.50000139391263
 42
1.499998500689492
 50
360.0
  0
LINE
  5
46F
  8
LAYER0014
  6
CONTINUOUS
 62
     7
 10
-45.49599301047773
 20
136.957721966312
 30
0.0
 11
-13.24599660101366
 21
169.2077346866091
 31
0.0
  0
INSERT
  5
470
  8
LAYER0014
 62
     7
  2
_OPEN30
 10
-45.49599301047773
 20
136.957721966312
 30
0.0
 41
1.50000139391263
 42
1.499998500689492
 50
225.0000144890195
  0
LINE
  5
471
  8
LAYER0014
  6
CONTINUOUS
 62
     7
 10
-33.8846973569447
 20
130.8378931407556
 30
0.0
 11
-10.78030721167706
 21
154.5127742993378
 31
0.0
  0
INSERT
  5
472
  8
LAYER0014
 62
     7
  2
_OPEN30
 10
-33.8846973569447
 20
130.8378931407556
 30
0.0
 41
1.50000139391263
 42
1.499998500689492
 50
225.6987091948423
  0
ARC
  5
473
  8
LAYER0014
  6
CONTINUOUS
 62
     7
 10
-142.679846141309
 20
17.34503721766857
 30
0.0
 40
53.80963897705078
 50
179.9999776881997
 51
187.1249988039251
  0
LINE
  5
474
  8
LAYER0014
  6
CONTINUOUS
 62
     7
 10
-145.2002022917034
 20
17.02998043638123
 30
0.0
 11
-198.3422834944027
 21
10.38723026155953
 31
0.0
  0
LINE
  5
475
  8
LAYER0014
  6
CONTINUOUS
 62
     7
 10
-143.679846141309
 20
-65.79985261387441
 30
0.0
 11
-151.6925109362309
 21
-65.79985261387441
 31
0.0
  0
LINE
  5
476
  8
LAYER0014
  6
CONTINUOUS
 62
     7
 10
-143.679846141309
 20
-65.79985261387441
 30
0.0
 11
-142.679846141309
 21
-65.79985261387441
 31
0.0
  0
LINE
  5
477
  8
LAYER0014
  6
CONTINUOUS
 62
     7
 10
-142.679846141309
 20
-16.4134610123119
 30
0.0
 11
-142.679846141309
 21
-68.08585572666738
 31
0.0
  0
LINE
  5
478
  8
LAYER0014
  6
CONTINUOUS
 62
     7
 10
-104.6857360338871
 20
44.40020155482677
 30
0.0
 11
-101.6857360338871
 21
44.40020155482677
 31
0.0
  0
LINE
  5
479
  8
LAYER0014
  6
CONTINUOUS
 62
     7
 10
-13.2459968065922
 20
169.2077462630787
 30
0.0
 11
33.38367238286092
 21
169.2077462630787
 31
0.0
  0
LINE
  5
47A
  8
LAYER0014
  6
CONTINUOUS
 62
     7
 10
-10.78030810114787
 20
154.5127694564381
 30
0.0
 11
0.6493616664703126
 21
154.5127694564381
 31
0.0
  0
LINE
  5
47B
  8
LAYER0014
  6
CONTINUOUS
 62
     7
 10
-136.329846141309
 20
-65.79985261387441
 30
0.0
 11
-142.679846141309
 21
-65.79985261387441
 31
0.0
  0
INSERT
  5
47C
  8
LAYER0014
 62
     7
  2
_OPEN30
 10
-142.679846141309
 20
-65.79985261387441
 30
0.0
 41
1.50000139391263
 42
1.499998500689492
 50
180.0
  0
TEXT
  5
47D
  8
LAYER0014
 62
     7
 10
-150.8566572461807
 20
-64.82265860474311
 30
0.0
 40
4.0
  1
1
 50
-0.1000000000000078
 41
0.8000000000000025
  7
FDASTYLE1
 72
     5
 11
-147.6566621200581
 21
-64.82824365551399
 31
0.0
  0
TEXT
  5
47E
  8
LAYER0014
 62
     7
 10
-104.8211778500514
 20
44.80392571528721
 30
0.0
 40
4.0
  1
3
 41
0.7999999999999972
  7
FDASTYLE1
 72
     5
 11
-101.6211778500514
 21
44.80392571528721
 31
0.0
  0
TEXT
  5
47F
  8
LAYER0014
 62
     7
 10
-12.56449015775822
 20
169.8489194553971
 30
0.0
 40
4.0
  1
ｾﾚｰｼｮﾝP1.5山60ﾟ
 41
0.7887323943661971
  7
FDASTYLE1
 72
     5
 11
32.23550984224178
 21
169.8489194553971
 31
0.0
  0
TEXT
  5
480
  8
LAYER0014
 62
     7
 10
-9.924589488476968
 20
154.879992132276
 30
0.0
 40
4.0
  1
M10
 41
0.8000000000000002
  7
FDASTYLE1
 72
     5
 11
-0.3245894884769669
 21
154.879992132276
 31
0.0
  0
LINE
  5
481
  8
LAYER0014
  6
CONTINUOUS
 62
     3
 10
-95.33573603388713
 20
44.40020155482677
 30
0.0
 11
-101.6857360338871
 21
44.40020155482677
 31
0.0
  0
INSERT
  5
482
  8
LAYER0014
 62
     3
  2
_OPEN30
 10
-101.6857360338871
 20
44.40020155482677
 30
0.0
 41
1.50000139391263
 42
1.499998500689492
 50
180.0
  0
INSERT
  5
483
  8
LAYER0014
  6
CONTINUOUS
  2
DA_IMAGEDIMGROUP_1
 10
0.0
 20
0.0
 30
0.0
  0
INSERT
  5
484
  8
LAYER0014
  6
CONTINUOUS
  2
DA_IMAGEDIMGROUP_2
 10
0.0
 20
0.0
 30
0.0
  0
INSERT
  5
485
  8
LAYER0014
  6
CONTINUOUS
  2
DA_IMAGEDIMGROUP_3
 10
0.0
 20
0.0
 30
0.0
  0
INSERT
  5
486
  8
LAYER0014
  6
CONTINUOUS
  2
DC_GROUP_1
 10
0.0
 20
0.0
 30
0.0
  0
INSERT
  5
487
  8
LAYER0014
  6
CONTINUOUS
  2
DA_IMAGEDIMGROUP_4
 10
0.0
 20
0.0
 30
0.0
  0
INSERT
  5
488
  8
LAYER0014
  6
CONTINUOUS
  2
DA_IMAGEDIMGROUP_5
 10
0.0
 20
0.0
 30
0.0
  0
INSERT
  5
489
  8
LAYER0014
  6
CONTINUOUS
  2
DA_IMAGEDIMGROUP_6
 10
0.0
 20
0.0
 30
0.0
  0
INSERT
  5
48A
  8
LAYER0014
  6
CONTINUOUS
  2
DA_IMAGEDIMGROUP_7
 10
0.0
 20
0.0
 30
0.0
  0
INSERT
  5
48B
  8
LAYER0014
  6
CONTINUOUS
  2
DA_IMAGEDIMGROUP_8
 10
0.0
 20
0.0
 30
0.0
  0
INSERT
  5
48C
  8
LAYER0014
  6
CONTINUOUS
  2
DA_IMAGEDIMGROUP_9
 10
0.0
 20
0.0
 30
0.0
  0
INSERT
  5
48D
  8
LAYER0014
  6
CONTINUOUS
  2
DA_IMAGEDIMGROUP_10
 10
0.0
 20
0.0
 30
0.0
  0
INSERT
  5
48E
  8
LAYER0014
  6
CONTINUOUS
  2
DA_IMAGEDIMGROUP_11
 10
0.0
 20
0.0
 30
0.0
  0
INSERT
  5
48F
  8
LAYER0014
  6
CONTINUOUS
  2
DA_IMAGEDIMGROUP_12
 10
0.0
 20
0.0
 30
0.0
  0
INSERT
  5
490
  8
LAYER0014
  6
CONTINUOUS
  2
DA_IMAGEDIMGROUP_13
 10
0.0
 20
0.0
 30
0.0
  0
INSERT
  5
491
  8
LAYER0014
  6
CONTINUOUS
  2
DA_IMAGEDIMGROUP_14
 10
0.0
 20
0.0
 30
0.0
  0
INSERT
  5
492
  8
LAYER0014
  6
CONTINUOUS
  2
DA_IMAGEDIMGROUP_15
 10
0.0
 20
0.0
 30
0.0
  0
INSERT
  5
493
  8
LAYER0014
  6
CONTINUOUS
  2
DA_IMAGEDIMGROUP_16
 10
0.0
 20
0.0
 30
0.0
  0
INSERT
  5
494
  8
LAYER0014
  6
CONTINUOUS
  2
DA_IMAGEDIMGROUP_17
 10
0.0
 20
0.0
 30
0.0
  0
INSERT
  5
495
  8
LAYER0014
  6
CONTINUOUS
  2
DA_IMAGEDIMGROUP_18
 10
0.0
 20
0.0
 30
0.0
  0
INSERT
  5
496
  8
LAYER0014
  6
CONTINUOUS
  2
DA_IMAGEDIMGROUP_19
 10
0.0
 20
0.0
 30
0.0
  0
INSERT
  5
497
  8
LAYER0014
  6
CONTINUOUS
  2
DA_IMAGEDIMGROUP_20
 10
0.0
 20
0.0
 30
0.0
  0
INSERT
  5
498
  8
LAYER0014
  6
CONTINUOUS
  2
DA_IMAGEDIMGROUP_21
 10
0.0
 20
0.0
 30
0.0
  0
INSERT
  5
499
  8
LAYER0014
  6
CONTINUOUS
  2
DA_IMAGEDIMGROUP_22
 10
0.0
 20
0.0
 30
0.0
  0
INSERT
  5
49A
  8
LAYER0014
  6
CONTINUOUS
  2
DA_IMAGEDIMGROUP_23
 10
0.0
 20
0.0
 30
0.0
  0
INSERT
  5
49B
  8
LAYER0014
  6
CONTINUOUS
  2
DA_IMAGEDIMGROUP_29
 10
0.0
 20
0.0
 30
0.0
  0
INSERT
  5
49C
  8
LAYER0014
  6
CONTINUOUS
  2
DA_IMAGEDIMGROUP_30
 10
0.0
 20
0.0
 30
0.0
  0
INSERT
  5
49D
  8
LAYER0014
  6
CONTINUOUS
  2
DA_IMAGEDIMGROUP_31
 10
0.0
 20
0.0
 30
0.0
  0
INSERT
  5
49E
  8
LAYER0014
  6
CONTINUOUS
  2
DA_IMAGEDIMGROUP_32
 10
0.0
 20
0.0
 30
0.0
  0
INSERT
  5
49F
  8
LAYER0014
  6
CONTINUOUS
  2
DC_GROUP_2
 10
0.0
 20
0.0
 30
0.0
  0
INSERT
  5
4A0
  8
LAYER0014
  6
CONTINUOUS
  2
DC_GROUP_3
 10
0.0
 20
0.0
 30
0.0
  0
INSERT
  5
4A1
  8
0
  6
CONTINUOUS
  2
DA_IMAGEDIMGROUP_24
 10
0.0
 20
0.0
 30
0.0
  0
INSERT
  5
4A2
  8
0
  6
CONTINUOUS
  2
DA_IMAGEDIMGROUP_25
 10
0.0
 20
0.0
 30
0.0
  0
INSERT
  5
4A3
  8
0
  6
CONTINUOUS
  2
DA_IMAGEDIMGROUP_26
 10
0.0
 20
0.0
 30
0.0
  0
INSERT
  5
4A4
  8
0
  6
CONTINUOUS
  2
DA_IMAGEDIMGROUP_27
 10
0.0
 20
0.0
 30
0.0
  0
INSERT
  5
4A5
  8
0
  6
CONTINUOUS
  2
DA_IMAGEDIMGROUP_28
 10
0.0
 20
0.0
 30
0.0
  0
INSERT
  5
4A6
  8
0
  6
CONTINUOUS
  2
DA_IMAGEDIMGROUP_33
 10
0.0
 20
0.0
 30
0.0
  0
LINE
  5
4A7
  8
0
  6
CONTINUOUS
 62
     5
 10
191.0874216677959
 20
104.7759073304904
 30
0.0
 11
187.3374216677959
 21
111.2710977422965
 31
0.0
  0
LINE
  5
4A8
  8
0
  6
CONTINUOUS
 62
     5
 10
178.0970257223363
 20
97.27590300472053
 30
0.0
 11
191.0874065459485
 21
104.7759030047205
 31
0.0
  0
LINE
  5
4A9
  8
0
  6
CONTINUOUS
 62
     5
 10
178.0970276296849
 20
97.27589970109585
 30
0.0
 11
172.4720257223363
 21
107.0186886224297
 31
0.0
  0
LINE
  5
4AA
  8
0
  6
CONTINUOUS
 62
     5
 10
172.4720257223363
 20
107.0186886224297
 30
0.0
 11
174.4205828458781
 21
108.1436886224297
 31
0.0
  0
LINE
  5
4AB
  8
0
  6
CONTINUOUS
 62
     5
 10
174.9830979677255
 20
107.1694143864286
 30
0.0
 11
174.4205998750741
 21
108.1436896445749
 31
0.0
  0
LINE
  5
4AC
  8
0
  6
CONTINUOUS
 62
     5
 10
174.9830847532268
 20
107.1694067570341
 30
0.0
 11
176.282122835588
 21
107.9194067570341
 31
0.0
  0
LINE
  5
4AD
  8
0
  6
CONTINUOUS
 62
     5
 10
176.8446360500867
 20
106.9451358246577
 30
0.0
 11
176.2821360500867
 21
107.9194143864286
 31
0.0
  0
LINE
  5
4AE
  8
0
  6
CONTINUOUS
 62
     5
 10
178.8936609179492
 20
106.396090112902
 30
0.0
 11
178.1436609179492
 21
107.6951281952632
 31
0.0
  0
LINE
  5
4AF
  8
0
  6
CONTINUOUS
 62
     5
 10
176.8446077137406
 20
106.9451238694933
 30
0.0
 11
178.1436590106006
 21
107.6951314988879
 31
0.0
  0
LINE
  5
4B0
  8
0
  6
CONTINUOUS
 62
     5
 10
174.3470276296849
 20
103.771090112902
 30
0.0
 11
187.3374084532971
 21
111.271090112902
 31
0.0
  0
LINE
  5
4B1
  8
0
  6
CONTINUOUS
 62
     5
 10
184.9672312559898
 20
100.3763882893098
 30
0.0
 11
187.2172312559898
 21
96.47927404222611
 31
0.0
  0
LINE
  5
4B2
  8
0
  6
CONTINUOUS
 62
     5
 10
187.2172138078237
 20
96.47928778507054
 30
0.0
 11
186.1926862947945
 21
96.75380910711107
 31
0.0
  0
LINE
  5
4B3
  8
0
  6
CONTINUOUS
 62
     5
 10
187.2172776905726
 20
96.47926035313191
 30
0.0
 11
187.49179694315
 21
97.5037805599523
 31
0.0
  0
LINE
  5
4B4
  8
0
  6
CONTINUOUS
 62
     5
 10
184.6927462312048
 20
99.35185312970731
 30
0.0
 11
184.9672674584141
 21
100.3763807059573
 31
0.0
  0
LINE
  5
4B5
  8
0
  6
CONTINUOUS
 62
     5
 10
185.9917315628474
 20
100.1018869106866
 30
0.0
 11
184.9672187886764
 21
100.3764042834619
 31
0.0
  0
LINE
  5
4B6
  8
0
  6
CONTINUOUS
 62
     5
 10
179.0176025223856
 20
109.181488110573
 30
0.0
 11
179.2921237495949
 21
110.2060156868229
 31
0.0
  0
LINE
  5
4B7
  8
0
  6
CONTINUOUS
 62
     5
 10
179.2920762758041
 20
110.2060395035169
 30
0.0
 11
178.2675487627749
 21
110.4805608255575
 31
0.0
  0
LINE
  5
4B8
  8
0
  6
CONTINUOUS
 62
     5
 10
176.7289765962706
 20
108.7261828230313
 30
0.0
 11
179.2920871973748
 21
110.2059954451016
 31
0.0
  0
LINE
  5
4B9
  8
0
  6
CONTINUOUS
 62
     5
 10
183.4531693190173
 20
106.7503780860164
 30
0.0
 11
182.6864585882385
 21
106.1295081086894
 31
0.0
  0
LINE
  5
4BA
  8
0
  6
CONTINUOUS
 62
     5
 10
183.4531889202937
 20
106.7503840771424
 30
0.0
 11
182.832328428026
 21
107.517082832007
 31
0.0
  0
ARC
  5
4BB
  8
0
  6
CONTINUOUS
 62
     5
 10
182.7737823987301
 20
104.2148034530201
 30
0.0
 40
2.625001907348633
 50
75.00010795499728
 51
369.999953377945
  0
TEXT
  5
4BC
  8
0
 62
     5
 10
111.3268733287151
 20
-9.173460249372448
 30
0.0
 40
5.0
  1
NIKKO
 41
0.7674421159044385
  7
FDASTYLE1
 72
     5
 11
134.8983047271069
 21
-9.173460249372448
 31
0.0
  0
TEXT
  5
4BD
  8
0
 62
     5
 10
142.6840011143978
 20
-8.673460249372448
 30
0.0
 40
4.0
  1
MAC3-165A5
 41
0.7727275194893263
  7
FDASTYLE1
 72
     5
 11
181.5411476159389
 21
-8.673460249372448
 31
0.0
  0
TEXT
  5
4BE
  8
0
 62
     5
 10
143.0411442780788
 20
-15.17346024937245
 30
0.0
 40
3.0
  1
0001
 41
0.7647060767727455
  7
FDASTYLE1
 72
     5
 11
154.1840019488628
 21
-15.17346024937245
 31
0.0
  0
TEXT
  5
4BF
  8
0
 62
     5
 10
216.7204930792133
 20
72.01813989597201
 30
0.0
 40
2.5
  1
N MAX 7000 AT ΣS MAX
 50
120.0
 41
0.7873402943634575
  7
FDASTYLE1
 72
     5
 11
191.7014085660259
 21
115.3524654316723
 31
0.0
  0
TEXT
  5
4C0
  8
0
 62
     5
 10
184.9411958763877
 20
96.66169392536513
 30
0.0
 40
2.5
  1
F
 50
120.0
 41
0.8791213035583498
  7
FDASTYLE1
 72
     5
 11
183.8422942469398
 21
98.56504738008918
 31
0.0
  0
TEXT
  5
4C1
  8
0
 62
     5
 10
178.2864107201377
 20
111.5929912276112
 30
0.0
 40
2.5
  1
ΣS
 50
120.0
 41
0.9590411728078666
  7
FDASTYLE1
 72
     5
 11
175.6490474949161
 21
116.1610383317088
 31
0.0
  0
TEXT
  5
4C2
  8
0
 62
     5
 10
187.5559450695793
 20
107.1710317686637
 30
0.0
 40
2.5
  1
N min
 50
120.0
 41
0.7983872809842201
  7
FDASTYLE1
 72
     5
 11
181.3684450695793
 21
117.8880961404961
 31
0.0
  0
TEXT
  5
4C3
  8
0
 62
     5
 10
180.1628904492147
 20
116.6600605918856
 30
0.0
 40
1.25
  1
-1
 50
120.0
 41
0.782608910634555
  7
FDASTYLE1
 72
     5
 11
179.0378903151043
 21
118.6086179826867
 31
0.0
  0
TEXT
  5
4C4
  8
0
 62
     5
 10
213.2563970098773
 20
70.01813989597201
 30
0.0
 40
2.5
  1
ΣS MAX 56KN
 50
120.0
 41
0.787641137454194
  7
FDASTYLE1
 72
     5
 11
199.6590682874004
 21
93.56940409051772
 31
0.0
  0
TEXT
  5
4C5
  8
0
 62
     5
 10
209.7922856817523
 20
68.01813989597201
 30
0.0
 40
2.5
  1
F MAX  20KN
 50
120.0
 41
0.7825372743633055
  7
FDASTYLE1
 72
     5
 11
196.1949569592754
 21
91.56940409051772
 31
0.0
  0
LINE
  5
4C6
  8
0
  6
CENTER
 62
     7
 10
-93.67984614130899
 20
-1.028591382652638
 30
0.0
 11
-93.67984614130899
 21
-27.32145267989741
 31
0.0
  0
LINE
  5
4C7
  8
0
  6
CONTINUOUS
 62
     7
 10
-227.5654354765159
 20
-162.1862491766731
 30
0.0
 11
-87.56543547651586
 21
-162.1862491766731
 31
0.0
  0
LINE
  5
4C8
  8
0
  6
CONTINUOUS
 62
     7
 10
-227.5654354765159
 20
-106.1862491766731
 30
0.0
 11
-227.5654354765159
 21
-162.1862491766731
 31
0.0
  0
LINE
  5
4C9
  8
LAYER0014
  6
CONTINUOUS
 62
     4
 10
-128.6973109982219
 20
-129.3375129006989
 30
0.0
 11
-141.9966976912881
 21
-144.4154259362445
 31
0.0
  0
INSERT
  5
4CA
  8
LAYER0014
 62
     4
  2
_OPEN30
 10
-128.6973109982219
 20
-129.3375129006989
 30
0.0
 41
1.50000139391263
 42
1.499998500689492
 50
48.58627994316709
  0
LINE
  5
4CB
  8
LAYER0014
  6
CONTINUOUS
 62
     4
 10
-141.9966995302377
 20
-144.4154228750672
 30
0.0
 11
-223.2963556384456
 21
-144.415424269441
 31
0.0
  0
TEXT
  5
4CC
  8
LAYER0014
 62
     4
 10
-222.4732656770769
 20
-143.98315534862
 30
0.0
 40
4.0
  1
36ＴS-TA1型シリンダー（圧力3.5MPa)
 41
0.7384615384615386
  7
FDASTYLE1
 72
     5
 11
-145.6732656770768
 21
-143.98315534862
 31
0.0
  0
INSERT
  5
4CD
  8
0
  6
CONTINUOUS
  2
DC_GROUP_4
 10
0.0
 20
0.0
 30
0.0
  0
VIEWPORT
  5
48
 67
     1
  8
0
 10
0.0
 20
0.0
 30
0.0
 40
1662.0
 41
1140.0
 68
     1
 69
     1
1001
ACAD
1000
MVIEW
1002
{
1070
    16
1010
0.0
1020
0.0
1030
0.0
1020
0.0
1030
0.0
1010
0.0
1020
0.0
1030
1.0
1020
0.0
1030
1.0
1040
0.0
1040
1140.0
1040
0.0
1040
0.0
1040
50.0
1040
0.0
1040
0.0
1070
     0
1070
   100
1070
     0
1070
     1
1070
     0
1070
     0
1070
     0
1070
     0
1040
0.0
1040
0.0
1040
0.0
1040
0.5
1040
0.5
1040
0.0
1040
0.0
1070
     0
1002
{
1002
}
1002
}
  0
ENDSEC
  0
EOF
