  0
SECTION
  2
HEADER
  9
$ACADVER
  1
AC1009
  9
$DWGCODEPAGE
  3
ansi_932
  9
$INSBASE
 10
0.0
 20
0.0
 30
0.0
  9
$EXTMIN
 10
-831.0
 20
-569.9999999999999
 30
0.0
  9
$EXTMAX
 10
831.0
 20
569.9999999999999
 30
0.0
  9
$LIMMIN
 10
-297.0
 20
-210.0
  9
$LIMMAX
 10
297.0
 20
210.0
  9
$ORTHOMODE
 70
     0
  9
$REGENMODE
 70
     1
  9
$FILLMODE
 70
     1
  9
$QTEXTMODE
 70
     0
  9
$MIRRTEXT
 70
     1
  9
$DRAGMODE
 70
     2
  9
$LTSCALE
 40
1.0
  9
$OSMODE
 70
    37
  9
$ATTMODE
 70
     1
  9
$TEXTSIZE
 40
0.2
  9
$TRACEWID
 40
0.05
  9
$TEXTSTYLE
  7
STANDARD
  9
$CLAYER
  8
0
  9
$CELTYPE
  6
BYLAYER
  9
$CECOLOR
 62
   256
  9
$DIMSCALE
 40
1.0
  9
$DIMASZ
 40
2.5
  9
$DIMEXO
 40
0.0625
  9
$DIMDLI
 40
0.38
  9
$DIMRND
 40
0.0
  9
$DIMDLE
 40
0.0
  9
$DIMEXE
 40
0.18
  9
$DIMTP
 40
0.0
  9
$DIMTM
 40
0.0
  9
$DIMTXT
 40
0.18
  9
$DIMCEN
 40
0.09
  9
$DIMTSZ
 40
0.0
  9
$DIMTOL
 70
     0
  9
$DIMLIM
 70
     0
  9
$DIMTIH
 70
     1
  9
$DIMTOH
 70
     1
  9
$DIMSE1
 70
     0
  9
$DIMSE2
 70
     0
  9
$DIMTAD
 70
     3
  9
$DIMZIN
 70
     0
  9
$DIMBLK
  1

  9
$DIMASO
 70
     1
  9
$DIMSHO
 70
     1
  9
$DIMPOST
  1

  9
$DIMAPOST
  1

  9
$DIMALT
 70
     0
  9
$DIMALTD
 70
     2
  9
$DIMALTF
 40
25.4
  9
$DIMLFAC
 40
1.0
  9
$DIMTOFL
 70
     0
  9
$DIMTVP
 40
0.0
  9
$DIMTIX
 70
     0
  9
$DIMSOXD
 70
     0
  9
$DIMSAH
 70
     0
  9
$DIMBLK1
  1

  9
$DIMBLK2
  1

  9
$DIMSTYLE
  2
STANDARD
  9
$DIMCLRD
 70
     0
  9
$DIMCLRE
 70
     0
  9
$DIMCLRT
 70
     0
  9
$DIMTFAC
 40
1.0
  9
$DIMGAP
 40
0.09
  9
$LUNITS
 70
     2
  9
$LUPREC
 70
     4
  9
$SKETCHINC
 40
0.1
  9
$FILLETRAD
 40
0.5
  9
$AUNITS
 70
     0
  9
$AUPREC
 70
     0
  9
$MENU
  1
.
  9
$ELEVATION
 40
0.0
  9
$PELEVATION
 40
0.0
  9
$THICKNESS
 40
0.0
  9
$LIMCHECK
 70
     0
  9
$CHAMFERA
 40
0.5
  9
$CHAMFERB
 40
0.5
  9
$SKPOLY
 70
     0
  9
$TDCREATE
 40
2456272.476482454
  9
$TDUPDATE
 40
2456272.476482465
  9
$TDINDWG
 40
0.0000000116
  9
$TDUSRTIMER
 40
0.0000000116
  9
$USRTIMER
 70
     1
  9
$ANGBASE
 50
0.0
  9
$ANGDIR
 70
     0
  9
$PDMODE
 70
     0
  9
$PDSIZE
 40
1.0
  9
$PLINEWID
 40
0.0
  9
$COORDS
 70
     1
  9
$SPLFRAME
 70
     0
  9
$SPLINETYPE
 70
     6
  9
$SPLINESEGS
 70
     8
  9
$ATTDIA
 70
     0
  9
$ATTREQ
 70
     1
  9
$HANDLING
 70
     1
  9
$HANDSEED
  5
52D
  9
$SURFTAB1
 70
     6
  9
$SURFTAB2
 70
     6
  9
$SURFTYPE
 70
     6
  9
$SURFU
 70
     6
  9
$SURFV
 70
     6
  9
$UCSNAME
  2

  9
$UCSORG
 10
0.0
 20
0.0
 30
0.0
  9
$UCSXDIR
 10
1.0
 20
0.0
 30
0.0
  9
$UCSYDIR
 10
0.0
 20
1.0
 30
0.0
  9
$PUCSNAME
  2

  9
$PUCSORG
 10
0.0
 20
0.0
 30
0.0
  9
$PUCSXDIR
 10
1.0
 20
0.0
 30
0.0
  9
$PUCSYDIR
 10
0.0
 20
1.0
 30
0.0
  9
$USERI1
 70
     0
  9
$USERI2
 70
     0
  9
$USERI3
 70
     0
  9
$USERI4
 70
     0
  9
$USERI5
 70
     0
  9
$USERR1
 40
0.0
  9
$USERR2
 40
0.0
  9
$USERR3
 40
0.0
  9
$USERR4
 40
0.0
  9
$USERR5
 40
0.0
  9
$WORLDVIEW
 70
     1
  9
$SHADEDGE
 70
     3
  9
$SHADEDIF
 70
    70
  9
$TILEMODE
 70
     1
  9
$MAXACTVP
 70
    64
  9
$PLIMCHECK
 70
     0
  9
$PEXTMIN
 10
1.000000000000000E+20
 20
1.000000000000000E+20
 30
1.000000000000000E+20
  9
$PEXTMAX
 10
-1.000000000000000E+20
 20
-1.000000000000000E+20
 30
-1.000000000000000E+20
  9
$PLIMMIN
 10
0.0
 20
0.0
  9
$PLIMMAX
 10
12.0
 20
9.0
  9
$UNITMODE
 70
     0
  9
$VISRETAIN
 70
     0
  9
$PLINEGEN
 70
     1
  9
$PSLTSCALE
 70
     0
  0
ENDSEC
  0
SECTION
  2
TABLES
  0
TABLE
  2
VPORT
 70
     1
  0
VPORT
  2
*ACTIVE
 70
     0
 10
0.0
 20
0.0
 11
1.0
 21
1.0
 12
0.0
 22
0.0
 13
0.0
 23
0.0
 14
0.5
 24
0.5
 15
0.5
 25
0.5
 16
0.0
 26
0.0
 36
1.0
 17
-0.0000000000000036
 27
0.0
 37
0.0
 40
387.6
 41
1.457894736842106
 42
50.0
 43
0.0
 44
0.0
 50
0.0
 51
0.0
 71
     0
 72
  1000
 73
     1
 74
     1
 75
     0
 76
     0
 77
     0
 78
     0
  0
ENDTAB
  0
TABLE
  2
LTYPE
 70
    28
  0
LTYPE
  2
CONTINUOUS
 70
     0
  3
Solid line
 72
    65
 73
     0
 40
0.0
  0
LTYPE
  2
HIDDENX2
 70
     0
  3
CADPAC LINETYPE
 72
    65
 73
     2
 40
9.893992932862261
 49
7.420494699646696
 49
-2.473498233215565
  0
LTYPE
  2
HIDDEN
 70
     0
  3
CADPAC LINETYPE
 72
    65
 73
     2
 40
7.420494699646696
 49
4.946996466431131
 49
-2.473498233215565
  0
LTYPE
  2
HIDDEN2
 70
     0
  3
CADPAC LINETYPE
 72
    65
 73
     2
 40
6.183745583038913
 49
3.710247349823348
 49
-2.473498233215565
  0
LTYPE
  2
DASHED
 70
     0
  3
CADPAC LINETYPE
 72
    65
 73
     2
 40
6.925795053003583
 49
4.946996466431131
 49
-1.978798586572452
  0
LTYPE
  2
DASHED2
 70
     0
  3
CADPAC LINETYPE
 72
    65
 73
     2
 40
4.452296819787989
 49
2.968197879858678
 49
-1.484098939929311
  0
LTYPE
  2
DASHEDX2
 70
     0
  3
CADPAC LINETYPE
 72
    65
 73
     2
 40
11.87279151943466
 49
9.893992932862204
 49
-1.978798586572452
  0
LTYPE
  2
DOTX2
 70
     0
  3
CADPAC LINETYPE
 72
    65
 73
     2
 40
4.328621908127204
 49
0.0
 49
-4.328621908127204
  0
LTYPE
  2
DOT
 70
     0
  3
CADPAC LINETYPE
 72
    65
 73
     2
 40
3.462897526501763
 49
0.0
 49
-3.462897526501763
  0
LTYPE
  2
DOT2
 70
     0
  3
CADPAC LINETYPE
 72
    65
 73
     2
 40
2.597173144876322
 49
0.0
 49
-2.597173144876322
  0
LTYPE
  2
CENTERX2
 70
     0
  3
CADPAC LINETYPE
 72
    65
 73
     4
 40
14.84098939929339
 49
6.183745583038913
 49
-3.091872791519457
 49
2.473498233215565
 49
-3.091872791519457
  0
LTYPE
  2
CENTER
 70
     0
  3
CADPAC LINETYPE
 72
    65
 73
     4
 40
11.3780918727916
 49
4.946996466431131
 49
-2.473498233215565
 49
1.484098939929339
 49
-2.473498233215565
  0
LTYPE
  2
CENTER2
 70
     0
  3
CADPAC LINETYPE
 72
    65
 73
     4
 40
7.915194346289809
 49
3.710247349823348
 49
-1.855123674911674
 49
0.4946996466431131
 49
-1.855123674911674
  0
LTYPE
  2
DASHDOTX2
 70
     0
  3
CADPAC LINETYPE
 72
    65
 73
     4
 40
23.7455830388692
 49
11.87279151943466
 49
-3.957597173144848
 49
3.957597173144848
 49
-3.957597173144848
  0
LTYPE
  2
DASHDOT
 70
     0
  3
CADPAC LINETYPE
 72
    65
 73
     4
 40
11.87279151943466
 49
5.9363957597173
 49
-1.978798586572452
 49
1.978798586572452
 49
-1.978798586572452
  0
LTYPE
  2
DASHDOT2
 70
     0
  3
CADPAC LINETYPE
 72
    65
 73
     4
 40
7.618374558303898
 49
4.452296819787975
 49
-1.484098939929339
 49
0.1978798586572452
 49
-1.484098939929339
  0
LTYPE
  2
DIVIDEX2
 70
     0
  3
CADPAC LINETYPE
 72
    65
 73
     6
 40
31.6607773851589
 49
11.87279151943466
 49
-3.957597173144848
 49
3.957597173144848
 49
-3.957597173144848
 49
3.957597173144848
 49
-3.957597173144848
  0
LTYPE
  2
DIVIDE
 70
     0
  3
CADPAC LINETYPE
 72
    65
 73
     6
 40
15.83038869257956
 49
5.9363957597173
 49
-1.978798586572452
 49
1.978798586572452
 49
-1.978798586572452
 49
1.978798586572452
 49
-1.978798586572452
  0
LTYPE
  2
DIVIDE2
 70
     0
  3
CADPAC LINETYPE
 72
    65
 73
     6
 40
11.87279151943467
 49
4.452296819787975
 49
-1.484098939929339
 49
1.484098939929339
 49
-1.484098939929339
 49
1.484098939929339
 49
-1.484098939929339
  0
LTYPE
  2
BORDERX2
 70
     0
  3
CADPAC LINETYPE
 72
    65
 73
     6
 40
21.6431095406362
 49
6.183745583038913
 49
-3.091872791519457
 49
6.183745583038913
 49
-3.091872791519457
 49
0.0
 49
-3.091872791519457
  0
LTYPE
  2
BORDER
 70
     0
  3
CADPAC LINETYPE
 72
    65
 73
     6
 40
17.31448763250896
 49
4.946996466431131
 49
-2.473498233215565
 49
4.946996466431131
 49
-2.473498233215565
 49
0.0
 49
-2.473498233215565
  0
LTYPE
  2
BORDER2
 70
     0
  3
CADPAC LINETYPE
 72
    65
 73
     6
 40
12.86219081272091
 49
3.957597173144848
 49
-2.473498233215594
 49
1.484098939929311
 49
-2.473498233215594
 49
0.0
 49
-2.473498233215565
  0
LTYPE
  2
PHANTOMX2
 70
     0
  3
CADPAC LINETYPE
 72
    65
 73
     6
 40
18.55123674911674
 49
6.183745583038913
 49
-2.473498233215565
 49
2.473498233215565
 49
-2.473498233215565
 49
2.473498233215565
 49
-2.473498233215565
  0
LTYPE
  2
PHANTOM
 70
     0
  3
CADPAC LINETYPE
 72
    65
 73
     6
 40
15.33568904593651
 49
4.946996466431131
 49
-2.473498233215565
 49
1.484098939929339
 49
-2.473498233215565
 49
1.484098939929339
 49
-2.473498233215565
  0
LTYPE
  2
PHANTOM2
 70
     0
  3
CADPAC LINETYPE
 72
    65
 73
     6
 40
13.1095406360425
 49
3.710247349823348
 49
-2.473498233215565
 49
0.9893992932862261
 49
-2.473498233215565
 49
0.9893992932862261
 49
-2.473498233215565
  0
LTYPE
  2
ACAD_ISO06W100
 70
     0
  3
CADPAC LINETYPE
 72
    65
 73
     8
 40
26.21908127208496
 49
11.87279151943466
 49
-2.473498233215594
 49
1.484098939929311
 49
-2.473498233215594
 49
1.484098939929311
 49
-2.473498233215594
 49
1.484098939929311
 49
-2.473498233215594
  0
LTYPE
  2
ACAD_ISO13W100
 70
     0
  3
CADPAC LINETYPE
 72
    65
 73
     8
 40
19.78798586572452
 49
4.946996466431131
 49
-2.473498233215565
 49
4.946996466431131
 49
-2.473498233215565
 49
0.0
 49
-2.473498233215565
 49
0.0
 49
-2.473498233215565
  0
LTYPE
  2
ACAD_ISO14W100
 70
     0
  3
CADPAC LINETYPE
 72
    65
 73
     8
 40
14.84098939929339
 49
4.946996466431131
 49
-2.473498233215565
 49
0.0
 49
-2.473498233215565
 49
0.0
 49
-2.473498233215565
 49
0.0
 49
-2.473498233215565
  0
ENDTAB
  0
TABLE
  2
LAYER
 70
     3
  0
LAYER
  2
0
 70
     0
 62
     7
  6
CONTINUOUS
  0
LAYER
  2
LAYER0014
 70
     0
 62
     7
  6
CONTINUOUS
  0
LAYER
  2
ZUWAKU
 70
     0
 62
     7
  6
CONTINUOUS
  0
ENDTAB
  0
TABLE
  2
STYLE
 70
     5
  0
STYLE
  2
STANDARD
 70
     0
 40
0.0
 41
1.0
 50
0.0
 71
     0
 42
0.2
  3
txt
  4

  0
STYLE
  2
FDASTYLE1
 70
     0
 40
0.0
 41
0.7804878048780496
 50
0.0
 71
     0
 42
0.2
  3
txt.shx
  4
bigfont
  0
STYLE
  2
FDASTYLE0
 70
     4
 40
0.0
 41
0.8
 50
0.0
 71
     0
 42
0.2
  3
txt.shx
  4
bigfont
  0
STYLE
  2
FDASTYLE2
 70
     0
 40
0.0
 41
0.8123476848090983
 50
0.0
 71
     0
 42
0.2
  3
MSMINCHO.TTC
  4

  0
STYLE
  2
FDASTYLE3
 70
     0
 40
0.0
 41
0.77
 50
0.0
 71
     0
 42
0.2
  3
MSGOTHIC.TTC
  4

  0
ENDTAB
  0
TABLE
  2
VIEW
 70
     0
  0
ENDTAB
  0
TABLE
  2
UCS
 70
     0
  0
ENDTAB
  0
TABLE
  2
APPID
 70
     2
  0
APPID
  2
ACAD
 70
     0
  0
APPID
  2
DAFUSIONOUT
 70
     0
  0
ENDTAB
  0
TABLE
  2
DIMSTYLE
 70
     1
  0
DIMSTYLE
  2
STANDARD
 70
     0
  3

  4

  5

  6

  7

 40
1.0
 41
0.18
 42
0.0625
 43
0.38
 44
0.18
 45
0.0
 46
0.0
 47
0.0
 48
0.0
140
0.18
141
0.09
142
0.0
143
25.4
144
1.0
145
0.0
146
1.0
147
0.09
 71
     0
 72
     0
 73
     1
 74
     1
 75
     0
 76
     0
 77
     0
 78
     0
170
     0
171
     2
172
     0
173
     0
174
     0
175
     0
176
     0
177
     0
178
     0
  0
ENDTAB
  0
ENDSEC
  0
SECTION
  2
BLOCKS
  0
BLOCK
  8
0
  2
$MODEL_SPACE
 70
     0
 10
0.0
 20
0.0
 30
0.0
  3
$MODEL_SPACE
  1

  0
ENDBLK
  5
21
  8
0
  0
BLOCK
 67
     1
  8
0
  2
$PAPER_SPACE
 70
     0
 10
0.0
 20
0.0
 30
0.0
  3
$PAPER_SPACE
  1

  0
ENDBLK
  5
1D
 67
     1
  8
0
  0
BLOCK
  8
0
  2
DA_IMAGEDIMGROUP_1
 70
     0
 10
0.0
 20
0.0
 30
0.0
  3
DA_IMAGEDIMGROUP_1
  1

  0
LINE
  5
C4
  8
LAYER0014
  6
CONTINUOUS
 62
     7
 10
-149.2834260202509
 20
70.88030820841757
 30
0.0
 11
-198.8853632761102
 21
70.88030820841757
 31
0.0
  0
LINE
  5
C5
  8
LAYER0014
  6
CONTINUOUS
 62
     7
 10
-149.2834260202509
 20
10.88030820841758
 30
0.0
 11
-198.8853632761102
 21
10.88030820841758
 31
0.0
  0
LINE
  5
C6
  8
LAYER0014
  6
CONTINUOUS
 62
     7
 10
-196.5993830515009
 20
70.88030820841757
 30
0.0
 11
-196.5993830515009
 21
10.88031011576621
 31
0.0
  0
INSERT
  5
CD
  8
LAYER0014
 62
     7
  2
_OPEN30
 10
-196.5993830515009
 20
70.88030820841757
 30
0.0
 41
1.50000139391263
 42
1.499998500689492
 50
90.0
  0
INSERT
  5
CE
  8
LAYER0014
 62
     7
  2
_OPEN30
 10
-196.5993830515009
 20
10.88031011576621
 30
0.0
 41
1.50000139391263
 42
1.499998500689492
 50
270.0
  0
TEXT
  5
D0
  8
LAYER0014
 62
     7
 10
-197.1217232545844
 20
28.0803286576018
 30
0.0
 40
4.0
  1
M60×P1.5
 50
89.90000000000001
 41
0.7804878048780496
  7
FDASTYLE1
 72
     5
 11
-197.0770428484174
 21
53.68028966658198
 31
0.0
  0
ENDBLK
  5
4E
  8
0
  0
BLOCK
  8
0
  2
DA_IMAGEDIMGROUP_2
 70
     0
 10
0.0
 20
0.0
 30
0.0
  3
DA_IMAGEDIMGROUP_2
  1

  0
LINE
  5
D1
  8
LAYER0014
  6
CONTINUOUS
 62
     7
 10
-158.3364655710321
 20
77.88030820841757
 30
0.0
 11
-213.983690912829
 21
77.88030820841757
 31
0.0
  0
LINE
  5
D2
  8
LAYER0014
  6
CONTINUOUS
 62
     7
 10
-157.2834260202509
 20
3.880308208417581
 30
0.0
 11
-213.983690912829
 21
3.880308208417581
 31
0.0
  0
LINE
  5
D3
  8
LAYER0014
  6
CONTINUOUS
 62
     7
 10
-211.6977106882196
 20
77.88030820841757
 30
0.0
 11
-211.6977106882196
 21
3.880310115766214
 31
0.0
  0
INSERT
  5
D4
  8
LAYER0014
 62
     7
  2
_OPEN30
 10
-211.6977106882196
 20
77.88030820841757
 30
0.0
 41
1.50000139391263
 42
1.499998500689492
 50
90.0
  0
INSERT
  5
D5
  8
LAYER0014
 62
     7
  2
_OPEN30
 10
-211.6977106882196
 20
3.880310115766214
 30
0.0
 41
1.50000139391263
 42
1.499998500689492
 50
270.0
  0
TEXT
  5
D6
  8
LAYER0014
 62
     7
 10
-212.2116733151468
 20
32.88032134678559
 30
0.0
 40
4.0
  1
φ74H7
 50
89.90000000000001
 41
0.7692307692307688
  7
FDASTYLE1
 72
     5
 11
-212.1837480612924
 21
48.88029697739819
 31
0.0
  0
ENDBLK
  5
51
  8
0
  0
BLOCK
  8
0
  2
DA_IMAGEDIMGROUP_3
 70
     0
 10
0.0
 20
0.0
 30
0.0
  3
DA_IMAGEDIMGROUP_3
  1

  0
LINE
  5
D7
  8
LAYER0014
  6
CONTINUOUS
 62
     7
 10
-174.2834260202509
 20
133.3803082084176
 30
0.0
 11
-244.1803767038446
 21
133.3803082084176
 31
0.0
  0
LINE
  5
D8
  8
LAYER0014
  6
CONTINUOUS
 62
     7
 10
-174.2834260202509
 20
-51.61969942097695
 30
0.0
 11
-244.1803767038446
 21
-51.61969942097695
 31
0.0
  0
LINE
  5
D9
  8
LAYER0014
  6
CONTINUOUS
 62
     7
 10
-241.8943659616571
 20
133.3803082084176
 30
0.0
 11
-241.8943659616571
 21
-51.61969179158242
 31
0.0
  0
INSERT
  5
DA
  8
LAYER0014
 62
     7
  2
_OPEN30
 10
-241.8943659616571
 20
133.3803082084176
 30
0.0
 41
1.50000139391263
 42
1.499998500689492
 50
90.0
  0
INSERT
  5
DB
  8
LAYER0014
 62
     7
  2
_OPEN30
 10
-241.8943659616571
 20
-51.61969179158242
 30
0.0
 41
1.50000139391263
 42
1.499998500689492
 50
270.0
  0
TEXT
  5
DC
  8
LAYER0014
 62
     7
 10
-242.4055360631989
 20
34.48031795617253
 30
0.0
 40
4.0
  1
φ185
 50
89.90000000000001
 41
0.7619047619047625
  7
FDASTYLE1
 72
     5
 11
-242.3831958601154
 21
47.28029846066262
 31
0.0
  0
ENDBLK
  5
54
  8
0
  0
BLOCK
  8
0
  2
DA_IMAGEDIMGROUP_4
 70
     0
 10
0.0
 20
0.0
 30
0.0
  3
DA_IMAGEDIMGROUP_4
  1

  0
LINE
  5
DD
  8
LAYER0014
  6
CONTINUOUS
 62
     7
 10
-174.2834260202509
 20
-61.61969942097696
 30
0.0
 11
-259.2787043405634
 21
-61.61969942097696
 31
0.0
  0
LINE
  5
DE
  8
LAYER0014
  6
CONTINUOUS
 62
     7
 10
-174.2834260202509
 20
143.3803082084176
 30
0.0
 11
-259.2787043405634
 21
143.3803082084176
 31
0.0
  0
LINE
  5
DF
  8
LAYER0014
  6
CONTINUOUS
 62
     7
 10
-256.9926935983759
 20
-61.61969179158243
 30
0.0
 11
-256.9926935983759
 21
143.3803082084176
 31
0.0
  0
INSERT
  5
E0
  8
LAYER0014
 62
     7
  2
_OPEN30
 10
-256.9926935983759
 20
-61.61969179158243
 30
0.0
 41
1.50000139391263
 42
1.499998500689492
 50
270.0
  0
INSERT
  5
E1
  8
LAYER0014
 62
     7
  2
_OPEN30
 10
-256.9926935983759
 20
143.3803082084176
 30
0.0
 41
1.50000139391263
 42
1.499998500689492
 50
90.0
  0
TEXT
  5
E2
  8
LAYER0014
 62
     7
 10
-257.5038636999176
 20
34.48031795617256
 30
0.0
 40
4.0
  1
φ205
 50
89.90000000000001
 41
0.7619047619047609
  7
FDASTYLE1
 72
     5
 11
-257.4815234968341
 21
47.28029846066262
 31
0.0
  0
ENDBLK
  5
57
  8
0
  0
BLOCK
  8
0
  2
DC_GROUP_1
 70
     0
 10
0.0
 20
0.0
 30
0.0
  3
DC_GROUP_1
  1

  0
LINE
  5
E3
  8
LAYER0014
  6
CONTINUOUS
 62
     7
 10
-54.49512914200255
 20
136.7288723911832
 30
0.0
 11
-25.52266309921112
 21
167.3335742982197
 31
0.0
  0
INSERT
  5
E4
  8
LAYER0014
 62
     7
  2
_OPEN30
 10
-54.49512914200255
 20
136.7288723911832
 30
0.0
 41
1.50000139391263
 42
1.499998500689492
 50
226.5693400896918
  0
LINE
  5
E5
  8
LAYER0014
  6
CONTINUOUS
 62
     7
 10
-25.52266376744325
 20
167.3335705375191
 30
0.0
 11
22.23192722071593
 21
167.3335705375191
 31
0.0
  0
TEXT
  5
E6
  8
LAYER0014
 62
     7
 10
-23.48235767613465
 20
168.9335705375191
 30
0.0
 40
4.0
  1
ｾﾚｰｼｮﾝP1.5山60ﾟ
 41
0.7887323943661972
  7
FDASTYLE1
 72
     5
 11
21.31764232386535
 21
168.9335705375191
 31
0.0
  0
ENDBLK
  5
5A
  8
0
  0
BLOCK
  8
0
  2
DA_IMAGEDIMGROUP_5
 70
     0
 10
0.0
 20
0.0
 30
0.0
  3
DA_IMAGEDIMGROUP_5
  1

  0
LINE
  5
E7
  8
LAYER0014
  6
CONTINUOUS
 62
     7
 10
-54.20342602025087
 20
68.88030820841757
 30
0.0
 11
-14.25927608738954
 21
68.88030820841757
 31
0.0
  0
LINE
  5
E8
  8
LAYER0014
  6
CONTINUOUS
 62
     7
 10
-54.20342602025087
 20
12.88030820841758
 30
0.0
 11
-14.25927608738954
 21
12.88030820841758
 31
0.0
  0
LINE
  5
E9
  8
LAYER0014
  6
CONTINUOUS
 62
     7
 10
-16.54527538548524
 20
68.88030820841757
 30
0.0
 11
-16.54527538548524
 21
12.88031011576621
 31
0.0
  0
INSERT
  5
EA
  8
LAYER0014
 62
     7
  2
_OPEN30
 10
-16.54527538548524
 20
68.88030820841757
 30
0.0
 41
1.50000139391263
 42
1.499998500689492
 50
90.0
  0
INSERT
  5
EB
  8
LAYER0014
 62
     7
  2
_OPEN30
 10
-16.54527538548524
 20
12.88031011576621
 30
0.0
 41
1.50000139391263
 42
1.499998500689492
 50
270.0
  0
TEXT
  5
EC
  8
LAYER0014
 62
     7
 10
-17.05365296164155
 20
36.08031647290811
 30
0.0
 40
4.0
  1
φ56
 50
89.90000000000001
 41
0.7500000000000001
  7
FDASTYLE1
 72
     5
 11
-17.03689780932893
 21
45.68030185127567
 31
0.0
  0
ENDBLK
  5
5D
  8
0
  0
BLOCK
  8
0
  2
DA_IMAGEDIMGROUP_6
 70
     0
 10
0.0
 20
0.0
 30
0.0
  3
DA_IMAGEDIMGROUP_6
  1

  0
LINE
  5
ED
  8
LAYER0014
  6
CONTINUOUS
 62
     7
 10
-54.20342602025087
 20
-7.119691791582419
 30
0.0
 11
0.8390525030035292
 21
-7.119691791582419
 31
0.0
  0
LINE
  5
EE
  8
LAYER0014
  6
CONTINUOUS
 62
     7
 10
-1.44694774876649
 20
-7.119689884233786
 30
0.0
 11
-1.44694774876649
 21
68.88030820841757
 31
0.0
  0
INSERT
  5
EF
  8
LAYER0014
 62
     7
  2
_OPEN30
 10
-1.44694774876649
 20
-7.119689884233786
 30
0.0
 41
1.50000139391263
 42
1.499998500689492
 50
270.0
  0
TEXT
  5
F0
  8
LAYER0014
 62
     7
 10
-1.94694774876649
 20
36.03796464620521
 30
0.0
 40
4.0
  1
φ96
 50
90.0
 41
0.7499999999999996
  7
FDASTYLE1
 72
     5
 11
-1.94694774876649
 21
45.63796464620521
 31
0.0
  0
ENDBLK
  5
60
  8
0
  0
BLOCK
  8
0
  2
DA_IMAGEDIMGROUP_7
 70
     0
 10
0.0
 20
0.0
 30
0.0
  3
DA_IMAGEDIMGROUP_7
  1

  0
LINE
  5
F1
  8
LAYER0014
  6
CONTINUOUS
 62
     7
 10
2.129906995191029
 20
40.88030820841758
 30
0.0
 11
15.93737918604796
 21
40.88030820841758
 31
0.0
  0
LINE
  5
F2
  8
LAYER0014
  6
CONTINUOUS
 62
     7
 10
-52.20342602025087
 20
82.88030820841757
 30
0.0
 11
15.93737918604796
 21
82.88030820841757
 31
0.0
  0
LINE
  5
F3
  8
LAYER0014
  6
CONTINUOUS
 62
     7
 10
13.65137988795226
 20
40.88030820841758
 30
0.0
 11
13.65137988795226
 21
82.88030820841757
 31
0.0
  0
INSERT
  5
F4
  8
LAYER0014
 62
     7
  2
_OPEN30
 10
13.65137988795226
 20
40.88030820841758
 30
0.0
 41
1.50000139391263
 42
1.499998500689492
 50
270.0
  0
INSERT
  5
F5
  8
LAYER0014
 62
     7
  2
_OPEN30
 10
13.65137988795226
 20
82.88030820841757
 30
0.0
 41
1.50000139391263
 42
1.499998500689492
 50
90.0
  0
TEXT
  5
F6
  8
LAYER0014
 62
     7
 10
13.1318322102542
 20
51.999696002371
 30
0.0
 40
4.0
  1
MAX44.5
 50
89.90000000000001
 41
0.7999999999999999
  7
FDASTYLE1
 72
     5
 11
13.17092756565032
 21
74.39966188522864
 31
0.0
  0
ENDBLK
  5
63
  8
0
  0
BLOCK
  8
0
  2
DA_IMAGEDIMGROUP_8
 70
     0
 10
0.0
 20
0.0
 30
0.0
  3
DA_IMAGEDIMGROUP_8
  1

  0
LINE
  5
F7
  8
LAYER0014
  6
CONTINUOUS
 62
     7
 10
-52.20342602025087
 20
140.8803082084176
 30
0.0
 11
15.93737918604796
 21
140.8803082084176
 31
0.0
  0
LINE
  5
F8
  8
LAYER0014
  6
CONTINUOUS
 62
     7
 10
13.65137988795226
 20
82.88030820841757
 30
0.0
 11
13.65137988795226
 21
140.8803082084176
 31
0.0
  0
INSERT
  5
F9
  8
LAYER0014
 62
     7
  2
_OPEN30
 10
13.65137988795226
 20
82.88030820841757
 30
0.0
 41
1.50000139391263
 42
1.499998500689492
 50
270.0
  0
INSERT
  5
FA
  8
LAYER0014
 62
     7
  2
_OPEN30
 10
13.65137988795226
 20
140.8803082084176
 30
0.0
 41
1.50000139391263
 42
1.499998500689492
 50
90.0
  0
TEXT
  5
FB
  8
LAYER0014
 62
     7
 10
13.14579483718138
 20
108.680313082295
 30
0.0
 40
4.0
  1
58
 50
89.90000000000001
 41
0.8000000000000007
  7
FDASTYLE1
 72
     5
 11
13.15696493872313
 21
115.0803033345401
 31
0.0
  0
ENDBLK
  5
66
  8
0
  0
BLOCK
  8
0
  2
DA_IMAGEDIMGROUP_9
 70
     0
 10
0.0
 20
0.0
 30
0.0
  3
DA_IMAGEDIMGROUP_9
  1

  0
LINE
  5
FC
  8
LAYER0014
  6
CONTINUOUS
 62
     7
 10
-170.7434260202509
 20
26.29948240275352
 30
0.0
 11
-156.7434260202509
 21
26.29948240275352
 31
0.0
  0
INSERT
  5
FD
  8
LAYER0014
 62
     7
  2
_OPEN30
 10
-170.7434260202509
 20
26.29948240275352
 30
0.0
 41
1.50000139391263
 42
1.499998500689492
 50
180.0
  0
INSERT
  5
FE
  8
LAYER0014
 62
     7
  2
_OPEN30
 10
-156.7434260202509
 20
26.29948240275352
 30
0.0
 41
1.50000139391263
 42
1.499998500689492
 50
360.0
  0
TEXT
  5
FF
  8
LAYER0014
 62
     7
 10
-166.9434260202509
 20
26.79948240275352
 30
0.0
 40
4.0
  1
14
 41
0.7999999999999972
  7
FDASTYLE1
 72
     5
 11
-160.5434260202509
 21
26.79948240275352
 31
0.0
  0
ENDBLK
  5
69
  8
0
  0
BLOCK
  8
0
  2
DA_IMAGEDIMGROUP_10
 70
     0
 10
0.0
 20
0.0
 30
0.0
  3
DA_IMAGEDIMGROUP_10
  1

  0
LINE
  5
100
  8
LAYER0014
  6
CONTINUOUS
 62
     7
 10
-156.7434260202509
 20
26.29948240275352
 30
0.0
 11
-146.7434260202509
 21
26.29948240275352
 31
0.0
  0
INSERT
  5
101
  8
LAYER0014
 62
     7
  2
_OPEN30
 10
-156.7434260202509
 20
26.29948240275352
 30
0.0
 41
1.50000139391263
 42
1.499998500689492
 50
180.0
  0
INSERT
  5
102
  8
LAYER0014
 62
     7
  2
_OPEN30
 10
-146.7434260202509
 20
26.29948240275352
 30
0.0
 41
1.50000139391263
 42
1.499998500689492
 50
360.0
  0
TEXT
  5
103
  8
LAYER0014
 62
     7
 10
-154.4071497606736
 20
26.79948240275352
 30
0.0
 40
4.0
  1
10
 41
0.7999999999999972
  7
FDASTYLE1
 72
     5
 11
-148.0071497606737
 21
26.79948240275352
 31
0.0
  0
ENDBLK
  5
6C
  8
0
  0
BLOCK
  8
0
  2
DA_IMAGEDIMGROUP_11
 70
     0
 10
0.0
 20
0.0
 30
0.0
  3
DA_IMAGEDIMGROUP_11
  1

  0
LINE
  5
104
  8
LAYER0014
  6
CONTINUOUS
 62
     7
 10
-146.7434260202509
 20
26.29948240275352
 30
0.0
 11
-121.7434260202509
 21
26.29948240275352
 31
0.0
  0
INSERT
  5
105
  8
LAYER0014
 62
     7
  2
_OPEN30
 10
-146.7434260202509
 20
26.29948240275352
 30
0.0
 41
1.50000139391263
 42
1.499998500689492
 50
180.0
  0
INSERT
  5
106
  8
LAYER0014
 62
     7
  2
_OPEN30
 10
-121.7434260202509
 20
26.29948240275352
 30
0.0
 41
1.50000139391263
 42
1.499998500689492
 50
360.0
  0
TEXT
  5
107
  8
LAYER0014
 62
     7
 10
-137.4434260202509
 20
26.79948240275352
 30
0.0
 40
4.0
  1
25
 41
0.7999999999999972
  7
FDASTYLE1
 72
     5
 11
-131.0434260202509
 21
26.79948240275352
 31
0.0
  0
ENDBLK
  5
6F
  8
0
  0
BLOCK
  8
0
  2
DA_IMAGEDIMGROUP_12
 70
     0
 10
0.0
 20
0.0
 30
0.0
  3
DA_IMAGEDIMGROUP_12
  1

  0
LINE
  5
108
  8
LAYER0014
  6
CONTINUOUS
 62
     7
 10
-121.7434260202509
 20
26.29948240275352
 30
0.0
 11
-66.74342602025087
 21
26.29948240275352
 31
0.0
  0
INSERT
  5
109
  8
LAYER0014
 62
     7
  2
_OPEN30
 10
-121.7434260202509
 20
26.29948240275352
 30
0.0
 41
1.50000139391263
 42
1.499998500689492
 50
180.0
  0
INSERT
  5
10A
  8
LAYER0014
 62
     7
  2
_OPEN30
 10
-66.74342602025087
 20
26.29948240275352
 30
0.0
 41
1.50000139391263
 42
1.499998500689492
 50
360.0
  0
TEXT
  5
10B
  8
LAYER0014
 62
     7
 10
-97.44342602025087
 20
26.79948240275352
 30
0.0
 40
4.0
  1
55
 41
0.8000000000000007
  7
FDASTYLE1
 72
     5
 11
-91.04342602025086
 21
26.79948240275352
 31
0.0
  0
ENDBLK
  5
72
  8
0
  0
BLOCK
  8
0
  2
DA_IMAGEDIMGROUP_13
 70
     0
 10
0.0
 20
0.0
 30
0.0
  3
DA_IMAGEDIMGROUP_13
  1

  0
LINE
  5
10C
  8
LAYER0014
  6
CONTINUOUS
 62
     7
 10
-66.74342602025087
 20
26.29948240275352
 30
0.0
 11
-56.74342602025087
 21
26.29948240275352
 31
0.0
  0
INSERT
  5
10D
  8
LAYER0014
 62
     7
  2
_OPEN30
 10
-66.74342602025087
 20
26.29948240275352
 30
0.0
 41
1.50000139391263
 42
1.499998500689492
 50
180.0
  0
INSERT
  5
10E
  8
LAYER0014
 62
     7
  2
_OPEN30
 10
-56.74342602025087
 20
26.29948240275352
 30
0.0
 41
1.50000139391263
 42
1.499998500689492
 50
360.0
  0
TEXT
  5
10F
  8
LAYER0014
 62
     7
 10
-64.94342602025087
 20
26.79948240275352
 30
0.0
 40
4.0
  1
10
 41
0.8000000000000007
  7
FDASTYLE1
 72
     5
 11
-58.54342602025086
 21
26.79948240275352
 31
0.0
  0
ENDBLK
  5
75
  8
0
  0
BLOCK
  8
0
  2
DA_IMAGEDIMGROUP_14
 70
     0
 10
0.0
 20
0.0
 30
0.0
  3
DA_IMAGEDIMGROUP_14
  1

  0
LINE
  5
110
  8
LAYER0014
  6
CONTINUOUS
 62
     7
 10
-154.7434260202509
 20
0.248858470868754
 30
0.0
 11
-154.7434260202509
 21
-75.73903078084024
 31
0.0
  0
LINE
  5
111
  8
LAYER0014
  6
CONTINUOUS
 62
     7
 10
-170.7434260202509
 20
-73.45302766804727
 30
0.0
 11
-154.7434260202509
 21
-73.45302766804727
 31
0.0
  0
INSERT
  5
112
  8
LAYER0014
 62
     7
  2
_OPEN30
 10
-170.7434260202509
 20
-73.45302766804727
 30
0.0
 41
1.50000139391263
 42
1.499998500689492
 50
180.0
  0
INSERT
  5
113
  8
LAYER0014
 62
     7
  2
_OPEN30
 10
-154.7434260202509
 20
-73.45302766804727
 30
0.0
 41
1.50000139391263
 42
1.499998500689492
 50
360.0
  0
TEXT
  5
114
  8
LAYER0014
 62
     7
 10
-165.9434211463734
 20
-72.94744261727639
 30
0.0
 40
4.0
  1
16
 50
-0.1000000000000078
 41
0.7999999999999954
  7
FDASTYLE1
 72
     5
 11
-159.5434308941284
 21
-72.95861271881815
 31
0.0
  0
ENDBLK
  5
78
  8
0
  0
BLOCK
  8
0
  2
DA_IMAGEDIMGROUP_15
 70
     0
 10
0.0
 20
0.0
 30
0.0
  3
DA_IMAGEDIMGROUP_15
  1

  0
LINE
  5
115
  8
LAYER0014
  6
CONTINUOUS
 62
     7
 10
-56.74342602025087
 20
-62.15969179158242
 30
0.0
 11
-56.74342602025087
 21
-111.7390307808402
 31
0.0
  0
LINE
  5
116
  8
LAYER0014
  6
CONTINUOUS
 62
     7
 10
-171.7434260202509
 20
-64.15969179158242
 30
0.0
 11
-171.7434260202509
 21
-111.7390307808402
 31
0.0
  0
LINE
  5
117
  8
LAYER0014
  6
CONTINUOUS
 62
     7
 10
-56.74342602025087
 20
-109.4530276680473
 30
0.0
 11
-171.7434260202509
 21
-109.4530276680473
 31
0.0
  0
INSERT
  5
118
  8
LAYER0014
 62
     7
  2
_OPEN30
 10
-56.74342602025087
 20
-109.4530276680473
 30
0.0
 41
1.50000139391263
 42
1.499998500689492
 50
360.0
  0
INSERT
  5
119
  8
LAYER0014
 62
     7
  2
_OPEN30
 10
-171.7434260202509
 20
-109.4530276680473
 30
0.0
 41
1.50000139391263
 42
1.499998500689492
 50
180.0
  0
TEXT
  5
11A
  8
LAYER0014
 62
     7
 10
-119.0434260202509
 20
-108.9530276680473
 30
0.0
 40
4.0
  1
115
 41
0.7999999999999995
  7
FDASTYLE1
 72
     5
 11
-109.4434260202509
 21
-108.9530276680473
 31
0.0
  0
ENDBLK
  5
7B
  8
0
  0
BLOCK
  8
0
  2
DA_IMAGEDIMGROUP_16
 70
     0
 10
0.0
 20
0.0
 30
0.0
  3
DA_IMAGEDIMGROUP_16
  1

  0
LINE
  5
11B
  8
LAYER0014
  6
CONTINUOUS
 62
     7
 10
-170.7434260202509
 20
-33.71942543298169
 30
0.0
 11
-121.7434260202509
 21
-33.71942543298169
 31
0.0
  0
INSERT
  5
11C
  8
LAYER0014
 62
     7
  2
_OPEN30
 10
-170.7434260202509
 20
-33.71942543298169
 30
0.0
 41
1.50000139391263
 42
1.499998500689492
 50
180.0
  0
INSERT
  5
11D
  8
LAYER0014
 62
     7
  2
_OPEN30
 10
-121.7434260202509
 20
-33.71942543298169
 30
0.0
 41
1.50000139391263
 42
1.499998500689492
 50
360.0
  0
LINE
  5
11E
  8
LAYER0014
  6
CONTINUOUS
 62
     7
 10
-121.7434260202509
 20
8.840310115766215
 30
0.0
 11
-121.7434260202509
 21
-34.71942543298169
 31
0.0
  0
TEXT
  5
11F
  8
LAYER0014
 62
     7
 10
-152.6471824262304
 20
-33.20267028066906
 30
0.0
 40
4.0
  1
MAX 59
 50
-0.1000000000000078
 41
0.8000000000000002
  7
FDASTYLE1
 72
     5
 11
-133.4472116694953
 21
-33.23618058529431
 31
0.0
  0
ENDBLK
  5
7E
  8
0
  0
BLOCK
  8
0
  2
DA_IMAGEDIMGROUP_17
 70
     0
 10
0.0
 20
0.0
 30
0.0
  3
DA_IMAGEDIMGROUP_17
  1

  0
LINE
  5
120
  8
LAYER0014
  6
CONTINUOUS
 62
     7
 10
-146.7434260202509
 20
79.9203082084176
 30
0.0
 11
-146.7434260202509
 21
170.0276775931832
 31
0.0
  0
LINE
  5
121
  8
LAYER0014
  6
CONTINUOUS
 62
     7
 10
-170.7434260202509
 20
135.9203082084176
 30
0.0
 11
-170.7434260202509
 21
170.0276775931832
 31
0.0
  0
LINE
  5
122
  8
LAYER0014
  6
CONTINUOUS
 62
     7
 10
-146.7434260202509
 20
167.7416668509957
 30
0.0
 11
-170.7434260202509
 21
167.7416668509957
 31
0.0
  0
INSERT
  5
123
  8
LAYER0014
 62
     7
  2
_OPEN30
 10
-146.7434260202509
 20
167.7416668509957
 30
0.0
 41
1.50000139391263
 42
1.499998500689492
 50
360.0
  0
INSERT
  5
124
  8
LAYER0014
 62
     7
  2
_OPEN30
 10
-170.7434260202509
 20
167.7416668509957
 30
0.0
 41
1.50000139391263
 42
1.499998500689492
 50
180.0
  0
TEXT
  5
125
  8
LAYER0014
 62
     7
 10
-168.3434260202509
 20
168.2416668509957
 30
0.0
 40
4.0
  1
MAX 34
 41
0.7999999999999995
  7
FDASTYLE1
 72
     5
 11
-149.1434260202509
 21
168.2416668509957
 31
0.0
  0
ENDBLK
  5
81
  8
0
  0
BLOCK
  8
0
  2
DC_GROUP_2
 70
     0
 10
0.0
 20
0.0
 30
0.0
  3
DC_GROUP_2
  1

  0
LINE
  5
126
  8
LAYER0014
  6
CONTINUOUS
 62
     7
 10
-36.37273969914583
 20
128.89802886547
 30
0.0
 11
-16.98237280009295
 21
152.46734685561
 31
0.0
  0
INSERT
  5
127
  8
LAYER0014
 62
     7
  2
_OPEN30
 10
-36.37273969914583
 20
128.89802886547
 30
0.0
 41
1.50000139391263
 42
1.499998500689492
 50
230.5560297256653
  0
LINE
  5
128
  8
LAYER0014
  6
CONTINUOUS
 62
     7
 10
-16.98237484227235
 20
152.4673443412301
 30
0.0
 11
-5.552704508410045
 21
152.4673443412301
 31
0.0
  0
TEXT
  5
129
  8
LAYER0014
 62
     7
 10
-16.48089855443055
 20
154.0673443412301
 30
0.0
 40
4.0
  1
M12
 41
0.8000000000000002
  7
FDASTYLE1
 72
     5
 11
-6.880898554430551
 21
154.0673443412301
 31
0.0
  0
ENDBLK
  5
84
  8
0
  0
BLOCK
  8
0
  2
DA_IMAGEDIMGROUP_18
 70
     0
 10
0.0
 20
0.0
 30
0.0
  3
DA_IMAGEDIMGROUP_18
  1

  0
LINE
  5
12A
  8
LAYER0014
  6
CONTINUOUS
 62
     7
 10
-170.7434260202509
 20
-97.45302766804727
 30
0.0
 11
-56.74342602025087
 21
-97.45302766804727
 31
0.0
  0
INSERT
  5
12B
  8
LAYER0014
 62
     7
  2
_OPEN30
 10
-170.7434260202509
 20
-97.45302766804727
 30
0.0
 41
1.50000139391263
 42
1.499998500689492
 50
180.0
  0
INSERT
  5
12C
  8
LAYER0014
 62
     7
  2
_OPEN30
 10
-56.74342602025087
 20
-97.45302766804727
 30
0.0
 41
1.50000139391263
 42
1.499998500689492
 50
360.0
  0
TEXT
  5
12D
  8
LAYER0014
 62
     7
 10
-118.5434187094347
 20
-96.94465009189095
 30
0.0
 40
4.0
  1
114
 50
-0.1000000000000078
 41
0.8000000000000002
  7
FDASTYLE1
 72
     5
 11
-108.9434333310671
 21
-96.96140524420358
 31
0.0
  0
ENDBLK
  5
87
  8
0
  0
BLOCK
  8
0
  2
DA_IMAGEDIMGROUP_19
 70
     0
 10
0.0
 20
0.0
 30
0.0
  3
DA_IMAGEDIMGROUP_19
  1

  0
LINE
  5
12E
  8
LAYER0014
  6
CONTINUOUS
 62
     7
 10
-173.2834260202509
 20
82.1628094291207
 30
0.0
 11
-228.8332545114618
 21
82.1628094291207
 31
0.0
  0
LINE
  5
12F
  8
LAYER0014
  6
CONTINUOUS
 62
     7
 10
-173.2834260202509
 20
-0.4021930122855437
 30
0.0
 11
-228.8332545114618
 21
-0.4021930122855437
 31
0.0
  0
LINE
  5
130
  8
LAYER0014
  6
CONTINUOUS
 62
     7
 10
-226.5472590280634
 20
82.1628094291207
 30
0.0
 11
-226.5472590280634
 21
-0.4021930122855437
 31
0.0
  0
INSERT
  5
131
  8
LAYER0014
 62
     7
  2
_OPEN30
 10
-226.5472590280634
 20
82.1628094291207
 30
0.0
 41
1.50000139391263
 42
1.499998500689492
 50
90.0
  0
INSERT
  5
132
  8
LAYER0014
 62
     7
  2
_OPEN30
 10
-226.5472590280634
 20
-0.4021930122855437
 30
0.0
 41
1.50000139391263
 42
1.499998500689492
 50
270.0
  0
TEXT
  5
133
  8
LAYER0014
 62
     7
 10
-227.0947319596158
 20
13.68034963637616
 30
0.0
 40
4.0
  1
φ82.565(A2-5テーパー）
 50
89.90000000000001
 41
0.7472527472527468
  7
FDASTYLE1
 72
     5
 11
-226.999786096511
 21
68.08026678045898
 31
0.0
  0
ENDBLK
  5
8A
  8
0
  0
BLOCK
  8
0
  2
DA_IMAGEDIMGROUP_20
 70
     0
 10
0.0
 20
0.0
 30
0.0
  3
DA_IMAGEDIMGROUP_20
  1

  0
LINE
  5
134
  8
LAYER0014
  6
CONTINUOUS
 62
     7
 10
-196.7262380820818
 20
-16.50469011311562
 30
0.0
 11
-196.7262380820818
 21
-6.504690113115622
 31
0.0
  0
INSERT
  5
135
  8
LAYER0014
 62
     7
  2
_OPEN30
 10
-196.7262380820818
 20
-16.50469011311562
 30
0.0
 41
1.50000139391263
 42
1.499998500689492
 50
270.0
  0
INSERT
  5
136
  8
LAYER0014
 62
     7
  2
_OPEN30
 10
-196.7262380820818
 20
-6.504690113115622
 30
0.0
 41
1.50000139391263
 42
1.499998500689492
 50
90.0
  0
LINE
  5
137
  8
LAYER0014
  6
CONTINUOUS
 62
     7
 10
-189.0770550684174
 20
-16.50469011311562
 30
0.0
 11
-197.7262380820818
 21
-16.50469011311562
 31
0.0
  0
LINE
  5
138
  8
LAYER0014
  6
CONTINUOUS
 62
     7
 10
-189.0770550684174
 20
-6.504690113115622
 30
0.0
 11
-197.7262380820818
 21
-6.504690113115622
 31
0.0
  0
TEXT
  5
139
  8
LAYER0014
 62
     7
 10
-197.2346156582381
 20
-16.30468280229941
 30
0.0
 40
4.0
  1
M10
 50
89.90000000000001
 41
0.8000000000000016
  7
FDASTYLE1
 72
     5
 11
-197.2178605059255
 21
-6.70469742393183
 31
0.0
  0
ENDBLK
  5
8D
  8
0
  0
BLOCK
  8
0
  2
DA_IMAGEDIMGROUP_21
 70
     0
 10
0.0
 20
0.0
 30
0.0
  3
DA_IMAGEDIMGROUP_21
  1

  0
LINE
  5
13A
  8
LAYER0014
  6
CONTINUOUS
 62
     7
 10
-178.2141053415399
 20
93.28030973429648
 30
0.0
 11
-185.6621729684931
 21
93.28030973429648
 31
0.0
  0
LINE
  5
13B
  8
LAYER0014
  6
CONTINUOUS
 62
     7
 10
-183.3761774850946
 20
93.28030973429648
 30
0.0
 11
-183.3761774850946
 21
40.88030820841758
 31
0.0
  0
INSERT
  5
13C
  8
LAYER0014
 62
     7
  2
_OPEN30
 10
-183.3761774850946
 20
93.28030973429648
 30
0.0
 41
1.50000139391263
 42
1.499998500689492
 50
90.0
  0
INSERT
  5
13D
  8
LAYER0014
 62
     7
  2
_OPEN30
 10
-183.3761774850946
 20
40.88030820841758
 30
0.0
 41
1.50000139391263
 42
1.499998500689492
 50
270.0
  0
TEXT
  5
13E
  8
LAYER0014
 62
     7
 10
-183.8901401120218
 20
53.75065098527971
 30
0.0
 40
4.0
  1
R52.4
 50
89.90000000000001
 41
0.7999999999999996
  7
FDASTYLE1
 72
     5
 11
-183.8622148581674
 21
69.7506266158923
 31
0.0
  0
ENDBLK
  5
90
  8
0
  0
BLOCK
  8
0
  2
DA_IMAGEDIMGROUP_22
 70
     0
 10
0.0
 20
0.0
 30
0.0
  3
DA_IMAGEDIMGROUP_22
  1

  0
LINE
  5
13F
  8
LAYER0014
  6
CONTINUOUS
 62
     7
 10
-173.2834260202509
 20
101.4203091239449
 30
0.0
 11
-199.2324854684931
 21
101.4203091239449
 31
0.0
  0
LINE
  5
140
  8
LAYER0014
  6
CONTINUOUS
 62
     7
 10
-173.2834260202509
 20
85.14031034464804
 30
0.0
 11
-199.2324854684931
 21
85.14031034464804
 31
0.0
  0
LINE
  5
141
  8
LAYER0014
  6
CONTINUOUS
 62
     7
 10
-196.9464899850946
 20
131.3538797119169
 30
0.0
 11
-196.9464899850946
 21
101.4203091239449
 31
0.0
  0
LINE
  5
142
  8
LAYER0014
  6
CONTINUOUS
 62
     7
 10
-196.9464899850946
 20
101.4203091239449
 30
0.0
 11
-196.9464899850946
 21
85.14031034464804
 31
0.0
  0
INSERT
  5
143
  8
LAYER0014
 62
     7
  2
_OPEN30
 10
-196.9464899850946
 20
101.4203091239449
 30
0.0
 41
1.50000139391263
 42
1.499998500689492
 50
90.0
  0
INSERT
  5
144
  8
LAYER0014
 62
     7
  2
_OPEN30
 10
-196.9464899850946
 20
85.14031034464804
 30
0.0
 41
1.50000139391263
 42
1.499998500689492
 50
270.0
  0
TEXT
  5
145
  8
LAYER0014
 62
     7
 10
-197.4464899850946
 20
104.3521591239449
 30
0.0
 40
4.0
  1
φ16.28
 50
89.90000000000001
 41
0.7741935483870963
  7
FDASTYLE1
 72
     5
 11
-197.4129796804694
 21
123.55212988068
 31
0.0
  0
TEXT
  5
146
  8
LAYER0014
 62
     7
 10
-199.9121032085697
 20
124.0564924400514
 30
0.0
 40
2.6
  1
+0.1
 50
89.90000000000001
 41
0.7999999999999986
  7
FDASTYLE1
 72
     5
 11
-199.8975820765654
 21
132.37647976797
 31
0.0
  0
TEXT
  5
147
  8
LAYER0014
 62
     7
 10
-197.2121073209038
 20
124.0517800534635
 30
0.0
 40
2.6
  1
　0
 50
89.90000000000001
 41
0.7272727272727284
  7
FDASTYLE1
 72
     5
 11
-197.2048467549016
 21
128.2117737174228
 31
0.0
  0
ENDBLK
  5
93
  8
0
  0
BLOCK
  8
0
  2
DC_GROUP_3
 70
     0
 10
0.0
 20
0.0
 30
0.0
  3
DC_GROUP_3
  1

  0
LINE
  5
148
  8
LAYER0014
  6
CONTINUOUS
 62
     7
 10
-121.2095203287291
 20
-61.95057281076353
 30
0.0
 11
-109.1062799028269
 21
-73.68705324745881
 31
0.0
  0
INSERT
  5
149
  8
LAYER0014
 62
     7
  2
_OPEN30
 10
-121.2095203287291
 20
-61.95057281076353
 30
0.0
 41
1.50000139391263
 42
1.499998500689492
 50
135.8813921095632
  0
LINE
  5
14A
  8
LAYER0014
  6
CONTINUOUS
 62
     7
 10
-109.1062800241571
 20
-73.68705171589883
 30
0.0
 11
-100.8766047311884
 21
-73.68705171589883
 31
0.0
  0
TEXT
  5
14B
  8
LAYER0014
 62
     7
 10
-108.7395121408563
 20
-72.08705171589884
 30
0.0
 40
4.0
  1
M8
 41
0.8000000000000007
  7
FDASTYLE1
 72
     5
 11
-102.3395121408563
 21
-72.08705171589884
 31
0.0
  0
ENDBLK
  5
96
  8
0
  0
BLOCK
  8
0
  2
DA_IMAGEDIMGROUP_23
 70
     0
 10
0.0
 20
0.0
 30
0.0
  3
DA_IMAGEDIMGROUP_23
  1

  0
LINE
  5
14C
  8
0
  6
CONTINUOUS
 62
     7
 10
-121.7434260202509
 20
-65.3271253010317
 30
0.0
 11
-121.7434260202509
 21
-87.12765985684048
 31
0.0
  0
LINE
  5
14D
  8
0
  6
CONTINUOUS
 62
     7
 10
-56.74342602025087
 20
-60.61969179158243
 30
0.0
 11
-56.74342602025087
 21
-87.12765985684048
 31
0.0
  0
LINE
  5
14E
  8
0
  6
CONTINUOUS
 62
     7
 10
-121.7434260202509
 20
-86.12765985684048
 30
0.0
 11
-56.74342602025087
 21
-86.12765985684048
 31
0.0
  0
INSERT
  5
14F
  8
0
 62
     7
  2
_OPEN30
 10
-121.7434260202509
 20
-86.12765985684048
 30
0.0
 41
1.50000139391263
 42
1.499998500689492
 50
180.0
  0
INSERT
  5
150
  8
0
 62
     7
  2
_OPEN30
 10
-56.74342602025087
 20
-86.12765985684048
 30
0.0
 41
1.50000139391263
 42
1.499998500689492
 50
360.0
  0
TEXT
  5
151
  8
0
 62
     7
 10
-92.44342602025087
 20
-85.62765985684048
 30
0.0
 40
4.0
  1
65
 41
0.8000000000000007
  7
FDASTYLE1
 72
     5
 11
-86.04342602025086
 21
-85.62765985684048
 31
0.0
  0
ENDBLK
  5
99
  8
0
  0
BLOCK
  8
0
  2
DA_IMAGEDIMGROUP_24
 70
     0
 10
0.0
 20
0.0
 30
0.0
  3
DA_IMAGEDIMGROUP_24
  1

  0
LINE
  5
152
  8
0
  6
CONTINUOUS
 62
     7
 10
-65.74342602025087
 20
15.88030820841758
 30
0.0
 11
-30.90900889073054
 21
15.88030820841758
 31
0.0
  0
LINE
  5
153
  8
0
  6
CONTINUOUS
 62
     7
 10
-65.74342602025087
 20
65.88030820841757
 30
0.0
 11
-30.90900889073054
 21
65.88030820841757
 31
0.0
  0
LINE
  5
154
  8
0
  6
CONTINUOUS
 62
     7
 10
-31.90900889073054
 20
15.88030820841758
 30
0.0
 11
-31.90900889073054
 21
65.88030820841757
 31
0.0
  0
INSERT
  5
155
  8
0
 62
     7
  2
_OPEN30
 10
-31.90900889073054
 20
15.88030820841758
 30
0.0
 41
1.50000139391263
 42
1.499998500689492
 50
270.0
  0
INSERT
  5
156
  8
0
 62
     7
  2
_OPEN30
 10
-31.90900889073054
 20
65.88030820841757
 30
0.0
 41
1.50000139391263
 42
1.499998500689492
 50
90.0
  0
TEXT
  5
157
  8
0
 62
     7
 10
-32.40900889073055
 20
33.14913074173122
 30
0.0
 40
4.0
  1
φ50
 50
90.0
 41
0.7500000000000001
  7
FDASTYLE1
 72
     5
 11
-32.40900889073055
 21
42.74913074173122
 31
0.0
  0
TEXT
  5
158
  8
0
 62
     7
 10
-34.90900889073055
 20
43.24913074173122
 30
0.0
 40
2.6
  1
+0.3
 50
90.0
 41
0.8
  7
FDASTYLE1
 72
     5
 11
-34.90900889073055
 21
51.56913074173122
 31
0.0
  0
TEXT
  5
159
  8
0
 62
     7
 10
-32.20900889073054
 20
43.24913074173122
 30
0.0
 40
2.6
  1
　0
 50
90.0
 41
0.7272727272727266
  7
FDASTYLE1
 72
     5
 11
-32.20900889073054
 21
47.40913074173122
 31
0.0
  0
ENDBLK
  5
9C
  8
0
  0
BLOCK
  8
0
  2
DA_IMAGEDIMGROUP_25
 70
     0
 10
0.0
 20
0.0
 30
0.0
  3
DA_IMAGEDIMGROUP_25
  1

  0
LINE
  5
15A
  8
0
  6
CONTINUOUS
 62
     7
 10
-75.04342907200868
 20
89.38031278605429
 30
0.0
 11
-91.81539933150579
 21
89.38031278605429
 31
0.0
  0
LINE
  5
15B
  8
0
  6
CONTINUOUS
 62
     7
 10
-75.04342907200868
 20
133.3803204154488
 30
0.0
 11
-91.81539933150579
 21
133.3803204154488
 31
0.0
  0
LINE
  5
15C
  8
0
  6
CONTINUOUS
 62
     7
 10
-90.81539933150579
 20
89.38031278605429
 30
0.0
 11
-90.81539933150579
 21
133.3803204154488
 31
0.0
  0
INSERT
  5
15D
  8
0
 62
     7
  2
_OPEN30
 10
-90.81539933150579
 20
89.38031278605429
 30
0.0
 41
1.50000139391263
 42
1.499998500689492
 50
270.0
  0
INSERT
  5
15E
  8
0
 62
     7
  2
_OPEN30
 10
-90.81539933150579
 20
133.3803204154488
 30
0.0
 41
1.50000139391263
 42
1.499998500689492
 50
90.0
  0
TEXT
  5
15F
  8
0
 62
     7
 10
-91.31539933150579
 20
108.1803166007516
 30
0.0
 40
4.0
  1
44
 50
90.0
 41
0.8000000000000007
  7
FDASTYLE1
 72
     5
 11
-91.31539933150579
 21
114.5803166007516
 31
0.0
  0
ENDBLK
  5
9F
  8
0
  0
BLOCK
  8
0
  2
DA_IMAGEDIMGROUP_26
 70
     0
 10
0.0
 20
0.0
 30
0.0
  3
DA_IMAGEDIMGROUP_26
  1

  0
LINE
  5
160
  8
0
  6
CONTINUOUS
 62
     7
 10
-53.74342602025087
 20
82.88030820841757
 30
0.0
 11
-0.4469477487664904
 21
82.88030820841757
 31
0.0
  0
LINE
  5
161
  8
0
  6
CONTINUOUS
 62
     7
 10
-21.94749325047548
 20
98.88031278605429
 30
0.0
 11
-0.4469477487664904
 21
98.88031278605429
 31
0.0
  0
LINE
  5
162
  8
0
  6
CONTINUOUS
 62
     7
 10
-21.94749325047548
 20
123.8803127860543
 30
0.0
 11
-0.4469477487664904
 21
123.8803127860543
 31
0.0
  0
LINE
  5
163
  8
0
  6
CONTINUOUS
 62
     7
 10
-1.44694774876649
 20
82.88030820841757
 30
0.0
 11
-1.44694774876649
 21
98.88031278605429
 31
0.0
  0
INSERT
  5
164
  8
0
 62
     7
  2
_OPEN30
 10
-1.44694774876649
 20
82.88030820841757
 30
0.0
 41
1.50000139391263
 42
1.499998500689492
 50
270.0
  0
INSERT
  5
165
  8
0
 62
     7
  2
_OPEN30
 10
-1.44694774876649
 20
98.88031278605429
 30
0.0
 41
1.50000139391263
 42
1.499998500689492
 50
90.0
  0
LINE
  5
166
  8
0
  6
CONTINUOUS
 62
     7
 10
-1.44694774876649
 20
98.88031278605429
 30
0.0
 11
-1.44694774876649
 21
123.8803127860543
 31
0.0
  0
INSERT
  5
167
  8
0
 62
     7
  2
_OPEN30
 10
-1.44694774876649
 20
98.88031278605429
 30
0.0
 41
1.50000139391263
 42
1.499998500689492
 50
270.0
  0
INSERT
  5
168
  8
0
 62
     7
  2
_OPEN30
 10
-1.44694774876649
 20
123.8803127860543
 30
0.0
 41
1.50000139391263
 42
1.499998500689492
 50
90.0
  0
TEXT
  5
169
  8
0
 62
     7
 10
-1.94694774876649
 20
84.48031049723593
 30
0.0
 40
4.0
  1
15.5
 50
90.0
 41
0.8000000000000007
  7
FDASTYLE1
 72
     5
 11
-1.94694774876649
 21
97.28031049723595
 31
0.0
  0
TEXT
  5
16A
  8
0
 62
     7
 10
-1.94694774876649
 20
108.1803127860543
 30
0.0
 40
4.0
  1
25
 50
90.0
 41
0.8000000000000007
  7
FDASTYLE1
 72
     5
 11
-1.94694774876649
 21
114.5803127860543
 31
0.0
  0
ENDBLK
  5
A2
  8
0
  0
BLOCK
  8
0
  2
DC_GROUP_4
 70
     0
 10
0.0
 20
0.0
 30
0.0
  3
DC_GROUP_4
  1

  0
LINE
  5
16B
  8
LAYER0014
  6
CONTINUOUS
 62
     7
 10
120.6752689829497
 20
-17.18974917086253
 30
0.0
 11
85.4944364671656
 21
-77.74693638703704
 31
0.0
  0
INSERT
  5
16C
  8
LAYER0014
 62
     7
  2
_OPEN30
 10
120.6752689829497
 20
-17.18974917086253
 30
0.0
 41
1.50000139391263
 42
1.499998500689492
 50
59.84545885978896
  0
LINE
  5
16D
  8
LAYER0014
  6
CONTINUOUS
 62
     7
 10
85.49443561304992
 20
-77.74693483357461
 30
0.0
 11
54.62666827906554
 21
-77.74693483357461
 31
0.0
  0
TEXT
  5
16E
  8
LAYER0014
 62
     7
 10
56.45523978938049
 20
-76.14693483357462
 30
0.0
 40
4.0
  1
PCD104.77
 41
0.7999999999999999
  7
FDASTYLE1
 72
     5
 11
85.25523978938048
 21
-76.14693483357462
 31
0.0
  0
ENDBLK
  5
A5
  8
0
  0
BLOCK
  8
0
  2
DA_IMAGEDIMGROUP_27
 70
     0
 10
0.0
 20
0.0
 30
0.0
  3
DA_IMAGEDIMGROUP_27
  1

  0
LINE
  5
16F
  8
LAYER0014
  6
CONTINUOUS
 62
     7
 10
120.5437027980962
 20
-26.46896382921892
 30
0.0
 11
106.8750402774194
 21
-77.48115653950319
 31
0.0
  0
ARC
  5
170
  8
LAYER0014
  6
CONTINUOUS
 62
     7
 10
138.5899174856085
 20
40.88031965250938
 30
0.0
 40
120.2508163452148
 50
254.9999936630142
 51
270.0000179860894
  0
INSERT
  5
171
  8
LAYER0014
 62
     7
  2
_OPEN30
 10
107.4667031796319
 20
-75.27304604541106
 30
0.0
 41
1.50000139391263
 42
1.499998500689492
 50
165.3573456571321
  0
INSERT
  5
172
  8
LAYER0014
 62
     7
  2
_OPEN30
 10
138.5899552343213
 20
-79.37049669269953
 30
0.0
 41
1.50000139391263
 42
1.499998500689492
 50
359.6426659919724
  0
TEXT
  5
173
  8
LAYER0014
 62
     7
 10
118.7971936790156
 20
-76.18856923981274
 30
0.0
 40
4.0
  1
15ﾟ
 50
-7.500000000000006
 41
0.8000000000000002
  7
FDASTYLE1
 72
     5
 11
128.3150643482042
 21
-77.44162068512523
 31
0.0
  0
ENDBLK
  5
A8
  8
0
  0
BLOCK
  8
0
  2
DA_IMAGEDIMGROUP_28
 70
     0
 10
0.0
 20
0.0
 30
0.0
  3
DA_IMAGEDIMGROUP_28
  1

  0
LINE
  5
174
  8
LAYER0014
  6
CONTINUOUS
 62
     7
 10
138.5895970510382
 20
-74.52188203816445
 30
0.0
 11
138.5895970510382
 21
-81.65649599080118
 31
0.0
  0
LINE
  5
175
  8
LAYER0014
  6
CONTINUOUS
 62
     7
 10
156.6584044914534
 20
-26.55230336466406
 30
0.0
 11
170.3047625405242
 21
-77.48115445795904
 31
0.0
  0
ARC
  5
176
  8
LAYER0014
  6
CONTINUOUS
 62
     7
 10
138.5899174856085
 20
40.880228099775
 30
0.0
 40
120.2507247924805
 50
270.0000179860894
 51
285.0000013280294
  0
INSERT
  5
177
  8
LAYER0014
 62
     7
  2
_OPEN30
 10
138.5899552342926
 20
-79.37049669269953
 30
0.0
 41
1.50000139391263
 42
1.499998500689492
 50
180.3573702522767
  0
INSERT
  5
178
  8
LAYER0014
 62
     7
  2
_OPEN30
 10
169.7130979415415
 20
-75.27305188587286
 30
0.0
 41
1.50000139391263
 42
1.499998500689492
 50
14.64264906184208
  0
TEXT
  5
179
  8
LAYER0014
 62
     7
 10
149.7712640143021
 20
-77.32227495443637
 30
0.0
 40
4.0
  1
15ﾟ
 50
7.499999999999999
 41
0.8000000000000013
  7
FDASTYLE1
 72
     5
 11
159.2891346834907
 21
-76.06922350912387
 31
0.0
  0
ENDBLK
  5
AB
  8
0
  0
BLOCK
  8
0
  2
DA_IMAGEDIMGROUP_29
 70
     0
 10
0.0
 20
0.0
 30
0.0
  3
DA_IMAGEDIMGROUP_29
  1

  0
LINE
  5
17A
  8
LAYER0014
  6
CONTINUOUS
 62
     7
 10
130.0899174856085
 20
143.4203082084176
 30
0.0
 11
130.0899174856085
 21
160.7699261283395
 31
0.0
  0
LINE
  5
17B
  8
LAYER0014
  6
CONTINUOUS
 62
     7
 10
147.0899174856085
 20
143.4203082084176
 30
0.0
 11
147.0899174856085
 21
160.7699261283395
 31
0.0
  0
LINE
  5
17C
  8
LAYER0014
  6
CONTINUOUS
 62
     7
 10
130.0899174856085
 20
158.4839459037301
 30
0.0
 11
147.0899174856085
 21
158.4839459037301
 31
0.0
  0
INSERT
  5
17D
  8
LAYER0014
 62
     7
  2
_OPEN30
 10
130.0899174856085
 20
158.4839459037301
 30
0.0
 41
1.50000139391263
 42
1.499998500689492
 50
180.0
  0
INSERT
  5
17E
  8
LAYER0014
 62
     7
  2
_OPEN30
 10
147.0899174856085
 20
158.4839459037301
 30
0.0
 41
1.50000139391263
 42
1.499998500689492
 50
360.0
  0
TEXT
  5
17F
  8
LAYER0014
 62
     7
 10
132.1899272333635
 20
158.9951160052718
 30
0.0
 40
4.0
  1
17H8
 50
-0.1000000000000078
 41
0.8000000000000025
  7
FDASTYLE1
 72
     5
 11
144.9899077378536
 21
158.9727758021883
 31
0.0
  0
ENDBLK
  5
AE
  8
0
  0
BLOCK
  8
0
  2
DA_IMAGEDIMGROUP_30
 70
     0
 10
0.0
 20
0.0
 30
0.0
  3
DA_IMAGEDIMGROUP_30
  1

  0
LINE
  5
180
  8
LAYER0014
  6
CONTINUOUS
 62
     7
 10
118.5899174856085
 20
143.9501543998238
 30
0.0
 11
118.5899174856085
 21
170.4366131400582
 31
0.0
  0
LINE
  5
181
  8
LAYER0014
  6
CONTINUOUS
 62
     7
 10
158.5899174856085
 20
143.9501543998238
 30
0.0
 11
158.5899174856085
 21
170.4366131400582
 31
0.0
  0
LINE
  5
182
  8
LAYER0014
  6
CONTINUOUS
 62
     7
 10
118.5899174856085
 20
168.1506023978707
 30
0.0
 11
158.5899174856085
 21
168.1506023978707
 31
0.0
  0
INSERT
  5
183
  8
LAYER0014
 62
     7
  2
_OPEN30
 10
118.5899174856085
 20
168.1506023978707
 30
0.0
 41
1.50000139391263
 42
1.499998500689492
 50
180.0
  0
INSERT
  5
184
  8
LAYER0014
 62
     7
  2
_OPEN30
 10
158.5899174856085
 20
168.1506023978707
 30
0.0
 41
1.50000139391263
 42
1.499998500689492
 50
360.0
  0
TEXT
  5
185
  8
LAYER0014
 62
     7
 10
135.389922359486
 20
168.6561874486416
 30
0.0
 40
4.0
  1
40
 50
-0.1000000000000078
 41
0.7999999999999954
  7
FDASTYLE1
 72
     5
 11
141.789912611731
 21
168.6450173470998
 31
0.0
  0
ENDBLK
  5
B1
  8
0
  0
BLOCK
  8
0
  2
DA_IMAGEDIMGROUP_31
 70
     0
 10
0.0
 20
0.0
 30
0.0
  3
DA_IMAGEDIMGROUP_31
  1

  0
LINE
  5
186
  8
LAYER0014
  6
CONTINUOUS
 62
     7
 10
237.8993460471918
 20
-16.45598021726912
 30
0.0
 11
244.2634411059007
 21
-20.13029679415441
 31
0.0
  0
LINE
  5
187
  8
LAYER0014
  6
CONTINUOUS
 62
     7
 10
256.3766978811163
 20
40.88060956950157
 30
0.0
 11
260.6111882375616
 21
40.88060956950157
 31
0.0
  0
ARC
  5
188
  8
LAYER0014
  6
CONTINUOUS
 62
     7
 10
138.5899785207648
 20
40.88030820841758
 30
0.0
 40
119.7351913452148
 50
329.999999165174
 51
360.0
  0
INSERT
  5
189
  8
LAYER0014
 62
     7
  2
_OPEN30
 10
242.2836950804128
 20
-18.98728897505536
 30
0.0
 41
1.50000139391263
 42
1.499998500689492
 50
240.3588900520749
  0
INSERT
  5
18A
  8
LAYER0014
 62
     7
  2
_OPEN30
 10
258.3251698659796
 20
40.88030820841755
 30
0.0
 41
1.50000139391263
 42
1.499998500689492
 50
89.64110911309794
  0
TEXT
  5
18B
  8
LAYER0014
 62
     7
 10
251.5757868845826
 20
6.109792318404587
 30
0.0
 40
4.0
  1
30ﾟ
 50
75.0
 41
0.800000000000002
  7
FDASTYLE1
 72
     5
 11
254.0604497175668
 21
15.38268025077966
 31
0.0
  0
ENDBLK
  5
B4
  8
0
  0
BLOCK
  8
0
  2
DA_IMAGEDIMGROUP_32
 70
     0
 10
0.0
 20
0.0
 30
0.0
  3
DA_IMAGEDIMGROUP_32
  1

  0
LINE
  5
18C
  8
LAYER0014
  6
CONTINUOUS
 62
     3
 10
138.5899174856085
 20
147.6579961966988
 30
0.0
 11
138.5899174856085
 21
147.8646221732613
 31
0.0
  0
LINE
  5
18D
  8
LAYER0014
  6
CONTINUOUS
 62
     7
 10
183.5899174856085
 20
130.4006854056832
 30
0.0
 11
183.5899174856085
 21
152.4366131400582
 31
0.0
  0
LINE
  5
18E
  8
LAYER0014
  6
CONTINUOUS
 62
     7
 10
138.5899174856085
 20
150.1506023978707
 30
0.0
 11
183.5899174856085
 21
150.1506023978707
 31
0.0
  0
INSERT
  5
18F
  8
LAYER0014
 62
     7
  2
_OPEN30
 10
138.5899174856085
 20
150.1506023978707
 30
0.0
 41
1.50000139391263
 42
1.499998500689492
 50
180.0
  0
INSERT
  5
190
  8
LAYER0014
 62
     7
  2
_OPEN30
 10
183.5899174856085
 20
150.1506023978707
 30
0.0
 41
1.50000139391263
 42
1.499998500689492
 50
360.0
  0
TEXT
  5
191
  8
LAYER0014
 62
     7
 10
163.9634429674431
 20
151.7553871481868
 30
0.0
 40
4.0
  1
45
 50
-0.1000000000000078
 41
0.7999999999999954
  7
FDASTYLE1
 72
     5
 11
170.3634332196881
 21
151.7442170466451
 31
0.0
  0
ENDBLK
  5
B7
  8
0
  0
BLOCK
  8
0
  2
DA_IMAGEDIMGROUP_33
 70
     0
 10
0.0
 20
0.0
 30
0.0
  3
DA_IMAGEDIMGROUP_33
  1

  0
LINE
  5
192
  8
LAYER0014
  6
CONTINUOUS
 62
     7
 10
199.0943797658819
 20
114.8803082084176
 30
0.0
 11
260.6561711477179
 21
114.8803082084176
 31
0.0
  0
LINE
  5
193
  8
LAYER0014
  6
CONTINUOUS
 62
     7
 10
258.3701604055304
 20
114.8803082084176
 30
0.0
 11
258.3701604055304
 21
40.88030820841758
 31
0.0
  0
INSERT
  5
194
  8
LAYER0014
 62
     7
  2
_OPEN30
 10
258.3701604055304
 20
114.8803082084176
 30
0.0
 41
1.50000139391263
 42
1.499998500689492
 50
90.0
  0
INSERT
  5
195
  8
LAYER0014
 62
     7
  2
_OPEN30
 10
258.3701604055304
 20
40.88030820841758
 30
0.0
 41
1.50000139391263
 42
1.499998500689492
 50
270.0
  0
TEXT
  5
196
  8
LAYER0014
 62
     7
 10
257.8645753547596
 20
74.68031308229506
 30
0.0
 40
4.0
  1
74
 50
89.90000000000001
 41
0.7999999999999972
  7
FDASTYLE1
 72
     5
 11
257.8757454563013
 21
81.08030333454008
 31
0.0
  0
ENDBLK
  5
BA
  8
0
  0
BLOCK
  8
0
  2
DC_GROUP_5
 70
     0
 10
0.0
 20
0.0
 30
0.0
  3
DC_GROUP_5
  1

  0
LINE
  5
197
  8
LAYER0014
  6
CONTINUOUS
 62
     7
 10
149.8965185655224
 20
1.842510123073943
 30
0.0
 11
186.4230699374138
 21
-77.9391841141107
 31
0.0
  0
INSERT
  5
198
  8
LAYER0014
 62
     7
  2
_OPEN30
 10
149.8965185655224
 20
1.842510123073943
 30
0.0
 41
1.50000139391263
 42
1.499998500689492
 50
114.5997861906318
  0
LINE
  5
199
  8
LAYER0014
  6
CONTINUOUS
 62
     7
 10
186.4230626272101
 20
-77.93918794636758
 30
0.0
 11
220.6830723928351
 21
-77.93918794636758
 31
0.0
  0
TEXT
  5
19A
  8
LAYER0014
 62
     7
 10
187.7687810109991
 20
-76.33918794636759
 30
0.0
 40
4.0
  1
3-M6 PCD75
 41
0.8
  7
FDASTYLE1
 72
     5
 11
219.7687810109991
 21
-76.33918794636759
 31
0.0
  0
ENDBLK
  5
BD
  8
0
  0
BLOCK
  8
0
  2
DA_IMAGEDIMGROUP_34
 70
     0
 10
0.0
 20
0.0
 30
0.0
  3
DA_IMAGEDIMGROUP_34
  1

  0
LINE
  5
19B
  8
0
  6
CONTINUOUS
 62
     7
 10
-170.7434260202509
 20
-52.61969179158242
 30
0.0
 11
-170.7434260202509
 21
-74.44855447239424
 31
0.0
  0
LINE
  5
19C
  8
0
  6
CONTINUOUS
 62
     7
 10
-187.7434260202509
 20
-17.50469011311562
 30
0.0
 11
-187.7434260202509
 21
-74.44855447239424
 31
0.0
  0
LINE
  5
19D
  8
0
  6
CONTINUOUS
 62
     7
 10
-187.7434260202509
 20
-73.44855447239424
 30
0.0
 11
-170.7434260202509
 21
-73.44855447239424
 31
0.0
  0
INSERT
  5
19E
  8
0
 62
     7
  2
_OPEN30
 10
-187.7434260202509
 20
-73.44855447239424
 30
0.0
 41
1.50000139391263
 42
1.499998500689492
 50
180.0
  0
INSERT
  5
19F
  8
0
 62
     7
  2
_OPEN30
 10
-170.7434260202509
 20
-73.44855447239424
 30
0.0
 41
1.50000139391263
 42
1.499998500689492
 50
360.0
  0
TEXT
  5
1A0
  8
0
 62
     7
 10
-182.4434260202509
 20
-72.94855447239424
 30
0.0
 40
4.0
  1
17
 41
0.7999999999999972
  7
FDASTYLE1
 72
     5
 11
-176.0434260202509
 21
-72.94855447239424
 31
0.0
  0
ENDBLK
  5
C0
  8
0
  0
BLOCK
  8
0
  2
DC_GROUP_6
 70
     0
 10
0.0
 20
0.0
 30
0.0
  3
DC_GROUP_6
  1

  0
LINE
  5
1A1
  8
0
  6
CONTINUOUS
 62
     3
 10
-241.2311518686597
 20
-129.5120914443573
 30
0.0
 11
-238.9645554071059
 21
-129.555336749333
 31
0.0
  0
LINE
  5
1A2
  8
0
  6
CONTINUOUS
 62
     3
 10
-238.9645554071059
 20
-129.555336749333
 30
0.0
 11
-236.6980396420668
 21
-129.6005101458711
 31
0.0
  0
LINE
  5
1A3
  8
0
  6
CONTINUOUS
 62
     3
 10
-236.6980396420668
 20
-129.6005101458711
 30
0.0
 11
-234.4316852700567
 21
-129.6495397255344
 31
0.0
  0
LINE
  5
1A4
  8
0
  6
CONTINUOUS
 62
     3
 10
-234.4316852700567
 20
-129.6495397255344
 30
0.0
 11
-232.1655729875901
 21
-129.7043535798852
 31
0.0
  0
LINE
  5
1A5
  8
0
  6
CONTINUOUS
 62
     3
 10
-232.1655729875901
 20
-129.7043535798852
 30
0.0
 11
-229.8997834911818
 21
-129.7668798004861
 31
0.0
  0
LINE
  5
1A6
  8
0
  6
CONTINUOUS
 62
     3
 10
-229.8997834911818
 20
-129.7668798004861
 30
0.0
 11
-227.6343974773461
 21
-129.8390464788996
 31
0.0
  0
LINE
  5
1A7
  8
0
  6
CONTINUOUS
 62
     3
 10
-227.6343974773461
 20
-129.8390464788996
 30
0.0
 11
-225.3694956425977
 21
-129.9227817066881
 31
0.0
  0
LINE
  5
1A8
  8
0
  6
CONTINUOUS
 62
     3
 10
-225.3694956425977
 20
-129.9227817066881
 30
0.0
 11
-223.105158683451
 21
-130.0200135754144
 31
0.0
  0
LINE
  5
1A9
  8
0
  6
CONTINUOUS
 62
     3
 10
-223.105158683451
 20
-130.0200135754144
 30
0.0
 11
-220.8414673497408
 21
-130.1326684422582
 31
0.0
  0
LINE
  5
1AA
  8
0
  6
CONTINUOUS
 62
     3
 10
-220.8414673497408
 20
-130.1326684422582
 30
0.0
 11
-218.5785190050488
 21
-130.2621322578635
 31
0.0
  0
LINE
  5
1AB
  8
0
  6
CONTINUOUS
 62
     3
 10
-218.5785190050488
 20
-130.2621322578635
 30
0.0
 11
-216.3164511072222
 21
-130.4084867997006
 31
0.0
  0
LINE
  5
1AC
  8
0
  6
CONTINUOUS
 62
     3
 10
-216.3164511072222
 20
-130.4084867997006
 30
0.0
 11
-214.0554070415294
 21
-130.5716210400092
 31
0.0
  0
LINE
  5
1AD
  8
0
  6
CONTINUOUS
 62
     3
 10
-214.0554070415294
 20
-130.5716210400092
 30
0.0
 11
-211.7955301932391
 21
-130.7514239510294
 31
0.0
  0
LINE
  5
1AE
  8
0
  6
CONTINUOUS
 62
     3
 10
-211.7955301932391
 20
-130.7514239510294
 30
0.0
 11
-209.5369639476199
 21
-130.947784505001
 31
0.0
  0
LINE
  5
1AF
  8
0
  6
CONTINUOUS
 62
     3
 10
-209.5369639476199
 20
-130.947784505001
 30
0.0
 11
-207.2798516899404
 21
-131.1605916741642
 31
0.0
  0
LINE
  5
1B0
  8
0
  6
CONTINUOUS
 62
     3
 10
-207.2798516899404
 20
-131.1605916741642
 30
0.0
 11
-205.024336805469
 21
-131.3897344307589
 31
0.0
  0
LINE
  5
1B1
  8
0
  6
CONTINUOUS
 62
     3
 10
-205.024336805469
 20
-131.3897344307589
 30
0.0
 11
-202.7705626794744
 21
-131.6351017470249
 31
0.0
  0
LINE
  5
1B2
  8
0
  6
CONTINUOUS
 62
     3
 10
-202.7705626794744
 20
-131.6351017470249
 30
0.0
 11
-200.5186720890216
 21
-131.8965811054399
 31
0.0
  0
LINE
  5
1B3
  8
0
  6
CONTINUOUS
 62
     3
 10
-200.5186720890216
 20
-131.8965811054399
 30
0.0
 11
-198.2687664681691
 21
-132.1739587210127
 31
0.0
  0
LINE
  5
1B4
  8
0
  6
CONTINUOUS
 62
     3
 10
-198.2687664681691
 20
-132.1739587210127
 30
0.0
 11
-196.0208802126061
 21
-132.466856601871
 31
0.0
  0
LINE
  5
1B5
  8
0
  6
CONTINUOUS
 62
     3
 10
-196.0208802126061
 20
-132.466856601871
 30
0.0
 11
-193.7750415913047
 21
-132.7748817490798
 31
0.0
  0
LINE
  5
1B6
  8
0
  6
CONTINUOUS
 62
     3
 10
-193.7750415913047
 20
-132.7748817490798
 30
0.0
 11
-191.5312788732371
 21
-133.0976411637043
 31
0.0
  0
LINE
  5
1B7
  8
0
  6
CONTINUOUS
 62
     3
 10
-191.5312788732371
 20
-133.0976411637043
 30
0.0
 11
-189.2896203273755
 21
-133.4347418468094
 31
0.0
  0
LINE
  5
1B8
  8
0
  6
CONTINUOUS
 62
     3
 10
-189.2896203273755
 20
-133.4347418468094
 30
0.0
 11
-187.0500942226921
 21
-133.7857907994602
 31
0.0
  0
LINE
  5
1B9
  8
0
  6
CONTINUOUS
 62
     3
 10
-187.0500942226921
 20
-133.7857907994602
 30
0.0
 11
-184.8127288281593
 21
-134.1503950227219
 31
0.0
  0
LINE
  5
1BA
  8
0
  6
CONTINUOUS
 62
     3
 10
-184.8127288281593
 20
-134.1503950227219
 30
0.0
 11
-182.5775524127492
 21
-134.5281615176595
 31
0.0
  0
LINE
  5
1BB
  8
0
  6
CONTINUOUS
 62
     3
 10
-182.5775524127492
 20
-134.5281615176595
 30
0.0
 11
-180.3445938637684
 21
-134.9187026209002
 31
0.0
  0
LINE
  5
1BC
  8
0
  6
CONTINUOUS
 62
     3
 10
-180.3445938637684
 20
-134.9187026209002
 30
0.0
 11
-178.1139065156343
 21
-135.32184162144
 31
0.0
  0
LINE
  5
1BD
  8
0
  6
CONTINUOUS
 62
     3
 10
-178.1139065156343
 20
-135.32184162144
 30
0.0
 11
-175.8855756993018
 21
-135.7376779041
 31
0.0
  0
LINE
  5
1BE
  8
0
  6
CONTINUOUS
 62
     3
 10
-175.8855756993018
 20
-135.7376779041
 30
0.0
 11
-173.659688908307
 21
-136.1663295144622
 31
0.0
  0
LINE
  5
1BF
  8
0
  6
CONTINUOUS
 62
     3
 10
-173.659688908307
 20
-136.1663295144622
 30
0.0
 11
-171.4363336361865
 21
-136.6079144981086
 31
0.0
  0
LINE
  5
1C0
  8
0
  6
CONTINUOUS
 62
     3
 10
-171.4363336361865
 20
-136.6079144981086
 30
0.0
 11
-169.2155973764762
 21
-137.0625509006211
 31
0.0
  0
LINE
  5
1C1
  8
0
  6
CONTINUOUS
 62
     3
 10
-169.2155973764762
 20
-137.0625509006211
 30
0.0
 11
-166.9975676227124
 21
-137.5303567675817
 31
0.0
  0
LINE
  5
1C2
  8
0
  6
CONTINUOUS
 62
     3
 10
-166.9975676227124
 20
-137.5303567675817
 30
0.0
 11
-164.7823318684315
 21
-138.0114501445723
 31
0.0
  0
LINE
  5
1C3
  8
0
  6
CONTINUOUS
 62
     3
 10
-164.7823318684315
 20
-138.0114501445723
 30
0.0
 11
-162.5699776071697
 21
-138.5059490771751
 31
0.0
  0
LINE
  5
1C4
  8
0
  6
CONTINUOUS
 62
     3
 10
-162.5699776071697
 20
-138.5059490771751
 30
0.0
 11
-160.3605936308159
 21
-139.0139733589374
 31
0.0
  0
LINE
  5
1C5
  8
0
  6
CONTINUOUS
 62
     3
 10
-160.3605936308159
 20
-139.0139733589374
 30
0.0
 11
-158.1543209811671
 21
-139.5357131271943
 31
0.0
  0
LINE
  5
1C6
  8
0
  6
CONTINUOUS
 62
     3
 10
-158.1543209811671
 20
-139.5357131271943
 30
0.0
 11
-155.9513696204695
 21
-140.0714513065327
 31
0.0
  0
LINE
  5
1C7
  8
0
  6
CONTINUOUS
 62
     3
 10
-155.9513696204695
 20
-140.0714513065327
 30
0.0
 11
-153.7519542237804
 21
-140.621477166374
 31
0.0
  0
LINE
  5
1C8
  8
0
  6
CONTINUOUS
 62
     3
 10
-153.7519542237804
 20
-140.621477166374
 30
0.0
 11
-151.5562894661579
 21
-141.1860799761397
 31
0.0
  0
LINE
  5
1C9
  8
0
  6
CONTINUOUS
 62
     3
 10
-151.5562894661579
 20
-141.1860799761397
 30
0.0
 11
-149.364590022659
 21
-141.765549005251
 31
0.0
  0
LINE
  5
1CA
  8
0
  6
CONTINUOUS
 62
     3
 10
-149.364590022659
 20
-141.765549005251
 30
0.0
 11
-147.1770705683417
 21
-142.3601735231294
 31
0.0
  0
LINE
  5
1CB
  8
0
  6
CONTINUOUS
 62
     3
 10
-147.1770705683417
 20
-142.3601735231294
 30
0.0
 11
-144.9939457782634
 21
-142.9702427991962
 31
0.0
  0
LINE
  5
1CC
  8
0
  6
CONTINUOUS
 62
     3
 10
-144.9939457782634
 20
-142.9702427991962
 30
0.0
 11
-142.8154303274817
 21
-143.5960461028728
 31
0.0
  0
LINE
  5
1CD
  8
0
  6
CONTINUOUS
 62
     3
 10
-142.8154303274817
 20
-143.5960461028728
 30
0.0
 11
-140.6417363864973
 21
-144.2378659071703
 31
0.0
  0
LINE
  5
1CE
  8
0
  6
CONTINUOUS
 62
     3
 10
-140.6417363864973
 20
-144.2378659071703
 30
0.0
 11
-138.4728286225209
 21
-144.8953130557866
 31
0.0
  0
LINE
  5
1CF
  8
0
  6
CONTINUOUS
 62
     3
 10
-138.4728286225209
 20
-144.8953130557866
 30
0.0
 11
-136.3082183235621
 21
-145.5667680945848
 31
0.0
  0
LINE
  5
1D0
  8
0
  6
CONTINUOUS
 62
     3
 10
-136.3082183235621
 20
-145.5667680945848
 30
0.0
 11
-134.1473683064938
 21
-146.2504800372923
 31
0.0
  0
LINE
  5
1D1
  8
0
  6
CONTINUOUS
 62
     3
 10
-134.1473683064938
 20
-146.2504800372923
 30
0.0
 11
-131.9897413881886
 21
-146.9446978976363
 31
0.0
  0
LINE
  5
1D2
  8
0
  6
CONTINUOUS
 62
     3
 10
-131.9897413881886
 20
-146.9446978976363
 30
0.0
 11
-129.8348003855196
 21
-147.647670689344
 31
0.0
  0
LINE
  5
1D3
  8
0
  6
CONTINUOUS
 62
     3
 10
-129.8348003855196
 20
-147.647670689344
 30
0.0
 11
-127.6820081153594
 21
-148.3576474261427
 31
0.0
  0
LINE
  5
1D4
  8
0
  6
CONTINUOUS
 62
     3
 10
-127.6820081153594
 20
-148.3576474261427
 30
0.0
 11
-125.5308273945808
 21
-149.0728771217597
 31
0.0
  0
LINE
  5
1D5
  8
0
  6
CONTINUOUS
 62
     3
 10
-125.5308273945808
 20
-149.0728771217597
 30
0.0
 11
-123.3807210400567
 21
-149.7916087899221
 31
0.0
  0
LINE
  5
1D6
  8
0
  6
CONTINUOUS
 62
     3
 10
-123.3807210400567
 20
-149.7916087899221
 30
0.0
 11
-121.2311518686597
 21
-150.5120914443573
 31
0.0
  0
ENDBLK
  5
C3
  8
0
  0
BLOCK
  8
0
  2
_OPEN30
 70
     0
 10
0.0
 20
0.0
 30
0.0
  3
_OPEN30
  1

  0
LINE
  5
CA
  8
0
  6
BYBLOCK
 62
     0
 10
-1.0
 20
0.267949
 30
0.0
 11
0.0
 21
0.0
 31
0.0
  0
LINE
  5
CB
  8
0
  6
BYBLOCK
 62
     0
 10
0.0
 20
0.0
 30
0.0
 11
-1.0
 21
-0.267949
 31
0.0
  0
LINE
  5
CC
  8
0
  6
BYBLOCK
 62
     0
 10
0.0
 20
0.0
 30
0.0
 11
-1.0
 21
0.0
 31
0.0
  0
ENDBLK
  5
C9
  8
0
  0
ENDSEC
  0
SECTION
  2
ENTITIES
  0
LINE
  5
1D7
  8
ZUWAKU
  6
CONTINUOUS
 62
     3
 10
-277.0
 20
-190.0
 30
0.0
 11
-277.0
 21
190.0
 31
0.0
  0
LINE
  5
1D8
  8
ZUWAKU
  6
CONTINUOUS
 62
     3
 10
277.0
 20
-190.0
 30
0.0
 11
277.0
 21
190.0
 31
0.0
  0
LINE
  5
1D9
  8
ZUWAKU
  6
CONTINUOUS
 62
     3
 10
-277.0
 20
-190.0
 30
0.0
 11
277.0
 21
-190.0
 31
0.0
  0
LINE
  5
1DA
  8
ZUWAKU
  6
CONTINUOUS
 62
     3
 10
-277.0
 20
189.9999999999999
 30
0.0
 11
277.0
 21
189.9999999999999
 31
0.0
  0
LINE
  5
1DB
  8
ZUWAKU
  6
CONTINUOUS
 62
     3
 10
97.00000000000001
 20
-190.0
 30
0.0
 11
97.00000000000001
 21
-130.0
 31
0.0
  0
LINE
  5
1DC
  8
ZUWAKU
  6
CONTINUOUS
 62
     3
 10
97.00000000000001
 20
-176.0
 30
0.0
 11
277.0
 21
-176.0
 31
0.0
  0
LINE
  5
1DD
  8
ZUWAKU
  6
CONTINUOUS
 62
     3
 10
146.0
 20
-162.0
 30
0.0
 11
277.0
 21
-162.0
 31
0.0
  0
LINE
  5
1DE
  8
ZUWAKU
  6
CONTINUOUS
 62
     3
 10
146.0
 20
-148.0
 30
0.0
 11
277.0
 21
-148.0
 31
0.0
  0
LINE
  5
1DF
  8
ZUWAKU
  6
CONTINUOUS
 62
     3
 10
146.0
 20
-138.0
 30
0.0
 11
277.0
 21
-138.0
 31
0.0
  0
LINE
  5
1E0
  8
ZUWAKU
  6
CONTINUOUS
 62
     3
 10
146.0
 20
-176.0
 30
0.0
 11
146.0
 21
-130.0
 31
0.0
  0
LINE
  5
1E1
  8
ZUWAKU
  6
CONTINUOUS
 62
     3
 10
255.0
 20
-176.0
 30
0.0
 11
255.0
 21
-130.0
 31
0.0
  0
LINE
  5
1E2
  8
ZUWAKU
  6
CONTINUOUS
 62
     3
 10
171.0
 20
-190.0
 30
0.0
 11
171.0
 21
-176.0
 31
0.0
  0
LINE
  5
1E3
  8
ZUWAKU
  6
CONTINUOUS
 62
     3
 10
97.00000000000001
 20
-130.0
 30
0.0
 11
277.0
 21
-130.0
 31
0.0
  0
LINE
  5
1E4
  8
ZUWAKU
  6
CONTINUOUS
 62
     3
 10
226.0
 20
-176.0
 30
0.0
 11
226.0
 21
-148.0
 31
0.0
  0
LINE
  5
1E5
  8
ZUWAKU
  6
CONTINUOUS
 62
     4
 10
105.0
 20
-172.0
 30
0.0
 11
105.0
 21
-130.0
 31
0.0
  0
LINE
  5
1E6
  8
ZUWAKU
  6
CONTINUOUS
 62
     4
 10
109.0
 20
-172.0
 30
0.0
 11
109.0
 21
-130.0
 31
0.0
  0
LINE
  5
1E7
  8
ZUWAKU
  6
CONTINUOUS
 62
     4
 10
121.5
 20
-176.0
 30
0.0
 11
121.5
 21
-130.0
 31
0.0
  0
LINE
  5
1E8
  8
ZUWAKU
  6
CONTINUOUS
 62
     4
 10
97.00000000000001
 20
-137.0
 30
0.0
 11
146.0
 21
-137.0
 31
0.0
  0
LINE
  5
1E9
  8
ZUWAKU
  6
CONTINUOUS
 62
     4
 10
97.00000000000001
 20
-144.0
 30
0.0
 11
146.0
 21
-144.0
 31
0.0
  0
LINE
  5
1EA
  8
ZUWAKU
  6
CONTINUOUS
 62
     4
 10
97.00000000000001
 20
-165.0
 30
0.0
 11
146.0
 21
-165.0
 31
0.0
  0
LINE
  5
1EB
  8
ZUWAKU
  6
CONTINUOUS
 62
     4
 10
97.00000000000001
 20
-172.0
 30
0.0
 11
146.0
 21
-172.0
 31
0.0
  0
LINE
  5
1EC
  8
ZUWAKU
  6
CONTINUOUS
 62
     4
 10
255.0
 20
-166.0
 30
0.0
 11
277.0
 21
-166.0
 31
0.0
  0
LINE
  5
1ED
  8
ZUWAKU
  6
CONTINUOUS
 62
     4
 10
153.0
 20
-139.5
 30
0.0
 11
153.0
 21
-130.0
 31
0.0
  0
LINE
  5
1EE
  8
ZUWAKU
  6
CONTINUOUS
 62
     4
 10
202.0
 20
-148.0
 30
0.0
 11
202.0
 21
-146.5
 31
0.0
  0
LINE
  5
1EF
  8
ZUWAKU
  6
CONTINUOUS
 62
     4
 10
226.0
 20
-148.0
 30
0.0
 11
226.0
 21
-146.5
 31
0.0
  0
LINE
  5
1F0
  8
ZUWAKU
  6
CONTINUOUS
 62
     4
 10
243.0
 20
-148.0
 30
0.0
 11
243.0
 21
-146.5
 31
0.0
  0
LINE
  5
1F1
  8
ZUWAKU
  6
CONTINUOUS
 62
     4
 10
202.0
 20
-139.5
 30
0.0
 11
202.0
 21
-130.0
 31
0.0
  0
LINE
  5
1F2
  8
ZUWAKU
  6
CONTINUOUS
 62
     4
 10
226.0
 20
-139.5
 30
0.0
 11
226.0
 21
-130.0
 31
0.0
  0
LINE
  5
1F3
  8
ZUWAKU
  6
CONTINUOUS
 62
     4
 10
243.0
 20
-139.5
 30
0.0
 11
243.0
 21
-130.0
 31
0.0
  0
LINE
  5
1F4
  8
ZUWAKU
  6
CONTINUOUS
 62
     4
 10
97.00000000000001
 20
-151.0
 30
0.0
 11
146.0
 21
-151.0
 31
0.0
  0
LINE
  5
1F5
  8
ZUWAKU
  6
CONTINUOUS
 62
     4
 10
97.00000000000001
 20
-158.0
 30
0.0
 11
146.0
 21
-158.0
 31
0.0
  0
LINE
  5
1F6
  8
ZUWAKU
  6
CONTINUOUS
 62
     4
 10
101.0
 20
-130.5
 30
0.0
 11
98.00000000000001
 21
-136.5
 31
0.0
  0
LINE
  5
1F7
  8
ZUWAKU
  6
CONTINUOUS
 62
     4
 10
101.0
 20
-130.5
 30
0.0
 11
104.0
 21
-136.5
 31
0.0
  0
LINE
  5
1F8
  8
ZUWAKU
  6
CONTINUOUS
 62
     4
 10
98.00000000000001
 20
-136.5
 30
0.0
 11
104.0
 21
-136.5
 31
0.0
  0
LINE
  5
1F9
  8
ZUWAKU
  6
CONTINUOUS
 62
     4
 10
101.0
 20
-158.5
 30
0.0
 11
98.00000000000001
 21
-164.5
 31
0.0
  0
LINE
  5
1FA
  8
ZUWAKU
  6
CONTINUOUS
 62
     4
 10
101.0
 20
-158.5
 30
0.0
 11
104.0
 21
-164.5
 31
0.0
  0
LINE
  5
1FB
  8
ZUWAKU
  6
CONTINUOUS
 62
     4
 10
98.00000000000001
 20
-164.5
 30
0.0
 11
104.0
 21
-164.5
 31
0.0
  0
LINE
  5
1FC
  8
ZUWAKU
  6
CONTINUOUS
 62
     4
 10
101.0
 20
-151.5
 30
0.0
 11
98.00000000000001
 21
-157.5
 31
0.0
  0
LINE
  5
1FD
  8
ZUWAKU
  6
CONTINUOUS
 62
     4
 10
101.0
 20
-151.5
 30
0.0
 11
104.0
 21
-157.5
 31
0.0
  0
LINE
  5
1FE
  8
ZUWAKU
  6
CONTINUOUS
 62
     4
 10
98.00000000000001
 20
-157.5
 30
0.0
 11
104.0
 21
-157.5
 31
0.0
  0
LINE
  5
1FF
  8
ZUWAKU
  6
CONTINUOUS
 62
     4
 10
101.0
 20
-144.5
 30
0.0
 11
98.00000000000001
 21
-150.5
 31
0.0
  0
LINE
  5
200
  8
ZUWAKU
  6
CONTINUOUS
 62
     4
 10
101.0
 20
-144.5
 30
0.0
 11
104.0
 21
-150.5
 31
0.0
  0
LINE
  5
201
  8
ZUWAKU
  6
CONTINUOUS
 62
     4
 10
98.00000000000001
 20
-150.5
 30
0.0
 11
104.0
 21
-150.5
 31
0.0
  0
LINE
  5
202
  8
ZUWAKU
  6
CONTINUOUS
 62
     4
 10
101.0
 20
-137.5
 30
0.0
 11
98.00000000000001
 21
-143.5
 31
0.0
  0
LINE
  5
203
  8
ZUWAKU
  6
CONTINUOUS
 62
     4
 10
101.0
 20
-137.5
 30
0.0
 11
104.0
 21
-143.5
 31
0.0
  0
LINE
  5
204
  8
ZUWAKU
  6
CONTINUOUS
 62
     4
 10
98.00000000000001
 20
-143.5
 30
0.0
 11
104.0
 21
-143.5
 31
0.0
  0
LINE
  5
205
  8
ZUWAKU
  6
CONTINUOUS
 62
     4
 10
172.6666666666666
 20
-176.0
 30
0.0
 11
172.6666666666666
 21
-162.0
 31
0.0
  0
LINE
  5
206
  8
ZUWAKU
  6
CONTINUOUS
 62
     4
 10
199.3333333333333
 20
-176.0
 30
0.0
 11
199.3333333333333
 21
-161.9509415757253
 31
0.0
  0
LINE
  5
207
  8
ZUWAKU
  6
CONTINUOUS
 62
     4
 10
212.6666666666666
 20
-167.5
 30
0.0
 11
212.6666666666666
 21
-161.9509415757253
 31
0.0
  0
LINE
  5
208
  8
ZUWAKU
  6
CONTINUOUS
 62
     4
 10
226.0
 20
-155.0
 30
0.0
 11
255.0
 21
-155.0
 31
0.0
  0
LINE
  5
209
  8
ZUWAKU
  6
CONTINUOUS
 62
     4
 10
146.0
 20
-166.0
 30
0.0
 11
226.0
 21
-166.0
 31
0.0
  0
TEXT
  5
20B
  8
ZUWAKU
 62
     7
 10
148.3132301474747
 20
-130.821188728956
 30
0.0
 40
2.6656
  1
符号
 41
0.8
  7
FDASTYLE0
  0
TEXT
  5
20C
  8
ZUWAKU
 62
     7
 10
162.4141311219058
 20
-135.8245525019963
 30
0.0
 40
4.0
  1
品       名
 41
0.765957446808511
  7
FDASTYLE1
 72
     5
 11
191.2141311219058
 21
-135.8245525019963
 31
0.0
  0
TEXT
  5
20D
  8
ZUWAKU
 62
     7
 10
207.2331564413096
 20
-135.8245525019963
 30
0.0
 40
4.0
  1
材  料
 41
0.7272727272727279
  7
FDASTYLE1
 72
     5
 11
220.0331564413096
 21
-135.8245525019963
 31
0.0
  0
TEXT
  5
20E
  8
ZUWAKU
 62
     7
 10
229.516061684855
 20
-135.8245525019963
 30
0.0
 40
4.0
  1
個 数
 41
0.7058823529411761
  7
FDASTYLE1
 72
     5
 11
239.116061684855
 21
-135.8245525019963
 31
0.0
  0
TEXT
  5
20F
  8
ZUWAKU
 62
     7
 10
245.721810952888
 20
-133.5649080050572
 30
0.0
 40
2.5
  1
単重量
 41
0.6666666666666666
  7
FDASTYLE1
 72
     5
 11
251.721810952888
 21
-133.5649080050572
 31
0.0
  0
TEXT
  5
210
  8
ZUWAKU
 62
     7
 10
244.7089516236359
 20
-137.3631304897525
 30
0.0
 40
2.5
  1
(kg)
 41
0.8
  7
FDASTYLE1
 72
     5
 11
252.7089516236359
 21
-137.3631304897525
 31
0.0
  0
TEXT
  5
211
  8
ZUWAKU
 62
     7
 10
259.1421970654778
 20
-135.8245525019963
 30
0.0
 40
4.0
  1
記  事
 41
0.7272727272727279
  7
FDASTYLE1
 72
     5
 11
271.9421970654778
 21
-135.8245525019963
 31
0.0
  0
TEXT
  5
212
  8
ZUWAKU
 62
     7
 10
258.8450794551645
 20
-165.4873041997729
 30
0.0
 40
3.0
  1
コード番号
 41
0.6666666666666666
  7
FDASTYLE1
 72
     5
 11
270.8450794551645
 21
-165.4873041997729
 31
0.0
  0
TEXT
  5
213
  8
ZUWAKU
 62
     7
 10
101.9119920158317
 20
-175.1879010540338
 30
0.0
 40
2.5
  1
訂 正 来 歴
 41
0.717948717948718
  7
FDASTYLE1
 72
     5
 11
115.9119920158317
 21
-175.1879010540338
 31
0.0
  0
TEXT
  5
214
  8
ZUWAKU
 62
     7
 10
125.890334846765
 20
-175.2166697391651
 30
0.0
 40
2.5
  1
工 事 番 号
 41
0.717948717948718
  7
FDASTYLE1
 72
     5
 11
139.890334846765
 21
-175.2166697391651
 31
0.0
  0
TEXT
  5
215
  8
ZUWAKU
 62
     7
 10
99.96483784660289
 20
-165.9634530565915
 30
0.0
 40
2.0825
  1
記号
 41
0.8
  7
FDASTYLE0
  0
TEXT
  5
216
  8
ZUWAKU
 62
     7
 10
105.9042249067618
 20
-165.9634530565915
 30
0.0
 40
2.0825
  1
理由
 41
0.8
  7
FDASTYLE0
  0
TEXT
  5
217
  8
ZUWAKU
 62
     7
 10
111.6193667909843
 20
-169.8786046700178
 30
0.0
 40
3.0
  1
日 付
 41
0.7058823529411754
  7
FDASTYLE1
 72
     5
 11
118.8193667909843
 21
-169.8786046700178
 31
0.0
  0
TEXT
  5
218
  8
ZUWAKU
 62
     7
 10
153.4481689819652
 20
-165.7187911464244
 30
0.0
 40
3.0
  1
承   認
 41
0.7407407407407408
  7
FDASTYLE1
 72
     5
 11
165.4481689819652
 21
-165.7187911464244
 31
0.0
  0
TEXT
  5
219
  8
ZUWAKU
 62
     7
 10
179.863228033234
 20
-165.4873041997729
 30
0.0
 40
3.0
  1
検   図
 41
0.7407407407407408
  7
FDASTYLE1
 72
     5
 11
191.863228033234
 21
-165.4873041997729
 31
0.0
  0
TEXT
  5
21A
  8
ZUWAKU
 62
     7
 10
201.4771920983751
 20
-165.4873041997729
 30
0.0
 40
3.0
  1
担  当
 41
0.7272727272727269
  7
FDASTYLE1
 72
     5
 11
211.0771920983751
 21
-165.4873041997729
 31
0.0
  0
TEXT
  5
21B
  8
ZUWAKU
 62
     7
 10
214.6770574841112
 20
-165.4873041997729
 30
0.0
 40
3.0
  1
製  図
 41
0.7272727272727269
  7
FDASTYLE1
 72
     5
 11
224.2770574841112
 21
-165.4873041997729
 31
0.0
  0
TEXT
  5
21C
  8
ZUWAKU
 62
     7
 10
226.9462372304199
 20
-153.2184960272417
 30
0.0
 40
3.0
  1
作図
 41
0.6666666666666683
  7
FDASTYLE1
 72
     5
 11
231.7462372304199
 21
-153.2184960272417
 31
0.0
  0
TEXT
  5
21D
  8
ZUWAKU
 62
     7
 10
228.1036719636776
 20
-160.2371566401815
 30
0.0
 40
4.0
  1
第 三 角 法
 41
0.7179487179487182
  7
FDASTYLE1
 72
     5
 11
250.5036719636776
 21
-160.2371566401815
 31
0.0
  0
TEXT
  5
21E
  8
ZUWAKU
 62
     7
 10
227.409211123723
 20
-166.413251986379
 30
0.0
 40
3.0
  1
尺度
 41
0.6666666666666683
  7
FDASTYLE1
 72
     5
 11
232.209211123723
 21
-166.413251986379
 31
0.0
  0
TEXT
  5
220
  8
ZUWAKU
 62
     3
 10
105.379154370034
 20
-185.9272077185017
 30
0.0
 40
7.0
  1
株式会社 野村製作所
 41
0.5763738641280831
  7
FDASTYLE2
 72
     5
 11
161.379154370034
 21
-185.9272077185017
 31
0.0
  0
TEXT
  5
222
  8
ZUWAKU
 62
     3
 10
183.6118217934165
 20
-187.1216685584563
 30
0.0
 40
8.0
  1
２－
 41
0.8244023083264632
  7
FDASTYLE3
 72
     5
 11
199.6118217934165
 21
-187.1216685584563
 31
0.0
  0
TEXT
  5
223
  8
ZUWAKU
 62
     3
 10
200.5237794178233
 20
-187.1216685584563
 30
0.0
 40
8.0
  1
9408011
 41
1.629422718808194
  7
FDASTYLE3
 72
     5
 11
256.5237794178233
 21
-187.1216685584563
 31
0.0
  0
TEXT
  5
224
  8
ZUWAKU
 62
     6
 10
165.7570051766932
 20
-145.3589000228561
 30
0.0
 40
5.0
  1
外　形　図
 41
0.5833333333333334
  7
FDASTYLE1
 72
     5
 11
183.2570051766932
 21
-145.3589000228561
 31
0.0
  0
TEXT
  5
225
  8
ZUWAKU
 62
     6
 10
155.3545934631717
 20
-157.829135039116
 30
0.0
 40
6.0
  1
MAC3-205A5型チャック
 41
0.65625
  7
FDASTYLE1
 72
     5
 11
218.3545934631717
 21
-157.829135039116
 31
0.0
  0
TEXT
  5
226
  8
ZUWAKU
 62
     4
 10
239.3011788906399
 20
-172.297487439201
 30
0.0
 40
3.0
  1
1/1
 41
0.7000000000000013
  7
FDASTYLE1
 72
     5
 11
245.6011788906399
 21
-172.297487439201
 31
0.0
  0
LINE
  5
227
  8
0
  6
CONTINUOUS
 62
     6
 10
-41.23482157528481
 20
-107.5442438683897
 30
0.0
 11
-26.38682963192544
 21
-107.5442438683897
 31
0.0
  0
LINE
  5
228
  8
0
  6
CONTINUOUS
 62
     6
 10
-41.23482157528481
 20
-114.3184632746204
 30
0.0
 11
82.47742818057456
 21
-114.3184632746204
 31
0.0
  0
LINE
  5
229
  8
0
  6
CONTINUOUS
 62
     6
 10
-41.23482157528481
 20
-121.1184586969837
 30
0.0
 11
82.47742818057456
 21
-121.1184586969837
 31
0.0
  0
LINE
  5
22A
  8
0
  6
CONTINUOUS
 62
     6
 10
-41.23482157528481
 20
-127.9184617487416
 30
0.0
 11
82.47742818057456
 21
-127.9184617487416
 31
0.0
  0
LINE
  5
22B
  8
0
  6
CONTINUOUS
 62
     6
 10
-41.23482157528481
 20
-134.7184800592884
 30
0.0
 11
82.47742818057456
 21
-134.7184800592884
 31
0.0
  0
LINE
  5
22C
  8
0
  6
CONTINUOUS
 62
     6
 10
-41.23482157528481
 20
-141.5184678522572
 30
0.0
 11
82.47742818057456
 21
-141.5184678522572
 31
0.0
  0
LINE
  5
22D
  8
0
  6
CONTINUOUS
 62
     6
 10
-41.23482157528481
 20
-148.318470904015
 30
0.0
 11
82.47742818057456
 21
-148.318470904015
 31
0.0
  0
LINE
  5
22E
  8
0
  6
CONTINUOUS
 62
     6
 10
-41.23482157528481
 20
-155.1184739557728
 30
0.0
 11
82.47742818057456
 21
-155.1184739557728
 31
0.0
  0
LINE
  5
22F
  8
0
  6
CONTINUOUS
 62
     6
 10
-41.23482157528481
 20
-175.5184678522572
 30
0.0
 11
82.47742818057456
 21
-175.5184678522572
 31
0.0
  0
LINE
  5
230
  8
0
  6
CONTINUOUS
 62
     6
 10
-41.23482157528481
 20
-161.9184770075306
 30
0.0
 11
82.47742818057456
 21
-161.9184770075306
 31
0.0
  0
LINE
  5
231
  8
0
  6
CONTINUOUS
 62
     6
 10
-41.23482157528481
 20
-168.7184800592884
 30
0.0
 11
82.47742818057456
 21
-168.7184800592884
 31
0.0
  0
TEXT
  5
232
  8
0
 62
     6
 10
-39.85194193661294
 20
-174.3145799128041
 30
0.0
 40
4.0
  1
アンバランス量
 41
0.6666666666666667
  7
FDASTYLE1
 72
     5
 11
-17.45194193661294
 21
-174.3145799128041
 31
0.0
  0
TEXT
  5
233
  8
0
 62
     6
 10
-39.85194193661294
 20
-167.5145616022572
 30
0.0
 40
4.0
  1
質 量
 41
0.7058823529411766
  7
FDASTYLE1
 72
     5
 11
-30.25194193661294
 21
-167.5145616022572
 31
0.0
  0
TEXT
  5
234
  8
0
 62
     6
 10
-39.85194193661294
 20
-160.7145585504994
 30
0.0
 40
4.0
  1
慣性モ－メント
 41
0.6666666666666667
  7
FDASTYLE1
 72
     5
 11
-17.45194193661294
 21
-160.7145585504994
 31
0.0
  0
TEXT
  5
235
  8
0
 62
     6
 10
-39.85194193661294
 20
-153.9145554987416
 30
0.0
 40
4.0
  1
最高使用回転速度
 41
0.6666666666666667
  7
FDASTYLE1
 72
     5
 11
-14.25194193661294
 21
-153.9145554987416
 31
0.0
  0
TEXT
  5
236
  8
0
 62
     6
 10
-39.85194193661294
 20
-147.1145524469837
 30
0.0
 40
4.0
  1
最大静的把握力
 41
0.6666666666666667
  7
FDASTYLE1
 72
     5
 11
-17.45194193661294
 21
-147.1145524469837
 31
0.0
  0
TEXT
  5
237
  8
0
 62
     6
 10
-39.85194193661294
 20
-140.3145493952259
 30
0.0
 40
4.0
  1
許容シリンダー力
 41
0.6666666666666667
  7
FDASTYLE1
 72
     5
 11
-14.25194193661294
 21
-140.3145493952259
 31
0.0
  0
TEXT
  5
238
  8
0
 62
     6
 10
-39.85194193661294
 20
-133.5145616022572
 30
0.0
 40
4.0
  1
適用シリンダー
 41
0.6666666666666667
  7
FDASTYLE1
 72
     5
 11
-17.45194193661294
 21
-133.5145616022572
 31
0.0
  0
TEXT
  5
239
  8
0
 62
     6
 10
-39.85194193661294
 20
-126.7145585504994
 30
0.0
 40
4.0
  1
ピストンストローク
 41
0.6666666666666669
  7
FDASTYLE1
 72
     5
 11
-11.05194193661293
 21
-126.7145585504994
 31
0.0
  0
TEXT
  5
23A
  8
0
 62
     6
 10
-39.85194193661294
 20
-113.1145524469837
 30
0.0
 40
4.0
  1
主軸端番号
 41
0.6666666666666666
  7
FDASTYLE1
 72
     5
 11
-23.85194193661294
 21
-113.1145524469837
 31
0.0
  0
TEXT
  5
23B
  8
0
 62
     6
 10
-39.85194193661294
 20
-119.9145554987415
 30
0.0
 40
4.0
  1
爪ﾉｽﾄﾛｰｸ       (直径ﾆﾃ)
 41
0.7766990291262136
  7
FDASTYLE1
 72
     5
 11
24.14805806338706
 21
-119.9145554987415
 31
0.0
  0
TEXT
  5
23C
  8
0
 62
     6
 10
-39.85194193661294
 20
-106.3403406701475
 30
0.0
 40
4.0
  1
仕 様
 41
0.7058823529411766
  7
FDASTYLE1
 72
     5
 11
-30.25194193661294
 21
-106.3403406701475
 31
0.0
  0
TEXT
  5
23D
  8
0
 62
     6
 10
-20.61636524282146
 20
-181.0140428034291
 30
0.0
 40
4.0
  1
※最高使用回転数は、ﾁｬｯｸ及びシリンダーの低い方で制限されます
 41
0.6808510638297872
  7
FDASTYLE1
 72
     5
 11
81.78363475717855
 21
-181.0140428034291
 31
0.0
  0
TEXT
  5
23E
  8
0
 62
     6
 10
69.36408436953941
 20
-113.1833848444447
 30
0.0
 40
4.0
  1
A5型
 41
0.7500000000000007
  7
FDASTYLE1
 72
     5
 11
78.96408436953942
 21
-113.1833848444447
 31
0.0
  0
TEXT
  5
23F
  8
0
 62
     6
 10
-5.333607522570503
 20
-140.4364823786244
 30
0.0
 40
3.0
  1
(52TS型 引側油圧力 2.8MPa)
 41
0.7547169811320756
  7
FDASTYLE1
 72
     5
 11
42.6663924774295
 21
-140.4364823786244
 31
0.0
  0
TEXT
  5
240
  8
0
 62
     6
 10
35.44743258078785
 20
-174.4017838922962
 30
0.0
 40
4.0
  1
外周ﾆﾃ  　　1.5g以内
 41
0.736842105263158
  7
FDASTYLE1
 72
     5
 11
80.24743258078786
 21
-174.4017838922962
 31
0.0
  0
TEXT
  5
241
  8
0
 62
     6
 10
60.82194916041512
 20
-167.599165566325
 30
0.0
 40
4.0
  1
22  kg
 41
0.8000000000000004
  7
FDASTYLE1
 72
     5
 11
80.02194916041513
 21
-167.599165566325
 31
0.0
  0
TEXT
  5
242
  8
0
 62
     6
 10
51.06851776949339
 20
-160.6222308341038
 30
0.0
 40
4.0
  1
0.108kg・m
 41
0.7826086956521741
  7
FDASTYLE1
 72
     5
 11
79.86851776949339
 21
-160.6222308341038
 31
0.0
  0
TEXT
  5
243
  8
0
 62
     6
 10
79.83418464301884
 20
-157.6900649182278
 30
0.0
 40
2.0
  1
2
 41
0.7999999999999972
  7
FDASTYLE1
 72
     5
 11
81.43418464301884
 21
-157.6900649182278
 31
0.0
  0
TEXT
  5
244
  8
0
 62
     6
 10
57.23940965728146
 20
-153.9287919489369
 30
0.0
 40
4.0
  1
6000min
 41
0.8000000000000005
  7
FDASTYLE1
 72
     5
 11
79.63940965728148
 21
-153.9287919489369
 31
0.0
  0
TEXT
  5
245
  8
0
 62
     6
 10
79.33303679635414
 20
-151.3904121192171
 30
0.0
 40
2.0
  1
-1
 41
0.8000000000000007
  7
FDASTYLE1
 72
     5
 11
82.53303679635414
 21
-151.3904121192171
 31
0.0
  0
TEXT
  5
246
  8
0
 62
     6
 10
53.72915422366237
 20
-147.1344956842884
 30
0.0
 40
4.0
  1
  86.3kN
 41
0.8000000000000005
  7
FDASTYLE1
 72
     5
 11
79.32915422366239
 21
-147.1344956842884
 31
0.0
  0
TEXT
  5
247
  8
0
 62
     6
 10
53.55994629552669
 20
-140.3295182672962
 30
0.0
 40
4.0
  1
  31.1kN
 41
0.8000000000000005
  7
FDASTYLE1
 72
     5
 11
79.15994629552671
 21
-140.3295182672962
 31
0.0
  0
TEXT
  5
248
  8
0
 62
     6
 10
49.7633718675256
 20
-133.524525591515
 30
0.0
 40
4.0
  1
　　　　52TS型
 41
0.7200000000000001
  7
FDASTYLE1
 72
     5
 11
78.5633718675256
 21
-133.524525591515
 31
0.0
  0
TEXT
  5
249
  8
0
 62
     6
 10
65.38978779971519
 20
-126.7145585504994
 30
0.0
 40
4.0
  1
20mm
 41
0.7999999999999998
  7
FDASTYLE1
 72
     5
 11
78.18978779971519
 21
-126.7145585504994
 31
0.0
  0
TEXT
  5
24A
  8
0
 62
     6
 10
61.73019888779689
 20
-119.9145554987415
 30
0.0
 40
4.0
  1
 10mm
 41
0.8
  7
FDASTYLE1
 72
     5
 11
77.73019888779689
 21
-119.9145554987415
 31
0.0
  0
TEXT
  5
24B
  8
0
 62
     6
 10
-226.1025991792066
 20
-178.1621067031464
 30
0.0
 40
3.0
  1
1000
 41
0.7575759632690863
  7
FDASTYLE1
 72
     5
 11
-215.3883121792066
 21
-178.1621067031464
 31
0.0
  0
TEXT
  5
24C
  8
0
 62
     6
 10
-206.1025991792066
 20
-178.1621067031464
 30
0.0
 40
3.0
  1
2000
 41
0.7575759632690863
  7
FDASTYLE1
 72
     5
 11
-195.3883121792066
 21
-178.1621067031464
 31
0.0
  0
TEXT
  5
24D
  8
0
 62
     6
 10
-186.1025991792066
 20
-178.1621067031464
 30
0.0
 40
3.0
  1
3000
 41
0.7575759632690863
  7
FDASTYLE1
 72
     5
 11
-175.3883121792066
 21
-178.1621067031464
 31
0.0
  0
TEXT
  5
24E
  8
0
 62
     6
 10
-166.1025991792066
 20
-178.1621067031464
 30
0.0
 40
3.0
  1
4000
 41
0.7575759632690863
  7
FDASTYLE1
 72
     5
 11
-155.3883121792066
 21
-178.1621067031464
 31
0.0
  0
TEXT
  5
24F
  8
0
 62
     6
 10
-146.1025991792066
 20
-178.1621067031464
 30
0.0
 40
3.0
  1
5000
 41
0.7575759632690863
  7
FDASTYLE1
 72
     5
 11
-135.3883121792066
 21
-178.1621067031464
 31
0.0
  0
TEXT
  5
250
  8
0
 62
     6
 10
-126.1025991792066
 20
-178.1621067031464
 30
0.0
 40
3.0
  1
6000
 41
0.7575759632690852
  7
FDASTYLE1
 72
     5
 11
-115.3883121792066
 21
-178.1621067031464
 31
0.0
  0
TEXT
  5
251
  8
0
 62
     6
 10
-106.1025991792066
 20
-178.1621067031464
 30
0.0
 40
3.0
  1
7000
 41
0.7575759632690852
  7
FDASTYLE1
 72
     5
 11
-95.38831217920657
 21
-178.1621067031464
 31
0.0
  0
TEXT
  5
252
  8
0
 62
     6
 10
-243.9578810076318
 20
-175.9813525625669
 30
0.0
 40
3.0
  1
0
 41
0.7142859999999965
  7
FDASTYLE1
 72
     5
 11
-241.8150230076318
 21
-175.9813525625669
 31
0.0
  0
TEXT
  5
253
  8
0
 62
     6
 10
-247.5696242771577
 20
-169.3328372939667
 30
0.0
 40
3.0
  1
10
 41
0.744681079221391
  7
FDASTYLE1
 72
     5
 11
-242.5696232771577
 21
-169.3328372939667
 31
0.0
  0
TEXT
  5
254
  8
0
 62
     6
 10
-247.5696242771577
 20
-164.3328372939667
 30
0.0
 40
3.0
  1
20
 41
0.744681079221391
  7
FDASTYLE1
 72
     5
 11
-242.5696232771577
 21
-164.3328372939667
 31
0.0
  0
TEXT
  5
255
  8
0
 62
     6
 10
-247.5696242771577
 20
-159.3328372939667
 30
0.0
 40
3.0
  1
30
 41
0.744681079221391
  7
FDASTYLE1
 72
     5
 11
-242.5696232771577
 21
-159.3328372939667
 31
0.0
  0
TEXT
  5
256
  8
0
 62
     6
 10
-247.5696242771577
 20
-154.3328372939667
 30
0.0
 40
3.0
  1
40
 41
0.744681079221391
  7
FDASTYLE1
 72
     5
 11
-242.5696232771577
 21
-154.3328372939667
 31
0.0
  0
TEXT
  5
257
  8
0
 62
     6
 10
-247.5696242771577
 20
-149.3328372939667
 30
0.0
 40
3.0
  1
50
 41
0.744681079221391
  7
FDASTYLE1
 72
     5
 11
-242.5696232771577
 21
-149.3328372939667
 31
0.0
  0
TEXT
  5
258
  8
0
 62
     6
 10
-247.5696242771577
 20
-144.3328372939667
 30
0.0
 40
3.0
  1
60
 41
0.744681079221391
  7
FDASTYLE1
 72
     5
 11
-242.5696232771577
 21
-144.3328372939667
 31
0.0
  0
TEXT
  5
259
  8
0
 62
     6
 10
-247.5696242771577
 20
-139.3328372939667
 30
0.0
 40
3.0
  1
70
 41
0.744681079221391
  7
FDASTYLE1
 72
     5
 11
-242.5696232771577
 21
-139.3328372939667
 31
0.0
  0
TEXT
  5
25A
  8
0
 62
     6
 10
-247.5696242771577
 20
-134.3328372939667
 30
0.0
 40
3.0
  1
80
 41
0.744681079221391
  7
FDASTYLE1
 72
     5
 11
-242.5696232771577
 21
-134.3328372939667
 31
0.0
  0
TEXT
  5
25B
  8
0
 62
     6
 10
-247.5696242771577
 20
-129.3328372939667
 30
0.0
 40
3.0
  1
90
 41
0.744681079221391
  7
FDASTYLE1
 72
     5
 11
-242.5696232771577
 21
-129.3328372939667
 31
0.0
  0
TEXT
  5
25C
  8
0
 62
     6
 10
-250.2507121886416
 20
-159.88836709781
 30
0.0
 40
4.0
  1
把　握　力　kN
 50
90.0
 41
0.6956521739130434
  7
FDASTYLE1
 72
     5
 11
-250.2507121886416
 21
-134.28836709781
 31
0.0
  0
TEXT
  5
25D
  8
0
 62
     6
 10
-231.4203171387594
 20
-125.5366410167632
 30
0.0
 40
4.0
  1
把　握　力　特　性　表
 41
0.6666666666666665
  7
FDASTYLE1
 72
     5
 11
-196.2203171387594
 21
-125.5366410167632
 31
0.0
  0
TEXT
  5
25E
  8
0
 62
     6
 10
-178.9700455323141
 20
-125.7353180797515
 30
0.0
 40
4.0
  1
(爪ﾉ回転ﾓｰﾒﾝﾄ24.8N･cm)
 41
0.7755102040816327
  7
FDASTYLE1
 72
     5
 11
-118.1700455323141
 21
-125.7353180797515
 31
0.0
  0
TEXT
  5
25F
  8
0
 62
     6
 10
-185.87580179005
 20
-185.0069419304079
 30
0.0
 40
4.0
  1
回　転　速　度　min
 41
0.6984126984126982
  7
FDASTYLE1
 72
     5
 11
-150.67580179005
 21
-185.0069419304079
 31
0.0
  0
TEXT
  5
260
  8
0
 62
     6
 10
-151.1960969693305
 20
-181.3736353659932
 30
0.0
 40
2.0
  1
-1
 41
0.7999999999999972
  7
FDASTYLE1
 72
     5
 11
-147.9960969693306
 21
-181.3736353659932
 31
0.0
  0
LINE
  5
261
  8
0
  6
CENTER
 62
     7
 10
-185.4833399606806
 20
40.88030820841758
 30
0.0
 11
-45.74342602025087
 21
40.88030820841758
 31
0.0
  0
LINE
  5
262
  8
0
  6
CENTER
 62
     7
 10
-86.75985973607118
 20
-1.119691791582419
 30
0.0
 11
-51.01926677952821
 21
-1.119691791582419
 31
0.0
  0
LINE
  5
263
  8
0
  6
CENTER
 62
     7
 10
-77.25680797825868
 20
123.8803127860543
 30
0.0
 11
-22.94749325047548
 21
123.8803127860543
 31
0.0
  0
LINE
  5
264
  8
0
  6
CENTER
 62
     7
 10
-77.25680797825868
 20
98.88031278605429
 30
0.0
 11
-22.94749325047548
 21
98.88031278605429
 31
0.0
  0
LINE
  5
265
  8
0
  6
CENTER
 62
     7
 10
-175.6741053415399
 20
93.28030973429648
 30
0.0
 11
-160.2699763132196
 21
93.28030973429648
 31
0.0
  0
LINE
  5
266
  8
0
  6
CENTER
 62
     7
 10
24.12259418238585
 20
40.88030820841758
 30
0.0
 11
253.8367131399054
 21
40.88030820841758
 31
0.0
  0
LINE
  5
267
  8
0
  6
CENTER
 62
     7
 10
65.44683582056945
 20
114.8803082084176
 30
0.0
 11
91.10344440211242
 21
114.8803082084176
 31
0.0
  0
LINE
  5
268
  8
0
  6
CENTER
 62
     7
 10
138.5899755251732
 20
40.88031128194601
 30
0.0
 11
41.36251556938743
 21
-15.25399659539206
 31
0.0
  0
LINE
  5
269
  8
0
  6
CENTER
 62
     7
 10
44.92138225444631
 20
55.11901867771488
 30
0.0
 11
58.70570005744965
 21
31.24388316989138
 31
0.0
  0
LINE
  5
26A
  8
0
  6
CENTER
 62
     7
 10
74.46692881829262
 20
58.06200500268918
 30
0.0
 11
108.1990461757163
 21
49.02351236277813
 31
0.0
  0
LINE
  5
26B
  8
0
  6
CENTER
 62
     7
 10
40.1568279302748
 20
36.01145025387874
 30
0.0
 11
63.69001165477965
 21
49.59833871100481
 31
0.0
  0
ARC
  5
26C
  8
0
  6
CENTER
 62
     7
 10
138.5899174856085
 20
40.88030820841758
 30
0.0
 40
52.3849983215332
 50
119.641595992797
 51
181.0366774608025
  0
LINE
  5
26D
  8
0
  6
CENTER
 62
     7
 10
74.20990728903891
 20
-13.61013418964319
 30
0.0
 11
59.20990728903891
 21
12.37062792388998
 31
0.0
  0
LINE
  5
26E
  8
0
  6
CENTER
 62
     7
 10
95.86054238364991
 20
-1.110134189643198
 30
0.0
 11
80.86054238364991
 21
24.87062792388996
 31
0.0
  0
LINE
  5
26F
  8
0
  6
CENTER
 62
     7
 10
138.5899174856085
 20
150.1979961966988
 30
0.0
 11
138.5899174856085
 21
-71.9818667793754
 31
0.0
  0
LINE
  5
270
  8
0
  6
CENTER
 62
     7
 10
94.33324941163704
 20
66.43191297172157
 30
0.0
 11
110.8126257343815
 21
56.91754166687409
 31
0.0
  0
LINE
  5
271
  8
0
  6
CENTER
 62
     7
 10
183.5899174856085
 20
127.8606854056832
 30
0.0
 11
183.5899174856085
 21
101.8724575614449
 31
0.0
  0
LINE
  5
272
  8
0
  6
CENTER
 62
     7
 10
170.794125859632
 20
114.8803082084176
 30
0.0
 11
196.554379765882
 21
114.8803082084176
 31
0.0
  0
LINE
  5
273
  8
0
  6
CENTER
 62
     7
 10
166.5572877250848
 20
57.02727089360386
 30
0.0
 11
183.1884490942207
 21
66.62927532616257
 31
0.0
  0
LINE
  5
274
  8
0
  6
CENTER
 62
     7
 10
123.5899174856085
 20
123.8803127860543
 30
0.0
 11
153.5899174856085
 21
123.8803127860543
 31
0.0
  0
LINE
  5
275
  8
0
  6
CENTER
 62
     7
 10
123.5899174856085
 20
98.88031278605429
 30
0.0
 11
153.5899174856085
 21
98.88031278605429
 31
0.0
  0
LINE
  5
276
  8
0
  6
CENTER
 62
     7
 10
138.589949654015
 20
40.88032900429952
 30
0.0
 11
235.6996073091318
 21
-15.18596567370761
 31
0.0
  0
LINE
  5
277
  8
0
  6
CENTER
 62
     7
 10
146.8326760728405
 20
10.11781771020836
 30
0.0
 11
155.7715964785372
 21
-23.24268328768286
 31
0.0
  0
LINE
  5
278
  8
0
  6
CENTER
 62
     7
 10
173.1758087231676
 20
-47.21518601607792
 30
0.0
 11
186.5649647534833
 21
-24.02449068188226
 31
0.0
  0
LINE
  5
279
  8
0
  6
CENTER
 62
     7
 10
168.0514673367599
 20
-28.09083737563693
 30
0.0
 11
192.3001782075027
 21
-42.09083904456698
 31
0.0
  0
LINE
  5
27A
  8
0
  6
CENTER
 62
     7
 10
121.4082193492875
 20
-23.24267735197733
 30
0.0
 11
128.6551529119113
 21
3.803243561860462
 31
0.0
  0
LINE
  5
27B
  8
0
  6
CENTER
 62
     7
 10
91.64868411682471
 20
87.82163571212359
 30
0.0
 11
111.4476788604683
 21
68.02264263741031
 31
0.0
  0
LINE
  5
27C
  8
0
  6
CENTER
 62
     7
 10
160.8757740477121
 20
63.16613664088235
 30
0.0
 11
185.5312262226107
 21
87.8215867374818
 31
0.0
  0
LINE
  5
27D
  8
0
  6
CENTER
 62
     7
 10
175.6669614102133
 20
50.81507475707353
 30
0.0
 11
202.7128989052666
 21
58.06201109369025
 31
0.0
  0
ARC
  5
27E
  8
0
  6
CENTER
 62
     7
 10
138.5899174856085
 20
40.88030820841758
 30
0.0
 40
42.0
 50
16.11120218593511
 51
44.62244888548829
  0
ARC
  5
27F
  8
0
  6
CENTER
 62
     7
 10
138.5899174856085
 20
40.88030820841758
 30
0.0
 40
42.0
 50
136.9488582175024
 51
163.8260897336095
  0
ARC
  5
280
  8
0
  6
CENTER
 62
     7
 10
138.5899174856085
 20
40.88030820841758
 30
0.0
 40
42.0
 50
257.1576640821996
 51
282.5867110791564
  0
ARC
  5
281
  8
0
  6
CENTER
 62
     7
 10
138.5899174856085
 20
40.88030820841758
 30
0.0
 40
52.3849983215332
 50
358.7208036457042
 51
420.3583270538893
  0
ARC
  5
282
  8
0
  6
CENTER
 62
     7
 10
138.5899174856085
 20
40.88030820841758
 30
0.0
 40
52.3849983215332
 50
239.6416302953236
 51
300.3583305447743
  0
ARC
  5
283
  8
0
  6
CENTER
 62
     7
 10
138.5899174856085
 20
40.88030820841758
 30
0.0
 40
37.5
 50
36.41932680550586
 51
54.19166685608121
  0
ARC
  5
284
  8
0
  6
CENTER
 62
     7
 10
138.5899174856085
 20
40.88030820841758
 30
0.0
 40
37.5
 50
156.7075982787305
 51
173.8447614723459
  0
ARC
  5
285
  8
0
  6
CENTER
 62
     7
 10
138.5899174856085
 20
40.88030820841758
 30
0.0
 40
37.5
 50
277.2776733391971
 51
293.5523339048017
  0
LINE
  5
286
  8
0
  6
CENTER
 62
     7
 10
217.9701322459551
 20
12.37074602884163
 30
0.0
 11
202.9701322459551
 21
-13.61001608469153
 31
0.0
  0
LINE
  5
287
  8
0
  6
CENTER
 62
     7
 10
196.3194971513441
 20
24.87074602884167
 30
0.0
 11
181.3194971513441
 21
-1.110016084691495
 31
0.0
  0
LINE
  5
288
  8
0
  6
DIVIDE
 62
     7
 10
-156.7434260202509
 20
77.38030820841757
 30
0.0
 11
-156.7434260202509
 21
24.47028928751914
 31
0.0
  0
LINE
  5
289
  8
0
  6
DIVIDE
 62
     7
 10
-156.7434118734598
 20
77.38029386263682
 30
0.0
 11
-156.2434113426651
 21
77.88029439343157
 31
0.0
  0
LINE
  5
28A
  8
0
  6
DASHED2
 62
     7
 10
-164.2434260202509
 20
101.4203091239449
 30
0.0
 11
-164.2434260202509
 21
85.14031034464804
 31
0.0
  0
LINE
  5
28B
  8
0
  6
DASHED2
 62
     7
 10
-170.7434260202509
 20
85.14031034464804
 30
0.0
 11
-164.2434260202509
 21
85.14031034464804
 31
0.0
  0
LINE
  5
28C
  8
0
  6
DASHED2
 62
     7
 10
-170.7434260202509
 20
101.4203091239449
 30
0.0
 11
-164.2434260202509
 21
101.4203091239449
 31
0.0
  0
LINE
  5
28D
  8
0
  6
DASHED2
 62
     7
 10
78.58991748560851
 20
123.9841518973824
 30
0.0
 11
78.58991748560851
 21
103.8803082084176
 31
0.0
  0
LINE
  5
28E
  8
0
  6
DASHED2
 62
     7
 10
57.73665363062804
 20
103.8803082084176
 30
0.0
 11
78.58991748560851
 21
103.8803082084176
 31
0.0
  0
LINE
  5
28F
  8
0
  6
DASHED2
 62
     7
 10
78.58991748560851
 20
106.8803082084176
 30
0.0
 11
88.22636157740539
 21
106.8803082084176
 31
0.0
  0
LINE
  5
290
  8
0
  6
DASHED2
 62
     7
 10
78.58991748560851
 20
122.880300579023
 30
0.0
 11
89.45889026392882
 21
122.880300579023
 31
0.0
  0
LINE
  5
291
  8
0
  6
DASHED2
 62
     7
 10
78.58990782514731
 20
110.8803172352909
 30
0.0
 11
85.66054718300212
 21
111.003735697768
 31
0.0
  0
LINE
  5
292
  8
0
  6
DASHED2
 62
     7
 10
78.58991666643311
 20
118.8803196813093
 30
0.0
 11
86.80098443395997
 21
118.7369949679596
 31
0.0
  0
LINE
  5
293
  8
0
  6
DASHED2
 62
     7
 10
78.58992961077811
 20
118.0801945287485
 30
0.0
 11
86.80548277910421
 21
117.9367915224408
 31
0.0
  0
LINE
  5
294
  8
0
  6
DASHED2
 62
     7
 10
78.58992076949231
 20
111.6804423878516
 30
0.0
 11
85.76007042228945
 21
111.8055978088952
 31
0.0
  0
LINE
  5
295
  8
0
  6
DASHED2
 62
     7
 10
166.5899174856085
 20
139.4817791556832
 30
0.0
 11
166.5899174856085
 21
118.3506832694527
 31
0.0
  0
LINE
  5
296
  8
0
  6
DASHED2
 62
     7
 10
110.5899174856085
 20
139.4817791556832
 30
0.0
 11
110.5899174856085
 21
118.4690991019723
 31
0.0
  0
LINE
  5
297
  8
0
  6
DASHED2
 62
     7
 10
126.5899174856085
 20
133.3803204154488
 30
0.0
 11
130.0899174856085
 21
133.3803204154488
 31
0.0
  0
LINE
  5
298
  8
0
  6
DASHED2
 62
     7
 10
126.0899174856085
 20
140.8803082084176
 30
0.0
 11
126.0899174856085
 21
94.88030820841757
 31
0.0
  0
LINE
  5
299
  8
0
  6
DASHED2
 62
     7
 10
151.0899174856085
 20
140.8803082084176
 30
0.0
 11
151.0899174856085
 21
94.88030820841757
 31
0.0
  0
LINE
  5
29A
  8
0
  6
DASHED2
 62
     7
 10
147.0899306316935
 20
89.38031055015433
 30
0.0
 11
150.589934642285
 21
92.88031426571759
 31
0.0
  0
LINE
  5
29B
  8
0
  6
DASHED2
 62
     7
 10
126.5899266382193
 20
92.88032058774554
 30
0.0
 11
130.0899279514123
 21
89.38031956958055
 31
0.0
  0
LINE
  5
29C
  8
0
  6
DASHED2
 62
     7
 10
126.5899174856085
 20
133.3803204154488
 30
0.0
 11
126.5899174856085
 21
92.88031278605429
 31
0.0
  0
LINE
  5
29D
  8
0
  6
DASHED2
 62
     7
 10
150.5899174856085
 20
133.3803204154488
 30
0.0
 11
150.5899174856085
 21
92.88031278605429
 31
0.0
  0
LINE
  5
29E
  8
0
  6
DASHED2
 62
     7
 10
147.0899174856085
 20
133.3803204154488
 30
0.0
 11
150.5899174856085
 21
133.3803204154488
 31
0.0
  0
LINE
  5
29F
  8
0
  6
DASHED2
 62
     7
 10
134.5899480031866
 20
-45.61969179158242
 30
0.0
 11
142.5899632619757
 21
-45.61969179158242
 31
0.0
  0
LINE
  5
2A0
  8
0
  6
DASHED2
 62
     7
 10
135.5899480031866
 20
-41.61969179158242
 30
0.0
 11
141.5899480031866
 21
-41.61969179158242
 31
0.0
  0
LINE
  5
2A1
  8
0
  6
DASHED2
 62
     7
 10
141.5899327443976
 20
-41.61969179158242
 30
0.0
 11
141.5899327443976
 21
-61.57577699666055
 31
0.0
  0
LINE
  5
2A2
  8
0
  6
DASHED2
 62
     7
 10
135.5899174856085
 20
-41.61969179158242
 30
0.0
 11
135.5899174856085
 21
-61.57577699666055
 31
0.0
  0
LINE
  5
2A3
  8
0
  6
DASHED2
 62
     7
 10
134.5899174856085
 20
-45.61969179158242
 30
0.0
 11
134.5899174856085
 21
-61.54161256794961
 31
0.0
  0
LINE
  5
2A4
  8
0
  6
DASHED2
 62
     7
 10
142.5899327443976
 20
-45.61969179158242
 30
0.0
 11
142.5899327443976
 21
-61.54161256794961
 31
0.0
  0
LINE
  5
2A5
  8
0
  6
DASHED2
 62
     7
 10
138.5899644525532
 20
-39.88765284818847
 30
0.0
 11
141.5899465878799
 21
-41.61969315022426
 31
0.0
  0
LINE
  5
2A6
  8
0
  6
DASHED2
 62
     7
 10
135.5899358965766
 20
-41.61970917978007
 30
0.0
 11
138.5899444609026
 21
-39.88765361895613
 31
0.0
  0
ARC
  5
2A7
  8
0
  6
DASHED2
 62
     7
 10
138.5899174856085
 20
94.88030820841757
 30
0.0
 40
12.5
 50
179.9999640278213
 51
227.1563277180197
  0
ARC
  5
2A8
  8
0
  6
DASHED2
 62
     7
 10
138.5899174856085
 20
94.88030820841757
 30
0.0
 40
12.5
 50
312.8436363098016
 51
360.0
  0
LINE
  5
2A9
  8
0
  6
CONTINUOUS
 62
     7
 10
119.5899174856085
 20
84.38030820841757
 30
0.0
 11
129.0899174856085
 21
84.38030820841757
 31
0.0
  0
LINE
  5
2AA
  8
0
  6
CONTINUOUS
 62
     7
 10
148.0899174856085
 20
84.38030820841757
 30
0.0
 11
157.5899174856085
 21
84.38030820841757
 31
0.0
  0
LINE
  5
2AB
  8
0
  6
CONTINUOUS
 62
     7
 10
122.3879521535773
 20
139.3803082084176
 30
0.0
 11
129.0899174856085
 21
139.3803082084176
 31
0.0
  0
LINE
  5
2AC
  8
0
  6
CONTINUOUS
 62
     7
 10
148.0899174856085
 20
139.3803082084176
 30
0.0
 11
154.3512395070929
 21
139.3803082084176
 31
0.0
  0
LINE
  5
2AD
  8
0
  6
CONTINUOUS
 62
     7
 10
148.0899174856085
 20
137.8803082084176
 30
0.0
 11
157.5899174856085
 21
137.8803082084176
 31
0.0
  0
LINE
  5
2AE
  8
0
  6
CONTINUOUS
 62
     7
 10
148.0899174856085
 20
136.3803082084176
 30
0.0
 11
157.5899174856085
 21
136.3803082084176
 31
0.0
  0
LINE
  5
2AF
  8
0
  6
CONTINUOUS
 62
     7
 10
148.0899174856085
 20
134.8803082084176
 30
0.0
 11
157.5899174856085
 21
134.8803082084176
 31
0.0
  0
LINE
  5
2B0
  8
0
  6
CONTINUOUS
 62
     7
 10
148.0899174856085
 20
133.3803082084176
 30
0.0
 11
157.5899174856085
 21
133.3803082084176
 31
0.0
  0
LINE
  5
2B1
  8
0
  6
CONTINUOUS
 62
     7
 10
148.0899174856085
 20
131.8803082084176
 30
0.0
 11
157.5899174856085
 21
131.8803082084176
 31
0.0
  0
LINE
  5
2B2
  8
0
  6
CONTINUOUS
 62
     7
 10
119.5899174856085
 20
137.8803082084176
 30
0.0
 11
129.0899174856085
 21
137.8803082084176
 31
0.0
  0
LINE
  5
2B3
  8
0
  6
CONTINUOUS
 62
     7
 10
119.5899174856085
 20
136.3803082084176
 30
0.0
 11
129.0899174856085
 21
136.3803082084176
 31
0.0
  0
LINE
  5
2B4
  8
0
  6
CONTINUOUS
 62
     7
 10
119.5899174856085
 20
134.8803082084176
 30
0.0
 11
129.0899174856085
 21
134.8803082084176
 31
0.0
  0
LINE
  5
2B5
  8
0
  6
CONTINUOUS
 62
     7
 10
119.5899174856085
 20
133.3803082084176
 30
0.0
 11
129.0899174856085
 21
133.3803082084176
 31
0.0
  0
LINE
  5
2B6
  8
0
  6
CONTINUOUS
 62
     7
 10
119.5899174856085
 20
131.8803082084176
 30
0.0
 11
129.0899174856085
 21
131.8803082084176
 31
0.0
  0
LINE
  5
2B7
  8
0
  6
CONTINUOUS
 62
     7
 10
119.5899174856085
 20
85.88030820841757
 30
0.0
 11
129.0899174856085
 21
85.88030820841757
 31
0.0
  0
LINE
  5
2B8
  8
0
  6
CONTINUOUS
 62
     7
 10
119.5899174856085
 20
87.38030820841757
 30
0.0
 11
129.0899174856085
 21
87.38030820841757
 31
0.0
  0
LINE
  5
2B9
  8
0
  6
CONTINUOUS
 62
     7
 10
119.5899174856085
 20
88.88030820841757
 30
0.0
 11
129.0899174856085
 21
88.88030820841757
 31
0.0
  0
LINE
  5
2BA
  8
0
  6
CONTINUOUS
 62
     7
 10
119.5899174856085
 20
90.38030820841757
 30
0.0
 11
129.0899174856085
 21
90.38030820841757
 31
0.0
  0
LINE
  5
2BB
  8
0
  6
CONTINUOUS
 62
     7
 10
119.5899174856085
 20
91.88030820841757
 30
0.0
 11
129.0899174856085
 21
91.88030820841757
 31
0.0
  0
LINE
  5
2BC
  8
0
  6
CONTINUOUS
 62
     7
 10
148.0899174856085
 20
85.88030820841757
 30
0.0
 11
157.5899174856085
 21
85.88030820841757
 31
0.0
  0
LINE
  5
2BD
  8
0
  6
CONTINUOUS
 62
     7
 10
148.0899174856085
 20
87.38030820841757
 30
0.0
 11
157.5899174856085
 21
87.38030820841757
 31
0.0
  0
LINE
  5
2BE
  8
0
  6
CONTINUOUS
 62
     7
 10
148.0899174856085
 20
88.88030820841757
 30
0.0
 11
157.5899174856085
 21
88.88030820841757
 31
0.0
  0
LINE
  5
2BF
  8
0
  6
CONTINUOUS
 62
     7
 10
148.0899174856085
 20
90.38030820841757
 30
0.0
 11
157.5899174856085
 21
90.38030820841757
 31
0.0
  0
LINE
  5
2C0
  8
0
  6
CONTINUOUS
 62
     7
 10
148.0899174856085
 20
91.88030820841757
 30
0.0
 11
157.5899174856085
 21
91.88030820841757
 31
0.0
  0
LINE
  5
2C1
  8
0
  6
CONTINUOUS
 62
     7
 10
181.0120195281956
 20
27.35755261488092
 30
0.0
 11
185.7620239091374
 21
35.58480041041802
 31
0.0
  0
LINE
  5
2C2
  8
0
  6
CONTINUOUS
 62
     7
 10
228.6434763688307
 20
-0.1424679664575805
 30
0.0
 11
232.8080085730452
 21
7.070712411656849
 31
0.0
  0
LINE
  5
2C3
  8
0
  6
CONTINUOUS
 62
     7
 10
215.2788507522059
 20
-23.29067538363753
 30
0.0
 11
219.1434752363425
 21
-16.59695034303305
 31
0.0
  0
LINE
  5
2C4
  8
0
  6
CONTINUOUS
 62
     7
 10
182.3111010687507
 20
26.607536244537
 30
0.0
 11
187.0611016349948
 21
34.83477743282473
 31
0.0
  0
LINE
  5
2C5
  8
0
  6
CONTINUOUS
 62
     7
 10
183.6101353364142
 20
25.85752954788067
 30
0.0
 11
188.3601397173561
 21
34.08477734341776
 31
0.0
  0
LINE
  5
2C6
  8
0
  6
CONTINUOUS
 62
     7
 10
184.909156389579
 20
25.10753048061978
 30
0.0
 11
189.6591645852186
 21
33.33478488340624
 31
0.0
  0
LINE
  5
2C7
  8
0
  6
CONTINUOUS
 62
     7
 10
186.2082247156354
 20
24.35752173967129
 30
0.0
 11
190.9582290965772
 21
32.58476953520839
 31
0.0
  0
LINE
  5
2C8
  8
0
  6
CONTINUOUS
 62
     7
 10
187.5072457688002
 20
23.6075226724104
 30
0.0
 11
192.2572539644397
 21
31.83477707519686
 31
0.0
  0
LINE
  5
2C9
  8
0
  6
CONTINUOUS
 62
     7
 10
227.3444288866685
 20
0.6075463595941884
 30
0.0
 11
232.0944294529126
 21
8.834787547881923
 31
0.0
  0
LINE
  5
2CA
  8
0
  6
CONTINUOUS
 62
     7
 10
226.0454002041083
 20
1.357532212356354
 30
0.0
 11
230.7954122144456
 21
9.584793222392172
 31
0.0
  0
LINE
  5
2CB
  8
0
  6
CONTINUOUS
 62
     7
 10
224.7463280633542
 20
2.107534346055481
 30
0.0
 11
229.496332444296
 21
10.33478214159258
 31
0.0
  0
LINE
  5
2CC
  8
0
  6
CONTINUOUS
 62
     7
 10
223.4472767664942
 20
2.857542064857888
 30
0.0
 11
228.1972811474361
 21
11.08478986039498
 31
0.0
  0
LINE
  5
2CD
  8
0
  6
CONTINUOUS
 62
     7
 10
222.1482424988307
 20
3.607548761514217
 30
0.0
 11
226.8982506944703
 21
11.83480316430067
 31
0.0
  0
LINE
  5
2CE
  8
0
  6
CONTINUOUS
 62
     7
 10
213.0944233732384
 20
-24.07418381251838
 30
0.0
 11
217.8444239394825
 21
-15.84694262423064
 31
0.0
  0
LINE
  5
2CF
  8
0
  6
CONTINUOUS
 62
     7
 10
211.7954023200736
 20
-23.32418474525749
 30
0.0
 11
216.5454028863177
 21
-15.09694355696976
 31
0.0
  0
LINE
  5
2D0
  8
0
  6
CONTINUOUS
 62
     7
 10
210.4963339940172
 20
-22.574176004309
 30
0.0
 11
215.2463269308659
 21
-14.34694803051999
 31
0.0
  0
LINE
  5
2D1
  8
0
  6
CONTINUOUS
 62
     7
 10
209.1972826971573
 20
-21.8241682855066
 30
0.0
 11
213.947275634006
 21
-13.59694031171758
 31
0.0
  0
LINE
  5
2D2
  8
0
  6
CONTINUOUS
 62
     7
 10
207.8982408000983
 20
-21.07417480334899
 30
0.0
 11
212.6482413663425
 21
-12.84693361506125
 31
0.0
  0
LINE
  5
2D3
  8
0
  6
CONTINUOUS
 62
     7
 10
-101.2311518686597
 20
-127.6620914443573
 30
0.0
 11
-101.2311518686597
 21
-172.6620914443573
 31
0.0
  0
LINE
  5
2D4
  8
0
  6
CONTINUOUS
 62
     7
 10
-241.2311518686597
 20
-167.6620914443573
 30
0.0
 11
-101.2311518686597
 21
-167.6620914443573
 31
0.0
  0
LINE
  5
2D5
  8
0
  6
CONTINUOUS
 62
     7
 10
-241.2311518686597
 20
-162.6620914443573
 30
0.0
 11
-101.2311518686597
 21
-162.6620914443573
 31
0.0
  0
LINE
  5
2D6
  8
0
  6
CONTINUOUS
 62
     7
 10
-241.2311518686597
 20
-157.6620914443573
 30
0.0
 11
-101.2311518686597
 21
-157.6620914443573
 31
0.0
  0
LINE
  5
2D7
  8
0
  6
CONTINUOUS
 62
     7
 10
-241.2311518686597
 20
-152.6620914443573
 30
0.0
 11
-221.2311518686597
 21
-152.6620914443573
 31
0.0
  0
LINE
  5
2D8
  8
0
  6
CONTINUOUS
 62
     7
 10
-241.2311518686597
 20
-147.6620914443573
 30
0.0
 11
-101.2311518686597
 21
-147.6620914443573
 31
0.0
  0
LINE
  5
2D9
  8
0
  6
CONTINUOUS
 62
     7
 10
-241.2311518686597
 20
-142.6620914443573
 30
0.0
 11
-101.2311518686597
 21
-142.6620914443573
 31
0.0
  0
LINE
  5
2DA
  8
0
  6
CONTINUOUS
 62
     7
 10
-241.2311518686597
 20
-137.6620914443573
 30
0.0
 11
-101.2311518686597
 21
-137.6620914443573
 31
0.0
  0
LINE
  5
2DB
  8
0
  6
CONTINUOUS
 62
     7
 10
-241.2311518686597
 20
-132.6620914443573
 30
0.0
 11
-101.2311518686597
 21
-132.6620914443573
 31
0.0
  0
LINE
  5
2DC
  8
0
  6
CONTINUOUS
 62
     7
 10
-241.2311518686597
 20
-127.6620914443573
 30
0.0
 11
-101.2311518686597
 21
-127.6620914443573
 31
0.0
  0
LINE
  5
2DD
  8
0
  6
CONTINUOUS
 62
     7
 10
-221.2311518686597
 20
-127.6620914443573
 30
0.0
 11
-221.2311518686597
 21
-156.1898929580292
 31
0.0
  0
LINE
  5
2DE
  8
0
  6
CONTINUOUS
 62
     7
 10
-201.2311518686597
 20
-127.6620914443573
 30
0.0
 11
-201.2311518686597
 21
-149.1620914443573
 31
0.0
  0
LINE
  5
2DF
  8
0
  6
CONTINUOUS
 62
     7
 10
-181.2311518686597
 20
-127.6620914443573
 30
0.0
 11
-181.2311518686597
 21
-149.1620914443573
 31
0.0
  0
LINE
  5
2E0
  8
0
  6
CONTINUOUS
 62
     7
 10
-161.2311518686597
 20
-127.6620914443573
 30
0.0
 11
-161.2311518686597
 21
-149.1620914443573
 31
0.0
  0
LINE
  5
2E1
  8
0
  6
CONTINUOUS
 62
     7
 10
-141.2311518686597
 20
-127.6620914443573
 30
0.0
 11
-141.2311518686597
 21
-152.6620914443573
 31
0.0
  0
LINE
  5
2E2
  8
0
  6
CONTINUOUS
 62
     7
 10
-121.2311518686597
 20
-127.6620914443573
 30
0.0
 11
-121.2311518686597
 21
-172.6620914443573
 31
0.0
  0
LINE
  5
2E3
  8
0
  6
CONTINUOUS
 62
     7
 10
-148.7704356211011
 20
-152.6620914443573
 30
0.0
 11
-101.2311518686597
 21
-152.6620914443573
 31
0.0
  0
LINE
  5
2E4
  8
0
  6
CONTINUOUS
 62
     7
 10
-201.2311518686597
 20
-156.1620914443573
 30
0.0
 11
-201.2311518686597
 21
-172.6620914443573
 31
0.0
  0
LINE
  5
2E5
  8
0
  6
CONTINUOUS
 62
     7
 10
-181.2311518686597
 20
-156.1620914443573
 30
0.0
 11
-181.2311518686597
 21
-172.6620914443573
 31
0.0
  0
LINE
  5
2E6
  8
0
  6
CONTINUOUS
 62
     7
 10
-161.2311518686597
 20
-156.1620914443573
 30
0.0
 11
-161.2311518686597
 21
-172.6620914443573
 31
0.0
  0
LINE
  5
2E7
  8
0
  6
CONTINUOUS
 62
     7
 10
-141.2311518686597
 20
-152.6620914443573
 30
0.0
 11
-141.2311518686597
 21
-172.6620914443573
 31
0.0
  0
LINE
  5
2E8
  8
0
  6
CONTINUOUS
 62
     7
 10
-221.2311518686597
 20
-156.1898929580292
 30
0.0
 11
-221.2311518686597
 21
-172.6620914443573
 31
0.0
  0
LINE
  5
2E9
  8
0
  6
CONTINUOUS
 62
     3
 10
-171.7434260202509
 20
143.3803082084176
 30
0.0
 11
-171.7434260202509
 21
-6.504690113115622
 31
0.0
  0
LINE
  5
2EA
  8
0
  6
CONTINUOUS
 62
     3
 10
-56.74342602025087
 20
141.3803082084176
 30
0.0
 11
-56.74342602025087
 21
140.8803082084176
 31
0.0
  0
LINE
  5
2EB
  8
0
  6
CONTINUOUS
 62
     3
 10
-171.7434260202509
 20
-61.61969942097696
 30
0.0
 11
-58.74342602025087
 21
-61.61969942097696
 31
0.0
  0
LINE
  5
2EC
  8
0
  6
CONTINUOUS
 62
     3
 10
-171.7434260202509
 20
143.3803082084176
 30
0.0
 11
-97.24342602025087
 21
143.3803082084176
 31
0.0
  0
LINE
  5
2ED
  8
0
  6
CONTINUOUS
 62
     3
 10
-56.74343984158448
 20
-59.61969047406745
 30
0.0
 11
-58.74344196476348
 21
-61.61969259724646
 31
0.0
  0
LINE
  5
2EE
  8
0
  6
CONTINUOUS
 62
     3
 10
-170.7434260202509
 20
133.3803082084176
 30
0.0
 11
-170.7434260202509
 21
-6.504690113115622
 31
0.0
  0
LINE
  5
2EF
  8
0
  6
CONTINUOUS
 62
     3
 10
-171.7434260202509
 20
133.3803082084176
 30
0.0
 11
-170.7434260202509
 21
133.3803082084176
 31
0.0
  0
LINE
  5
2F0
  8
0
  6
CONTINUOUS
 62
     3
 10
-171.7434260202509
 20
-51.61969942097695
 30
0.0
 11
-170.7434260202509
 21
-51.61969942097695
 31
0.0
  0
LINE
  5
2F1
  8
0
  6
CONTINUOUS
 62
     3
 10
-70.74342602025087
 20
82.88030820841757
 30
0.0
 11
-70.74342602025087
 21
71.88030820841757
 31
0.0
  0
LINE
  5
2F2
  8
0
  6
CONTINUOUS
 62
     3
 10
-154.7434260202509
 20
3.880308208417581
 30
0.0
 11
-70.74342602025087
 21
3.880308208417581
 31
0.0
  0
LINE
  5
2F3
  8
0
  6
CONTINUOUS
 62
     3
 10
-154.7434260202509
 20
77.88030820841757
 30
0.0
 11
-95.2434305330478
 21
77.88030820841757
 31
0.0
  0
LINE
  5
2F4
  8
0
  6
CONTINUOUS
 62
     3
 10
-70.74342602025087
 20
-7.119691791582419
 30
0.0
 11
-56.74342602025087
 21
-7.119691791582419
 31
0.0
  0
LINE
  5
2F5
  8
0
  6
CONTINUOUS
 62
     3
 10
-150.7434260202509
 20
137.3803082084176
 30
0.0
 11
-97.24342602025087
 21
137.3803082084176
 31
0.0
  0
LINE
  5
2F6
  8
0
  6
CONTINUOUS
 62
     3
 10
-97.24342602025087
 20
143.3803082084176
 30
0.0
 11
-97.24342602025087
 21
130.8803082084176
 31
0.0
  0
LINE
  5
2F7
  8
0
  6
CONTINUOUS
 62
     3
 10
-83.74342602025087
 20
141.4101543998238
 30
0.0
 11
-83.74342602025087
 21
140.8803082084176
 31
0.0
  0
LINE
  5
2F8
  8
0
  6
CONTINUOUS
 62
     3
 10
-70.74342602025087
 20
141.3803082084176
 30
0.0
 11
-70.74342602025087
 21
140.8803082084176
 31
0.0
  0
LINE
  5
2F9
  8
0
  6
CONTINUOUS
 62
     3
 10
-97.24342602025087
 20
140.8803082084176
 30
0.0
 11
-54.74342602025087
 21
140.8803082084176
 31
0.0
  0
LINE
  5
2FA
  8
0
  6
CONTINUOUS
 62
     3
 10
-70.74342602025087
 20
82.88030820841757
 30
0.0
 11
-54.74342602025087
 21
82.88030820841757
 31
0.0
  0
LINE
  5
2FB
  8
0
  6
CONTINUOUS
 62
     3
 10
-83.74342602025087
 20
75.88030820841757
 30
0.0
 11
-70.74342602025087
 21
75.88030820841757
 31
0.0
  0
LINE
  5
2FC
  8
0
  6
CONTINUOUS
 62
     3
 10
-56.74342602025087
 20
81.56040006632773
 30
0.0
 11
-56.74342602025087
 21
-59.61969179158243
 31
0.0
  0
LINE
  5
2FD
  8
0
  6
CONTINUOUS
 62
     3
 10
-97.24341350263818
 20
89.38030355308908
 30
0.0
 11
-83.74341961240167
 21
75.88031080081689
 31
0.0
  0
LINE
  5
2FE
  8
0
  6
CONTINUOUS
 62
     3
 10
-74.74342602025087
 20
82.38030820841757
 30
0.0
 11
-70.74342602025087
 21
82.38030820841757
 31
0.0
  0
LINE
  5
2FF
  8
0
  6
CONTINUOUS
 62
     3
 10
-65.74342602025087
 20
140.8803082084176
 30
0.0
 11
-65.74342602025087
 21
133.3803204154488
 31
0.0
  0
LINE
  5
300
  8
0
  6
CONTINUOUS
 62
     3
 10
-74.74342602025087
 20
140.8803082084176
 30
0.0
 11
-74.74342602025087
 21
82.38030820841757
 31
0.0
  0
LINE
  5
301
  8
0
  6
CONTINUOUS
 62
     3
 10
-97.24342602025087
 20
141.4101543998238
 30
0.0
 11
-83.74342602025087
 21
141.4101543998238
 31
0.0
  0
LINE
  5
302
  8
0
  6
CONTINUOUS
 62
     3
 10
-70.74342602025087
 20
141.4101543998238
 30
0.0
 11
-56.74342602025087
 21
141.4101543998238
 31
0.0
  0
LINE
  5
303
  8
0
  6
CONTINUOUS
 62
     3
 10
-80.24342602025087
 20
71.88030820841757
 30
0.0
 11
-80.24342602025087
 21
68.88030820841757
 31
0.0
  0
LINE
  5
304
  8
0
  6
CONTINUOUS
 62
     3
 10
-80.24342602025087
 20
9.880308208417581
 30
0.0
 11
-70.74342602025087
 21
9.880308208417581
 31
0.0
  0
LINE
  5
305
  8
0
  6
CONTINUOUS
 62
     3
 10
-80.24342602025087
 20
71.88030820841757
 30
0.0
 11
-70.74342602025087
 21
71.88030820841757
 31
0.0
  0
LINE
  5
306
  8
0
  6
CONTINUOUS
 62
     3
 10
-91.74342602025087
 20
68.88030820841757
 30
0.0
 11
-56.74342602025087
 21
68.88030820841757
 31
0.0
  0
LINE
  5
307
  8
0
  6
CONTINUOUS
 62
     3
 10
-91.74342602025087
 20
12.88030820841758
 30
0.0
 11
-56.74342602025087
 21
12.88030820841758
 31
0.0
  0
LINE
  5
308
  8
0
  6
CONTINUOUS
 62
     3
 10
-70.74342602025087
 20
9.880310115766214
 30
0.0
 11
-70.74342602025087
 21
2.380310115766214
 31
0.0
  0
LINE
  5
309
  8
0
  6
CONTINUOUS
 62
     3
 10
-80.24342602025087
 20
12.88031011576621
 30
0.0
 11
-80.24342602025087
 21
9.880310115766214
 31
0.0
  0
LINE
  5
30A
  8
0
  6
CONTINUOUS
 62
     3
 10
-70.74342602025087
 20
79.38030820841757
 30
0.0
 11
-69.24342602025087
 21
79.38030820841757
 31
0.0
  0
LINE
  5
30B
  8
0
  6
CONTINUOUS
 62
     3
 10
-69.24342102998202
 20
79.380316234802
 30
0.0
 11
-56.7434161791229
 21
72.16343586662177
 31
0.0
  0
LINE
  5
30C
  8
0
  6
CONTINUOUS
 62
     3
 10
-63.74342602025087
 20
4.380310115766214
 30
0.0
 11
-63.74342602025087
 21
-6.619689884233786
 31
0.0
  0
LINE
  5
30D
  8
0
  6
CONTINUOUS
 62
     3
 10
-63.74342602025087
 20
-6.619691791582419
 30
0.0
 11
-56.74342602025087
 21
-6.619691791582419
 31
0.0
  0
LINE
  5
30E
  8
0
  6
CONTINUOUS
 62
     3
 10
-63.74342602025087
 20
4.380308208417581
 30
0.0
 11
-56.74342602025087
 21
4.380308208417581
 31
0.0
  0
LINE
  5
30F
  8
0
  6
CONTINUOUS
 62
     3
 10
-70.74342602025087
 20
-4.619691791582419
 30
0.0
 11
-63.74342602025087
 21
-4.619691791582419
 31
0.0
  0
LINE
  5
310
  8
0
  6
CONTINUOUS
 62
     3
 10
-70.74342602025087
 20
2.380308208417581
 30
0.0
 11
-63.74342602025087
 21
2.380308208417581
 31
0.0
  0
LINE
  5
311
  8
0
  6
CONTINUOUS
 62
     3
 10
-70.74342602025087
 20
-4.619689884233786
 30
0.0
 11
-70.74342602025087
 21
-7.119689884233786
 31
0.0
  0
LINE
  5
312
  8
0
  6
CONTINUOUS
 62
     3
 10
-74.04342907200868
 20
133.3803204154488
 30
0.0
 11
-52.24342602025087
 21
133.3803204154488
 31
0.0
  0
LINE
  5
313
  8
0
  6
CONTINUOUS
 62
     3
 10
-74.04342907200868
 20
89.38031278605429
 30
0.0
 11
-52.24342602025087
 21
89.38031278605429
 31
0.0
  0
LINE
  5
314
  8
0
  6
CONTINUOUS
 62
     3
 10
-52.24342602025087
 20
133.3803204154488
 30
0.0
 11
-52.24342602025087
 21
129.8803204154488
 31
0.0
  0
LINE
  5
315
  8
0
  6
CONTINUOUS
 62
     3
 10
-74.04342907200868
 20
133.3803204154488
 30
0.0
 11
-74.04342907200868
 21
89.38031278605429
 31
0.0
  0
LINE
  5
316
  8
0
  6
CONTINUOUS
 62
     3
 10
-52.24342602025087
 20
92.88031278605429
 30
0.0
 11
-52.24342602025087
 21
89.38031278605429
 31
0.0
  0
LINE
  5
317
  8
0
  6
CONTINUOUS
 62
     3
 10
-65.74342602025087
 20
89.38031278605429
 30
0.0
 11
-65.74342602025087
 21
82.88030820841757
 31
0.0
  0
LINE
  5
318
  8
0
  6
CONTINUOUS
 62
     3
 10
-52.24342602025087
 20
117.8803127860543
 30
0.0
 11
-52.24342602025087
 21
104.8803127860543
 31
0.0
  0
LINE
  5
319
  8
0
  6
CONTINUOUS
 62
     3
 10
-41.74342602025087
 20
132.8803204154488
 30
0.0
 11
-41.74342602025087
 21
114.8803127860543
 31
0.0
  0
LINE
  5
31A
  8
0
  6
CONTINUOUS
 62
     3
 10
-41.74342602025087
 20
107.8803127860543
 30
0.0
 11
-41.74342602025087
 21
89.88031278605429
 31
0.0
  0
LINE
  5
31B
  8
0
  6
CONTINUOUS
 62
     3
 10
-29.74342602025087
 20
107.8803127860543
 30
0.0
 11
-29.74342602025087
 21
89.88031278605429
 31
0.0
  0
LINE
  5
31C
  8
0
  6
CONTINUOUS
 62
     3
 10
-29.74342602025087
 20
132.8803204154488
 30
0.0
 11
-29.74342602025087
 21
114.8803127860543
 31
0.0
  0
LINE
  5
31D
  8
0
  6
CONTINUOUS
 62
     3
 10
-74.04342907200868
 20
104.8803127860543
 30
0.0
 11
-41.74342602025087
 21
104.8803127860543
 31
0.0
  0
LINE
  5
31E
  8
0
  6
CONTINUOUS
 62
     3
 10
-74.04342907200868
 20
92.88031278605429
 30
0.0
 11
-41.74342602025087
 21
92.88031278605429
 31
0.0
  0
LINE
  5
31F
  8
0
  6
CONTINUOUS
 62
     3
 10
-74.04342907200868
 20
117.8803127860543
 30
0.0
 11
-41.74342602025087
 21
117.8803127860543
 31
0.0
  0
LINE
  5
320
  8
0
  6
CONTINUOUS
 62
     3
 10
-74.04342907200868
 20
129.8803204154488
 30
0.0
 11
-41.74342602025087
 21
129.8803204154488
 31
0.0
  0
LINE
  5
321
  8
0
  6
CONTINUOUS
 62
     3
 10
-71.74342602025087
 20
129.8803204154488
 30
0.0
 11
-71.74342602025087
 21
117.8803127860543
 31
0.0
  0
LINE
  5
322
  8
0
  6
CONTINUOUS
 62
     3
 10
-71.74342602025087
 20
104.8803127860543
 30
0.0
 11
-71.74342602025087
 21
92.88031278605429
 31
0.0
  0
LINE
  5
323
  8
0
  6
CONTINUOUS
 62
     3
 10
-41.74342602025087
 20
107.8803127860543
 30
0.0
 11
-29.74342602025087
 21
107.8803127860543
 31
0.0
  0
LINE
  5
324
  8
0
  6
CONTINUOUS
 62
     3
 10
-41.74342602025087
 20
89.88031278605429
 30
0.0
 11
-29.74342602025087
 21
89.88031278605429
 31
0.0
  0
LINE
  5
325
  8
0
  6
CONTINUOUS
 62
     3
 10
-41.74342602025087
 20
132.8803204154488
 30
0.0
 11
-29.74342602025087
 21
132.8803204154488
 31
0.0
  0
LINE
  5
326
  8
0
  6
CONTINUOUS
 62
     3
 10
-41.74342602025087
 20
114.8803127860543
 30
0.0
 11
-29.74342602025087
 21
114.8803127860543
 31
0.0
  0
LINE
  5
327
  8
0
  6
CONTINUOUS
 62
     3
 10
-170.7434260202509
 20
-16.50469011311562
 30
0.0
 11
-170.7434260202509
 21
-51.61969179158242
 31
0.0
  0
LINE
  5
328
  8
0
  6
CONTINUOUS
 62
     3
 10
-171.7434260202509
 20
-16.50469011311562
 30
0.0
 11
-171.7434260202509
 21
-61.61969179158243
 31
0.0
  0
LINE
  5
329
  8
0
  6
CONTINUOUS
 62
     3
 10
-81.74342602025087
 20
1.880310115766214
 30
0.0
 11
-81.74342602025087
 21
-4.119689884233786
 31
0.0
  0
LINE
  5
32A
  8
0
  6
CONTINUOUS
 62
     3
 10
-57.74342602025087
 20
3.880310115766214
 30
0.0
 11
-57.74342602025087
 21
-6.119689884233786
 31
0.0
  0
LINE
  5
32B
  8
0
  6
CONTINUOUS
 62
     3
 10
-63.74342602025087
 20
-6.119691791582419
 30
0.0
 11
-57.74342602025087
 21
-6.119691791582419
 31
0.0
  0
LINE
  5
32C
  8
0
  6
CONTINUOUS
 62
     3
 10
-63.74342602025087
 20
3.880308208417581
 30
0.0
 11
-57.74342602025087
 21
3.880308208417581
 31
0.0
  0
LINE
  5
32D
  8
0
  6
CONTINUOUS
 62
     3
 10
-81.74342602025087
 20
-4.119691791582419
 30
0.0
 11
-63.74342602025087
 21
-4.119691791582419
 31
0.0
  0
LINE
  5
32E
  8
0
  6
CONTINUOUS
 62
     3
 10
-81.74342602025087
 20
1.880308208417581
 30
0.0
 11
-63.74342602025087
 21
1.880308208417581
 31
0.0
  0
LINE
  5
32F
  8
0
  6
CONTINUOUS
 62
     3
 10
-146.7434260202509
 20
77.38030820841757
 30
0.0
 11
-146.7434260202509
 21
4.380310115766214
 31
0.0
  0
LINE
  5
330
  8
0
  6
CONTINUOUS
 62
     3
 10
-91.74342602025087
 20
74.38030057902304
 30
0.0
 11
-91.74342602025087
 21
68.88030820841757
 31
0.0
  0
LINE
  5
331
  8
0
  6
CONTINUOUS
 62
     3
 10
-66.74342602025087
 20
68.88030820841757
 30
0.0
 11
-66.74342602025087
 21
12.88031011576621
 31
0.0
  0
LINE
  5
332
  8
0
  6
CONTINUOUS
 62
     3
 10
-121.7434260202509
 20
65.88030820841757
 30
0.0
 11
-66.74342602025087
 21
65.88030820841757
 31
0.0
  0
LINE
  5
333
  8
0
  6
CONTINUOUS
 62
     3
 10
-121.7434260202509
 20
15.88030820841758
 30
0.0
 11
-66.74342602025087
 21
15.88030820841758
 31
0.0
  0
LINE
  5
334
  8
0
  6
CONTINUOUS
 62
     3
 10
-91.74342602025087
 20
12.88031011576621
 30
0.0
 11
-91.74342602025087
 21
7.380310115766214
 31
0.0
  0
LINE
  5
335
  8
0
  6
CONTINUOUS
 62
     3
 10
-95.2434305330478
 20
77.88030820841757
 30
0.0
 11
-91.74343036000613
 21
74.3803042000105
 31
0.0
  0
LINE
  5
336
  8
0
  6
CONTINUOUS
 62
     3
 10
-91.74341300249699
 20
7.380311262912564
 30
0.0
 11
-95.24341671806025
 21
3.880307547349311
 31
0.0
  0
LINE
  5
337
  8
0
  6
CONTINUOUS
 62
     3
 10
-146.7434093497596
 20
4.380316170338837
 30
0.0
 11
-146.2434088189648
 21
3.880315639544087
 31
0.0
  0
LINE
  5
338
  8
0
  6
CONTINUOUS
 62
     3
 10
-146.743444415937
 20
77.38029386263682
 30
0.0
 11
-146.2434438851422
 21
77.88029439343157
 31
0.0
  0
LINE
  5
339
  8
0
  6
CONTINUOUS
 62
     3
 10
-121.7434260202509
 20
70.38030820841757
 30
0.0
 11
-121.7434260202509
 21
11.38031011576621
 31
0.0
  0
LINE
  5
33A
  8
0
  6
CONTINUOUS
 62
     3
 10
-124.7434260202509
 20
70.38030820841757
 30
0.0
 11
-124.7434260202509
 21
56.94698148722618
 31
0.0
  0
LINE
  5
33B
  8
0
  6
CONTINUOUS
 62
     3
 10
-123.7434260202509
 20
10.38030820841758
 30
0.0
 11
-122.7434260202509
 21
10.38030820841758
 31
0.0
  0
LINE
  5
33C
  8
0
  6
CONTINUOUS
 62
     3
 10
-123.7434260202509
 20
71.38030820841757
 30
0.0
 11
-122.7434260202509
 21
71.38030820841757
 31
0.0
  0
LINE
  5
33D
  8
0
  6
CONTINUOUS
 62
     3
 10
-145.7434260202509
 20
70.08031278605429
 30
0.0
 11
-145.7434260202509
 21
56.82585721964805
 31
0.0
  0
LINE
  5
33E
  8
0
  6
CONTINUOUS
 62
     3
 10
-145.7434120313429
 20
70.08031270516202
 30
0.0
 11
-146.7434111541753
 21
71.08031570550864
 31
0.0
  0
LINE
  5
33F
  8
0
  6
CONTINUOUS
 62
     3
 10
-145.7434053548905
 20
11.6802903598198
 30
0.0
 11
-146.7434019489102
 21
10.68029562025348
 31
0.0
  0
LINE
  5
340
  8
0
  6
CONTINUOUS
 62
     3
 10
-145.7434260202509
 20
23.8793964957711
 30
0.0
 11
-145.7434260202509
 21
11.68030935282676
 31
0.0
  0
LINE
  5
341
  8
0
  6
CONTINUOUS
 62
     3
 10
-124.7434260202509
 20
23.8793964957711
 30
0.0
 11
-124.7434260202509
 21
11.38031011576621
 31
0.0
  0
LINE
  5
342
  8
0
  6
CONTINUOUS
 62
     3
 10
-170.7434303509857
 20
-0.4021925788036569
 30
0.0
 11
-154.7434182567608
 21
1.597804247628041
 31
0.0
  0
LINE
  5
343
  8
0
  6
CONTINUOUS
 62
     3
 10
-170.7434223664961
 20
82.16281177843101
 30
0.0
 11
-154.7434254132306
 21
80.16281684461481
 31
0.0
  0
LINE
  5
344
  8
0
  6
CONTINUOUS
 62
     3
 10
-187.7434260202509
 20
-6.504690113115622
 30
0.0
 11
-187.7434260202509
 21
-16.50469011311562
 31
0.0
  0
LINE
  5
345
  8
0
  6
CONTINUOUS
 62
     3
 10
-187.7434260202509
 20
-16.50469011311562
 30
0.0
 11
-138.9723536325556
 21
-16.50469011311562
 31
0.0
  0
LINE
  5
346
  8
0
  6
CONTINUOUS
 62
     3
 10
-187.7434260202509
 20
-6.504690113115622
 30
0.0
 11
-139.0959193063837
 21
-6.504690113115622
 31
0.0
  0
LINE
  5
347
  8
0
  6
CONTINUOUS
 62
     3
 10
-170.7434260202509
 20
-5.754690113115622
 30
0.0
 11
-138.9799525095087
 21
-5.754690113115622
 31
0.0
  0
LINE
  5
348
  8
0
  6
CONTINUOUS
 62
     3
 10
-170.7434260202509
 20
-17.25469011311562
 30
0.0
 11
-138.9780451608759
 21
-17.25469011311562
 31
0.0
  0
LINE
  5
349
  8
0
  6
CONTINUOUS
 62
     3
 10
-124.9434229684931
 20
-41.61969942097695
 30
0.0
 11
-118.5434290720087
 21
-41.61969942097695
 31
0.0
  0
LINE
  5
34A
  8
0
  6
CONTINUOUS
 62
     3
 10
-124.9434229684931
 20
-41.61969942097695
 30
0.0
 11
-124.9434229684931
 21
-61.61969942097696
 31
0.0
  0
LINE
  5
34B
  8
0
  6
CONTINUOUS
 62
     3
 10
-118.5434290720087
 20
-41.61969942097695
 30
0.0
 11
-118.5434290720087
 21
-61.61969942097696
 31
0.0
  0
LINE
  5
34C
  8
0
  6
CONTINUOUS
 62
     3
 10
-124.9434292007692
 20
-41.61970083811294
 30
0.0
 11
-121.7434323990211
 21
-39.77218202733521
 31
0.0
  0
LINE
  5
34D
  8
0
  6
CONTINUOUS
 62
     3
 10
-121.7434288333446
 20
-39.77218057588467
 30
0.0
 11
-118.5434320315965
 21
-41.6196993866624
 31
0.0
  0
ARC
  5
34E
  8
0
  6
CONTINUOUS
 62
     3
 10
-123.7434260202509
 20
70.38030820841757
 30
0.0
 40
1.0
 50
89.99998201391065
 51
179.9999640278213
  0
ARC
  5
34F
  8
0
  6
CONTINUOUS
 62
     3
 10
-122.7434260202509
 20
70.38030820841757
 30
0.0
 40
1.0
 50
0.0
 51
89.99998201391065
  0
ARC
  5
350
  8
0
  6
CONTINUOUS
 62
     3
 10
-122.7434260202509
 20
11.38030820841758
 30
0.0
 40
1.0
 50
270.0000179860894
 51
360.0
  0
ARC
  5
351
  8
0
  6
CONTINUOUS
 62
     3
 10
-123.7434260202509
 20
11.38030820841758
 30
0.0
 40
1.0
 50
179.9999813306654
 51
270.0000179860894
  0
LINE
  5
352
  8
0
  6
CONTINUOUS
 62
     3
 10
121.4920274266396
 20
7.914779839369466
 30
0.0
 11
61.52856684348734
 21
-26.70514501823751
 31
0.0
  0
LINE
  5
353
  8
0
  6
CONTINUOUS
 62
     3
 10
101.4920504493052
 20
42.55582765698936
 30
0.0
 11
41.52854361540739
 21
7.93587609649834
 31
0.0
  0
LINE
  5
354
  8
0
  6
CONTINUOUS
 62
     3
 10
59.48740784487808
 20
-22.11006973630125
 30
0.0
 11
63.14766969431429
 21
-25.77033127720048
 31
0.0
  0
LINE
  5
355
  8
0
  6
CONTINUOUS
 62
     3
 10
44.4874003523534
 20
3.870678889828049
 30
0.0
 11
59.48740404784161
 21
-22.11008606102106
 31
0.0
  0
LINE
  5
356
  8
0
  6
CONTINUOUS
 62
     3
 10
43.14766223097738
 20
8.870668194297284
 30
0.0
 11
44.48740798511834
 21
3.870670739735012
 31
0.0
  0
LINE
  5
357
  8
0
  6
CONTINUOUS
 62
     3
 10
46.30405284608031
 20
42.85144998233128
 30
0.0
 11
49.15405091489009
 21
37.91510558095323
 31
0.0
  0
LINE
  5
358
  8
0
  6
CONTINUOUS
 62
     3
 10
49.15405399073546
 20
37.91510587687461
 30
0.0
 11
54.85405093897765
 21
37.91510587687461
 31
0.0
  0
LINE
  5
359
  8
0
  6
CONTINUOUS
 62
     3
 10
54.85405309718254
 20
37.91510578050023
 30
0.0
 11
57.70405496876657
 21
42.85144581209537
 31
0.0
  0
LINE
  5
35A
  8
0
  6
CONTINUOUS
 62
     3
 10
57.70406094801183
 20
42.85144896397416
 30
0.0
 11
54.85406148147428
 21
47.78779734847061
 31
0.0
  0
LINE
  5
35B
  8
0
  6
CONTINUOUS
 62
     3
 10
54.85405475367492
 20
47.78779417033164
 30
0.0
 11
49.15405780543273
 21
47.78779417033164
 31
0.0
  0
LINE
  5
35C
  8
0
  6
CONTINUOUS
 62
     3
 10
49.15405505876623
 20
47.78779518381013
 30
0.0
 11
46.30405747275557
 21
42.85145675710798
 31
0.0
  0
CIRCLE
  5
35D
  8
0
  6
CONTINUOUS
 62
     3
 10
138.5899174856085
 20
40.88030820841758
 30
0.0
 40
102.5
  0
ARC
  5
35E
  8
0
  6
CONTINUOUS
 62
     3
 10
138.5899174856085
 20
40.88030820841758
 30
0.0
 40
100.5
 50
101.4787979330341
 51
198.5211967548481
  0
ARC
  5
35F
  8
0
  6
CONTINUOUS
 62
     3
 10
138.5899174856085
 20
40.88030820841758
 30
0.0
 40
100.5000076293945
 50
221.4787775940473
 51
318.5212242271855
  0
CIRCLE
  5
360
  8
0
  6
CONTINUOUS
 62
     3
 10
52.00405627955382
 20
42.85145002360313
 30
0.0
 40
9.0
  0
CIRCLE
  5
361
  8
0
  6
CONTINUOUS
 62
     3
 10
52.00405627955382
 20
42.85145002360313
 30
0.0
 40
2.400000095367432
  0
CIRCLE
  5
362
  8
0
  6
CONTINUOUS
 62
     3
 10
52.00405627955382
 20
42.85145002360313
 30
0.0
 40
3.299999952316284
  0
CIRCLE
  5
363
  8
0
  6
CONTINUOUS
 62
     3
 10
87.98989612330382
 20
54.43853956217735
 30
0.0
 40
5.5
  0
CIRCLE
  5
364
  8
0
  6
CONTINUOUS
 62
     3
 10
87.98989612330382
 20
54.43853956217735
 30
0.0
 40
8.5
  0
LINE
  5
365
  8
0
  6
CONTINUOUS
 62
     3
 10
56.23747938905316
 20
-16.48096677622598
 30
0.0
 11
68.39816959754901
 21
-9.459989010819243
 31
0.0
  0
LINE
  5
366
  8
0
  6
CONTINUOUS
 62
     3
 10
66.70991259014531
 20
-6.469765625386998
 30
0.0
 11
61.64366169816199
 21
-3.544757319470243
 31
0.0
  0
LINE
  5
367
  8
0
  6
CONTINUOUS
 62
     3
 10
71.77618806568603
 20
2.305243700058895
 30
0.0
 11
71.77618317615372
 21
-3.544754673633747
 31
0.0
  0
LINE
  5
368
  8
0
  6
CONTINUOUS
 62
     3
 10
71.77615446181341
 20
-3.544759795097633
 30
0.0
 11
66.70991377837382
 21
-6.469755217460914
 31
0.0
  0
LINE
  5
369
  8
0
  6
CONTINUOUS
 62
     3
 10
62.73265934583728
 20
-12.73097287974159
 30
0.0
 11
54.23265934583728
 21
1.991458984593855
 31
0.0
  0
CIRCLE
  5
36A
  8
0
  6
CONTINUOUS
 62
     3
 10
66.70990728903891
 20
-0.6197531328766104
 30
0.0
 40
8.999999999999998
  0
LINE
  5
36B
  8
0
  6
CONTINUOUS
 62
     3
 10
61.64360054456992
 20
-3.544731760469098
 30
0.0
 11
61.6436090235612
 21
2.30526285775882
 31
0.0
  0
LINE
  5
36C
  8
0
  6
CONTINUOUS
 62
     3
 10
61.64366011626444
 20
2.305253529344412
 30
0.0
 11
66.70990740695353
 21
5.230252766404959
 31
0.0
  0
LINE
  5
36D
  8
0
  6
CONTINUOUS
 62
     3
 10
66.70990743154593
 20
5.230247243030874
 30
0.0
 11
71.77615832352927
 21
2.305238937114112
 31
0.0
  0
LINE
  5
36E
  8
0
  6
CONTINUOUS
 62
     3
 10
47.73747938905316
 20
-1.758534911890529
 30
0.0
 11
59.89816959754901
 21
5.262442853516205
 31
0.0
  0
LINE
  5
36F
  8
0
  6
CONTINUOUS
 62
     3
 10
65.02164498052881
 20
8.220482745066015
 30
0.0
 11
81.54880604443414
 21
17.76244363425204
 31
0.0
  0
CIRCLE
  5
370
  8
0
  6
CONTINUOUS
 62
     3
 10
88.36054238364991
 20
11.88024686712338
 30
0.0
 40
8.999999999999998
  0
LINE
  5
371
  8
0
  6
CONTINUOUS
 62
     3
 10
88.36055009721989
 20
6.030233144843542
 30
0.0
 11
83.29429920523651
 21
8.955241450760305
 31
0.0
  0
LINE
  5
372
  8
0
  6
CONTINUOUS
 62
     3
 10
93.42678955642438
 20
8.95524020490236
 30
0.0
 11
88.36054226573529
 21
6.030240967841813
 31
0.0
  0
LINE
  5
373
  8
0
  6
CONTINUOUS
 62
     3
 10
83.29423754103229
 20
8.955262138243505
 30
0.0
 11
83.29424602002914
 21
14.80526057116867
 31
0.0
  0
LINE
  5
374
  8
0
  6
CONTINUOUS
 62
     3
 10
83.29429521087539
 20
14.80525352934441
 30
0.0
 11
88.36054250156448
 21
17.73025276640495
 31
0.0
  0
LINE
  5
375
  8
0
  6
CONTINUOUS
 62
     3
 10
88.36054875332459
 20
17.73025262050698
 30
0.0
 11
93.42679964530797
 21
14.80524431459022
 31
0.0
  0
LINE
  5
376
  8
0
  6
CONTINUOUS
 62
     3
 10
86.67228007513978
 20
20.720482745066
 30
0.0
 11
97.96695280855059
 21
27.24146508810947
 31
0.0
  0
LINE
  5
377
  8
0
  6
CONTINUOUS
 62
     3
 10
73.52164498052881
 20
-6.501949119269433
 30
0.0
 11
90.04880604443414
 21
3.040011769916596
 31
0.0
  0
LINE
  5
378
  8
0
  6
CONTINUOUS
 62
     3
 10
118.5899174856085
 20
141.4101543998238
 30
0.0
 11
118.5899174856085
 21
72.17030912394492
 31
0.0
  0
LINE
  5
379
  8
0
  6
CONTINUOUS
 62
     3
 10
158.5899174856085
 20
141.4101543998238
 30
0.0
 11
158.5899174856085
 21
72.40244108195273
 31
0.0
  0
LINE
  5
37A
  8
0
  6
CONTINUOUS
 62
     3
 10
123.5899174856085
 20
140.8803082084176
 30
0.0
 11
153.5899174856085
 21
140.8803082084176
 31
0.0
  0
LINE
  5
37B
  8
0
  6
CONTINUOUS
 62
     3
 10
118.589908782357
 20
139.5405280861858
 30
0.0
 11
123.5899190470597
 21
140.8802766557208
 31
0.0
  0
LINE
  5
37C
  8
0
  6
CONTINUOUS
 62
     3
 10
153.5899318075453
 20
140.8802979355287
 30
0.0
 11
158.5898978556733
 21
139.5405612137879
 31
0.0
  0
LINE
  5
37D
  8
0
  6
CONTINUOUS
 62
     3
 10
118.589909856214
 20
82.88030820841757
 30
0.0
 11
130.0899174856085
 21
82.88030820841757
 31
0.0
  0
LINE
  5
37E
  8
0
  6
CONTINUOUS
 62
     3
 10
130.0899174856085
 20
140.8803082084176
 30
0.0
 11
130.0899174856085
 21
126.8383526776041
 31
0.0
  0
LINE
  5
37F
  8
0
  6
CONTINUOUS
 62
     3
 10
147.0899174856085
 20
140.8803082084176
 30
0.0
 11
147.0899174856085
 21
126.8383526776041
 31
0.0
  0
LINE
  5
380
  8
0
  6
CONTINUOUS
 62
     3
 10
147.0899174856085
 20
82.88030820841757
 30
0.0
 11
158.5899174856085
 21
82.88030820841757
 31
0.0
  0
LINE
  5
381
  8
0
  6
CONTINUOUS
 62
     3
 10
118.589909856214
 20
79.38030820841757
 30
0.0
 11
158.5899174856085
 21
79.38030820841757
 31
0.0
  0
LINE
  5
382
  8
0
  6
CONTINUOUS
 62
     3
 10
118.589909856214
 20
72.17030912394492
 30
0.0
 11
158.5899174856085
 21
72.17030912394492
 31
0.0
  0
LINE
  5
383
  8
0
  6
CONTINUOUS
 62
     3
 10
130.0899174856085
 20
89.38031278605429
 30
0.0
 11
147.0899174856085
 21
89.38031278605429
 31
0.0
  0
LINE
  5
384
  8
0
  6
CONTINUOUS
 62
     3
 10
133.523655404085
 20
126.8053144414167
 30
0.0
 11
138.5899123492811
 21
129.7303122628615
 31
0.0
  0
LINE
  5
385
  8
0
  6
CONTINUOUS
 62
     3
 10
138.5899650608214
 20
129.7303524439251
 30
0.0
 11
143.6562047727134
 21
126.8053477917893
 31
0.0
  0
LINE
  5
386
  8
0
  6
CONTINUOUS
 62
     3
 10
143.6561711477179
 20
126.8053082084176
 30
0.0
 11
143.6561711477179
 21
120.9553097342965
 31
0.0
  0
LINE
  5
387
  8
0
  6
CONTINUOUS
 62
     3
 10
143.6561663520394
 20
120.9553124746859
 30
0.0
 11
138.5899094068433
 21
118.0303146532411
 31
0.0
  0
LINE
  5
388
  8
0
  6
CONTINUOUS
 62
     3
 10
138.5898986605961
 20
118.0302865143054
 30
0.0
 11
133.5236539016468
 21
120.9552899356109
 31
0.0
  0
LINE
  5
389
  8
0
  6
CONTINUOUS
 62
     3
 10
133.5236638234991
 20
120.955317363691
 30
0.0
 11
133.5236638234991
 21
126.8053082084176
 31
0.0
  0
LINE
  5
38A
  8
0
  6
CONTINUOUS
 62
     3
 10
133.5236531328416
 20
101.8053129670467
 30
0.0
 11
138.5899100780377
 21
104.7303107884914
 31
0.0
  0
LINE
  5
38B
  8
0
  6
CONTINUOUS
 62
     3
 10
138.5899588260258
 20
104.7303538475172
 30
0.0
 11
143.6562018415397
 21
101.8053472880279
 31
0.0
  0
LINE
  5
38C
  8
0
  6
CONTINUOUS
 62
     3
 10
143.6561711477179
 20
101.8053082084176
 30
0.0
 11
143.6561711477179
 21
95.95530973429648
 31
0.0
  0
LINE
  5
38D
  8
0
  6
CONTINUOUS
 62
     3
 10
143.6561678954865
 20
95.95530439306238
 30
0.0
 11
138.5899109502904
 21
93.0303065716176
 31
0.0
  0
LINE
  5
38E
  8
0
  6
CONTINUOUS
 62
     3
 10
138.5898772463324
 20
93.03028635003155
 30
0.0
 11
133.5236324873831
 21
95.95528977133706
 31
0.0
  0
LINE
  5
38F
  8
0
  6
CONTINUOUS
 62
     3
 10
133.5236638234991
 20
95.95531736369101
 30
0.0
 11
133.5236638234991
 21
101.8053158378121
 31
0.0
  0
LINE
  5
390
  8
0
  6
CONTINUOUS
 62
     3
 10
130.0899174856085
 20
95.92227289450449
 30
0.0
 11
130.0899174856085
 21
82.88030820841757
 31
0.0
  0
LINE
  5
391
  8
0
  6
CONTINUOUS
 62
     3
 10
130.0899174856085
 20
120.9222728945045
 30
0.0
 11
130.0899174856085
 21
101.8383511161324
 31
0.0
  0
LINE
  5
392
  8
0
  6
CONTINUOUS
 62
     3
 10
147.0899174856085
 20
120.9222728945045
 30
0.0
 11
147.0899174856085
 21
101.8383511161324
 31
0.0
  0
LINE
  5
393
  8
0
  6
CONTINUOUS
 62
     3
 10
147.0899174856085
 20
95.92227289450449
 30
0.0
 11
147.0899174856085
 21
82.88030820841757
 31
0.0
  0
LINE
  5
394
  8
0
  6
CONTINUOUS
 62
     3
 10
99.66205960972076
 20
63.35529812877602
 30
0.0
 11
102.2168334446331
 21
64.8302939653943
 31
0.0
  0
LINE
  5
395
  8
0
  6
CONTINUOUS
 62
     3
 10
102.2168450366116
 20
64.83029385751141
 30
0.0
 11
104.77161517902
 21
63.3552916908864
 31
0.0
  0
LINE
  5
396
  8
0
  6
CONTINUOUS
 62
     3
 10
104.7716191457648
 20
63.35529905314414
 30
0.0
 11
104.7716191457648
 21
60.40530210490196
 31
0.0
  0
LINE
  5
397
  8
0
  6
CONTINUOUS
 62
     3
 10
104.7716162090192
 20
60.40529682249693
 30
0.0
 11
102.2168423741069
 21
58.9303010737954
 31
0.0
  0
LINE
  5
398
  8
0
  6
CONTINUOUS
 62
     3
 10
102.216856345296
 20
58.93031286479008
 30
0.0
 11
99.66208532371996
 21
60.40531362474693
 31
0.0
  0
LINE
  5
399
  8
0
  6
CONTINUOUS
 62
     3
 10
99.66206104029601
 20
60.40530973429649
 30
0.0
 11
99.66206104029601
 21
63.35530668253868
 31
0.0
  0
LINE
  5
39A
  8
0
  6
CONTINUOUS
 62
     3
 10
172.4081995154382
 20
63.35531980980139
 30
0.0
 11
174.9629865648574
 21
64.83032327580057
 31
0.0
  0
LINE
  5
39B
  8
0
  6
CONTINUOUS
 62
     3
 10
174.9629908142401
 20
64.8303166592971
 30
0.0
 11
177.5177741711363
 21
63.35530686325846
 31
0.0
  0
LINE
  5
39C
  8
0
  6
CONTINUOUS
 62
     3
 10
177.5177434133429
 20
63.35530668253868
 30
0.0
 11
177.5177434133429
 21
60.40530973429649
 31
0.0
  0
LINE
  5
39D
  8
0
  6
CONTINUOUS
 62
     3
 10
177.5177703910073
 20
60.40532053877477
 30
0.0
 11
174.9629833415881
 21
58.9303171606928
 31
0.0
  0
LINE
  5
39E
  8
0
  6
CONTINUOUS
 62
     3
 10
174.9629862511528
 20
58.93031605996911
 30
0.0
 11
172.4082152295768
 21
60.40531681992596
 31
0.0
  0
LINE
  5
39F
  8
0
  6
CONTINUOUS
 62
     3
 10
172.4081853078741
 20
60.40530973429649
 30
0.0
 11
172.4081853078741
 21
63.35531431193321
 31
0.0
  0
LINE
  5
3A0
  8
0
  6
CONTINUOUS
 62
     3
 10
177.8899595031582
 20
114.8803386836299
 30
0.0
 11
180.7399582872234
 21
109.9439930433924
 31
0.0
  0
LINE
  5
3A1
  8
0
  6
CONTINUOUS
 62
     3
 10
180.7399113820929
 20
109.9439602469918
 30
0.0
 11
186.4399235891241
 21
109.9439602469918
 31
0.0
  0
LINE
  5
3A2
  8
0
  6
CONTINUOUS
 62
     3
 10
186.4398867422091
 20
109.9439673024761
 30
0.0
 11
189.2898962431968
 21
114.8803205485645
 31
0.0
  0
LINE
  5
3A3
  8
0
  6
CONTINUOUS
 62
     3
 10
189.2899609618249
 20
114.880342904965
 30
0.0
 11
186.4399614952874
 21
119.8166912894614
 31
0.0
  0
LINE
  5
3A4
  8
0
  6
CONTINUOUS
 62
     3
 10
186.4399235891241
 20
119.8166561698434
 30
0.0
 11
180.7399113820929
 21
119.8166561698434
 31
0.0
  0
LINE
  5
3A5
  8
0
  6
CONTINUOUS
 62
     3
 10
180.7399631487578
 20
119.8166493595857
 30
0.0
 11
177.8899560260006
 21
114.8802944147613
 31
0.0
  0
LINE
  5
3A6
  8
0
  6
CONTINUOUS
 62
     3
 10
130.0899174856085
 20
133.3803204154488
 30
0.0
 11
147.0899174856085
 21
133.3803204154488
 31
0.0
  0
LINE
  5
3A7
  8
0
  6
CONTINUOUS
 62
     3
 10
101.4920509261424
 20
42.55582683108319
 30
0.0
 11
121.4920585555375
 21
7.914802216482748
 31
0.0
  0
LINE
  5
3A8
  8
0
  6
CONTINUOUS
 62
     3
 10
95.24799586366288
 20
38.95083378117992
 30
0.0
 11
115.248007784593
 21
4.309801733423946
 31
0.0
  0
LINE
  5
3A9
  8
0
  6
CONTINUOUS
 62
     3
 10
106.4669012111003
 20
12.51909246743097
 30
0.0
 11
112.2169018965537
 21
2.559800502661609
 31
0.0
  0
LINE
  5
3AA
  8
0
  6
CONTINUOUS
 62
     3
 10
92.21689188297245
 20
37.2008292467929
 30
0.0
 11
97.9669001978213
 21
27.24152406752481
 31
0.0
  0
LINE
  5
3AB
  8
0
  6
CONTINUOUS
 62
     3
 10
155.687881608555
 20
7.914784858297288
 30
0.0
 11
175.6879030662294
 21
42.55583342417666
 31
0.0
  0
LINE
  5
3AC
  8
0
  6
CONTINUOUS
 62
     3
 10
161.9319419162438
 20
4.309800893361889
 30
0.0
 11
181.9319519298251
 21
38.95082963749318
 31
0.0
  0
LINE
  5
3AD
  8
0
  6
CONTINUOUS
 62
     3
 10
175.6879030662294
 20
42.55583342417666
 30
0.0
 11
235.6513471312582
 21
7.935918103313988
 31
0.0
  0
LINE
  5
3AE
  8
0
  6
CONTINUOUS
 62
     3
 10
179.2130286591213
 20
27.24151764235948
 30
0.0
 11
184.9630407886679
 21
37.20082942887692
 31
0.0
  0
LINE
  5
3AF
  8
0
  6
CONTINUOUS
 62
     3
 10
164.9630231456912
 20
2.55978747024691
 30
0.0
 11
170.7130314605401
 21
12.519092649515
 31
0.0
  0
LINE
  5
3B0
  8
0
  6
CONTINUOUS
 62
     3
 10
155.6878589942552
 20
7.914806724337531
 30
0.0
 11
215.6513294882815
 21
-26.70512385531603
 31
0.0
  0
LINE
  5
3B1
  8
0
  6
CONTINUOUS
 62
     3
 10
232.692498272803
 20
3.870672638154964
 30
0.0
 11
234.032247459412
 21
8.870682902857688
 31
0.0
  0
LINE
  5
3B2
  8
0
  6
CONTINUOUS
 62
     3
 10
217.692501546785
 20
-22.11010988951258
 30
0.0
 11
232.6925185937152
 21
3.870678186709291
 31
0.0
  0
LINE
  5
3B3
  8
0
  6
CONTINUOUS
 62
     3
 10
214.0322347445635
 20
-25.77034838882374
 30
0.0
 11
217.6924858044058
 21
-22.11009763751755
 31
0.0
  0
LINE
  5
3B4
  8
0
  6
CONTINUOUS
 62
     3
 10
136.0351616026987
 20
0.355300524962594
 30
0.0
 11
138.5899486521179
 21
1.830303990961774
 31
0.0
  0
LINE
  5
3B5
  8
0
  6
CONTINUOUS
 62
     3
 10
138.5899461327458
 20
1.830306722276227
 30
0.0
 11
141.1447162751542
 21
0.3553045556512089
 31
0.0
  0
LINE
  5
3B6
  8
0
  6
CONTINUOUS
 62
     3
 10
141.1446965383429
 20
0.355306682538675
 30
0.0
 11
141.1446965383429
 21
-2.594694080400778
 31
0.0
  0
LINE
  5
3B7
  8
0
  6
CONTINUOUS
 62
     3
 10
141.144705782013
 20
-2.594683024326024
 30
0.0
 11
138.5899187325937
 21
-4.069686402407989
 31
0.0
  0
LINE
  5
3B8
  8
0
  6
CONTINUOUS
 62
     3
 10
138.5899348438961
 20
-4.069665217662724
 30
0.0
 11
136.03516382232
 21
-2.594664457705868
 31
0.0
  0
LINE
  5
3B9
  8
0
  6
CONTINUOUS
 62
     3
 10
136.0351384328741
 20
-2.594690265703513
 30
0.0
 11
136.0351384328741
 21
0.3553104972359407
 31
0.0
  0
LINE
  5
3BA
  8
0
  6
CONTINUOUS
 62
     3
 10
174.4758673850765
 20
-35.09080238328371
 30
0.0
 11
177.3258721296033
 21
-40.02715834734973
 31
0.0
  0
LINE
  5
3BB
  8
0
  6
CONTINUOUS
 62
     3
 10
177.3258183645148
 20
-40.02717775349648
 30
0.0
 11
183.0257847951788
 21
-40.02717775349648
 31
0.0
  0
LINE
  5
3BC
  8
0
  6
CONTINUOUS
 62
     3
 10
183.0257508722233
 20
-40.02714698316614
 30
0.0
 11
185.8757565585092
 21
-35.09080034432437
 31
0.0
  0
LINE
  5
3BD
  8
0
  6
CONTINUOUS
 62
     3
 10
185.8758737051141
 20
-35.09082031681574
 30
0.0
 11
183.0258770995976
 21
-30.15447688775767
 31
0.0
  0
LINE
  5
3BE
  8
0
  6
CONTINUOUS
 62
     3
 10
183.025830571546
 20
-30.15449708943398
 30
0.0
 11
177.3258183645148
 21
-30.15449708943398
 31
0.0
  0
LINE
  5
3BF
  8
0
  6
CONTINUOUS
 62
     3
 10
177.3258675442548
 20
-30.15450610297304
 30
0.0
 11
174.4758699582441
 21
-35.09084452967519
 31
0.0
  0
LINE
  5
3C0
  8
0
  6
CONTINUOUS
 62
     3
 10
125.031689122916
 20
-5.019724709317835
 30
0.0
 11
120.9613699198091
 21
-7.369718841243376
 31
0.0
  0
LINE
  5
3C1
  8
0
  6
CONTINUOUS
 62
     3
 10
120.961377446546
 20
-7.369713726091696
 30
0.0
 11
120.961377446546
 21
-12.06971258168252
 31
0.0
  0
LINE
  5
3C2
  8
0
  6
CONTINUOUS
 62
     3
 10
120.9613730424307
 20
-12.06971191651265
 30
0.0
 11
125.0316877632712
 21
-14.41971375233353
 31
0.0
  0
LINE
  5
3C3
  8
0
  6
CONTINUOUS
 62
     3
 10
125.0316912964212
 20
-14.41971746496275
 30
0.0
 11
129.1020104995282
 21
-12.06972319296639
 31
0.0
  0
LINE
  5
3C4
  8
0
  6
CONTINUOUS
 62
     3
 10
129.102002446546
 20
-12.06972021107705
 30
0.0
 11
129.102002446546
 21
-7.369721355486227
 31
0.0
  0
LINE
  5
3C5
  8
0
  6
CONTINUOUS
 62
     3
 10
129.1020177718601
 20
-7.369720252288253
 30
0.0
 11
125.0317041715861
 21
-5.019716175334189
 31
0.0
  0
ARC
  5
3C6
  8
0
  6
CONTINUOUS
 62
     3
 10
138.5899174856085
 20
40.88030820841758
 30
0.0
 40
100.5
 50
341.4787997163717
 51
438.5212207363006
  0
ARC
  5
3C7
  8
0
  6
CONTINUOUS
 62
     3
 10
138.5899174856085
 20
40.88030820841758
 30
0.0
 40
48.0
 50
354.6243717576146
 51
366.6726307931257
  0
CIRCLE
  5
3C8
  8
0
  6
CONTINUOUS
 62
     3
 10
183.5899174856085
 20
114.8803082084176
 30
0.0
 40
9.0
  0
CIRCLE
  5
3C9
  8
0
  6
CONTINUOUS
 62
     3
 10
102.2168400930304
 20
61.88030057902305
 30
0.0
 40
5.5
  0
CIRCLE
  5
3CA
  8
0
  6
CONTINUOUS
 62
     3
 10
174.9629948781866
 20
61.88031583781211
 30
0.0
 40
5.5
  0
ARC
  5
3CB
  8
0
  6
CONTINUOUS
 62
     3
 10
138.5899174856085
 20
40.88030820841758
 30
0.0
 40
48.0
 50
114.6243302738024
 51
126.6725790640298
  0
CIRCLE
  5
3CC
  8
0
  6
CONTINUOUS
 62
     3
 10
138.5899174856085
 20
40.88030820841758
 30
0.0
 40
28.0
  0
CIRCLE
  5
3CD
  8
0
  6
CONTINUOUS
 62
     3
 10
138.5899174856085
 20
123.8803127860543
 30
0.0
 40
9.0
  0
CIRCLE
  5
3CE
  8
0
  6
CONTINUOUS
 62
     3
 10
138.5899174856085
 20
98.88031278605429
 30
0.0
 40
9.0
  0
CIRCLE
  5
3CF
  8
0
  6
CONTINUOUS
 62
     3
 10
102.2168400930304
 20
61.88030057902305
 30
0.0
 40
5.0
  0
CIRCLE
  5
3D0
  8
0
  6
CONTINUOUS
 62
     3
 10
174.9629948781866
 20
61.88031583781211
 30
0.0
 40
5.0
  0
CIRCLE
  5
3D1
  8
0
  6
CONTINUOUS
 62
     3
 10
183.5899174856085
 20
114.8803082084176
 30
0.0
 40
2.400000095367432
  0
CIRCLE
  5
3D2
  8
0
  6
CONTINUOUS
 62
     3
 10
183.5899174856085
 20
114.8803082084176
 30
0.0
 40
3.299999952316284
  0
CIRCLE
  5
3D3
  8
0
  6
CONTINUOUS
 62
     3
 10
138.5899174856085
 20
40.88030820841758
 30
0.0
 40
25.0
  0
ARC
  5
3D4
  8
0
  6
CONTINUOUS
 62
     3
 10
138.5899174856085
 20
94.88030820841757
 30
0.0
 40
12.5
 50
227.1563450208637
 51
312.8436363098016
  0
ARC
  5
3D5
  8
0
  6
CONTINUOUS
 62
     3
 10
138.5899174856085
 20
40.88030820841758
 30
0.0
 40
48.0
 50
234.6243235951939
 51
246.6726201967455
  0
ARC
  5
3D6
  8
0
  6
CONTINUOUS
 62
     3
 10
91.82455188502257
 20
13.88030439372032
 30
0.0
 40
12.50000095367432
 50
347.1563620205463
 51
432.8436601396733
  0
ARC
  5
3D7
  8
0
  6
CONTINUOUS
 62
     3
 10
185.3552830861945
 20
13.88030439372032
 30
0.0
 40
12.50000095367432
 50
107.1563516994722
 51
192.84364298841
  0
CIRCLE
  5
3D8
  8
0
  6
CONTINUOUS
 62
     3
 10
138.5899174856085
 20
-1.119691791582419
 30
0.0
 40
5.500000476837158
  0
CIRCLE
  5
3D9
  8
0
  6
CONTINUOUS
 62
     3
 10
138.5899174856085
 20
-1.119691791582419
 30
0.0
 40
5.0
  0
CIRCLE
  5
3DA
  8
0
  6
CONTINUOUS
 62
     3
 10
180.1757939504523
 20
-35.09083742146523
 30
0.0
 40
9.0
  0
CIRCLE
  5
3DB
  8
0
  6
CONTINUOUS
 62
     3
 10
180.1757939504523
 20
-35.09083742146523
 30
0.0
 40
2.400000095367432
  0
CIRCLE
  5
3DC
  8
0
  6
CONTINUOUS
 62
     3
 10
180.1757939504523
 20
-35.09083742146523
 30
0.0
 40
3.300000190734863
  0
CIRCLE
  5
3DD
  8
0
  6
CONTINUOUS
 62
     3
 10
101.548177068128
 20
77.92214017863242
 30
0.0
 40
5.5
  0
CIRCLE
  5
3DE
  8
0
  6
CONTINUOUS
 62
     3
 10
175.6317265676398
 20
77.92207914347617
 30
0.0
 40
5.5
  0
CIRCLE
  5
3DF
  8
0
  6
CONTINUOUS
 62
     3
 10
189.1899388479132
 20
54.43854719157188
 30
0.0
 40
5.5
  0
CIRCLE
  5
3E0
  8
0
  6
CONTINUOUS
 62
     3
 10
152.148129765882
 20
-9.719719352770163
 30
0.0
 40
5.5
  0
CIRCLE
  5
3E1
  8
0
  6
CONTINUOUS
 62
     3
 10
152.148129765882
 20
-9.719719352770163
 30
0.0
 40
8.5
  0
CIRCLE
  5
3E2
  8
0
  6
CONTINUOUS
 62
     3
 10
125.031689946546
 20
-9.719715538072897
 30
0.0
 40
8.5
  0
CIRCLE
  5
3E3
  8
0
  6
CONTINUOUS
 62
     3
 10
175.6317265676398
 20
77.92207914347617
 30
0.0
 40
8.5
  0
CIRCLE
  5
3E4
  8
0
  6
CONTINUOUS
 62
     3
 10
189.1899388479132
 20
54.43854719157188
 30
0.0
 40
8.5
  0
CIRCLE
  5
3E5
  8
0
  6
CONTINUOUS
 62
     3
 10
101.548177068128
 20
77.92214017863242
 30
0.0
 40
8.5
  0
ARC
  5
3E6
  8
0
  6
CONTINUOUS
 62
     3
 10
138.5899174856085
 20
40.88030820841758
 30
0.0
 40
48.0
 50
53.32734739775112
 51
65.37568156534314
  0
ARC
  5
3E7
  8
0
  6
CONTINUOUS
 62
     3
 10
138.5899174856085
 20
40.88030820841758
 30
0.0
 40
48.0
 50
23.32737559122904
 51
36.67260046521369
  0
ARC
  5
3E8
  8
0
  6
CONTINUOUS
 62
     3
 10
138.5899174856085
 20
40.88030820841758
 30
0.0
 40
48.0
 50
143.3273259965672
 51
156.6726413705584
  0
ARC
  5
3E9
  8
0
  6
CONTINUOUS
 62
     3
 10
138.5899174856085
 20
40.88030820841758
 30
0.0
 40
48.0
 50
173.3274019634741
 51
185.3756780744582
  0
ARC
  5
3EA
  8
0
  6
CONTINUOUS
 62
     3
 10
138.5899174856085
 20
40.88030820841758
 30
0.0
 40
48.0
 50
263.327367129283
 51
276.6725937108149
  0
ARC
  5
3EB
  8
0
  6
CONTINUOUS
 62
     3
 10
138.5899174856085
 20
40.88030820841758
 30
0.0
 40
48.0
 50
293.3273406433523
 51
305.3756850562281
  0
CIRCLE
  5
3EC
  8
0
  6
CONTINUOUS
 62
     3
 10
125.031689946546
 20
-9.719715538072897
 30
0.0
 40
8.0
  0
LINE
  5
3ED
  8
0
  6
CONTINUOUS
 62
     3
 10
93.4268340096942
 20
14.8052252368994
 30
0.0
 11
93.4268291201619
 21
8.955226863206754
 31
0.0
  0
LINE
  5
3EE
  8
0
  6
CONTINUOUS
 62
     3
 10
100.8377837196021
 20
9.269030934955659
 30
0.0
 11
92.33778371960207
 21
23.99146279929111
 31
0.0
  0
LINE
  5
3EF
  8
0
  6
CONTINUOUS
 62
     3
 10
95.17228007513978
 20
5.998050880730553
 30
0.0
 11
106.4669528085506
 21
12.51903322377402
 31
0.0
  0
LINE
  5
3F0
  8
0
  6
CONTINUOUS
 62
     3
 10
229.4425601459408
 20
-1.758416806938847
 30
0.0
 11
217.281869937445
 21
5.26256095846788
 31
0.0
  0
LINE
  5
3F1
  8
0
  6
CONTINUOUS
 62
     3
 10
215.5363890263722
 20
2.305375809223051
 30
0.0
 11
215.5363829731595
 21
-3.544630318138452
 31
0.0
  0
LINE
  5
3F2
  8
0
  6
CONTINUOUS
 62
     3
 10
205.4038702943203
 20
2.305394410888461
 30
0.0
 11
210.470119942802
 21
5.230389363275592
 31
0.0
  0
LINE
  5
3F3
  8
0
  6
CONTINUOUS
 62
     3
 10
210.47013873529
 20
5.230367056659368
 30
0.0
 11
215.5363794187296
 21
2.305371634296087
 31
0.0
  0
LINE
  5
3F4
  8
0
  6
CONTINUOUS
 62
     3
 10
222.9473801891567
 20
1.991577089545515
 30
0.0
 11
214.4473801891567
 21
-12.73085477478993
 31
0.0
  0
CIRCLE
  5
3F5
  8
0
  6
CONTINUOUS
 62
     3
 10
210.4701322459551
 20
-0.6196350279249501
 30
0.0
 40
8.999999999999996
  0
LINE
  5
3F6
  8
0
  6
CONTINUOUS
 62
     3
 10
215.5363914152112
 20
-3.544696058203293
 30
0.0
 11
210.470143224328
 21
-6.469686024295399
 31
0.0
  0
LINE
  5
3F7
  8
0
  6
CONTINUOUS
 62
     3
 10
210.4701257566202
 20
-6.46963711250924
 30
0.0
 11
205.4038784659311
 21
-3.544637875448672
 31
0.0
  0
LINE
  5
3F8
  8
0
  6
CONTINUOUS
 62
     3
 10
205.4038832370172
 20
-3.544635092463992
 30
0.0
 11
205.4038892902299
 21
2.30537103489754
 31
0.0
  0
LINE
  5
3F9
  8
0
  6
CONTINUOUS
 62
     3
 10
220.9425601459408
 20
-16.4808486712743
 30
0.0
 11
208.781869937445
 21
-9.459870905867575
 31
0.0
  0
LINE
  5
3FA
  8
0
  6
CONTINUOUS
 62
     3
 10
203.6583945544652
 20
-6.501831014317773
 30
0.0
 11
187.1312334905599
 21
3.040129874868292
 31
0.0
  0
CIRCLE
  5
3FB
  8
0
  6
CONTINUOUS
 62
     3
 10
188.8194971513441
 20
11.88036497207509
 30
0.0
 40
8.999999999999996
  0
LINE
  5
3FC
  8
0
  6
CONTINUOUS
 62
     3
 10
193.885753790541
 20
14.80537851336255
 30
0.0
 11
193.8857477373283
 21
8.95537238600101
 31
0.0
  0
LINE
  5
3FD
  8
0
  6
CONTINUOUS
 62
     3
 10
183.753245764576
 20
14.80541303832181
 30
0.0
 11
188.8194954130576
 21
17.73040799070895
 31
0.0
  0
LINE
  5
3FE
  8
0
  6
CONTINUOUS
 62
     3
 10
188.819503640679
 20
17.73036705665938
 30
0.0
 11
193.8857509313681
 21
14.80536781959881
 31
0.0
  0
LINE
  5
3FF
  8
0
  6
CONTINUOUS
 62
     3
 10
193.8857606535444
 20
8.955308639492039
 30
0.0
 11
188.8195091590337
 21
6.030316766056139
 31
0.0
  0
LINE
  5
400
  8
0
  6
CONTINUOUS
 62
     3
 10
188.8194906620092
 20
6.03036288749076
 30
0.0
 11
183.7532433713201
 21
8.955362124551307
 31
0.0
  0
LINE
  5
401
  8
0
  6
CONTINUOUS
 62
     3
 10
183.7532403717914
 20
8.955367611683379
 30
0.0
 11
183.7532464250042
 21
14.80537373904495
 31
0.0
  0
LINE
  5
402
  8
0
  6
CONTINUOUS
 62
     3
 10
182.0077594598542
 20
5.998168985682248
 30
0.0
 11
170.7130867264434
 21
12.51915132872569
 31
0.0
  0
LINE
  5
403
  8
0
  6
CONTINUOUS
 62
     3
 10
184.842255815392
 20
23.99158090424282
 30
0.0
 11
176.342255815392
 21
9.269149039907354
 31
0.0
  0
LINE
  5
404
  8
0
  6
CONTINUOUS
 62
     3
 10
212.1583945544652
 20
8.220600850017682
 30
0.0
 11
195.6312334905599
 21
17.76256173920374
 31
0.0
  0
LINE
  5
405
  8
0
  6
CONTINUOUS
 62
     3
 10
190.5077594598542
 20
20.7206008500177
 30
0.0
 11
179.2130867264434
 21
27.24158319306115
 31
0.0
  0
LINE
  5
406
  8
0
  6
CONTINUOUS
 62
     7
 10
-154.7434260202509
 20
80.16281705851523
 30
0.0
 11
-154.7434260202509
 21
1.597802219342874
 31
0.0
  0
LINE
  5
407
  8
0
  6
CONTINUOUS
 62
     7
 10
-241.2311518686597
 20
-172.6620914443573
 30
0.0
 11
-101.2311518686597
 21
-172.6620914443573
 31
0.0
  0
LINE
  5
408
  8
0
  6
CONTINUOUS
 62
     7
 10
-241.2311518686597
 20
-127.6620914443573
 30
0.0
 11
-241.2311518686597
 21
-172.6620914443573
 31
0.0
  0
LINE
  5
409
  8
0
  6
CENTER
 62
     7
 10
-189.4679288632959
 20
-11.50469011311562
 30
0.0
 11
-130.9287897897821
 21
-11.50469011311562
 31
0.0
  0
LINE
  5
40A
  8
0
  6
CENTER
 62
     7
 10
-121.7434260202509
 20
-37.32354268499582
 30
0.0
 11
-121.7434260202509
 21
-64.3271253010317
 31
0.0
  0
LINE
  5
40B
  8
0
  6
CONTINUOUS
 62
     4
 10
-54.74342602025087
 20
140.8803082084176
 30
0.0
 11
-54.74342602025087
 21
133.3803204154488
 31
0.0
  0
LINE
  5
40C
  8
0
  6
CONTINUOUS
 62
     4
 10
-55.74342602025087
 20
140.8803082084176
 30
0.0
 11
-55.74342602025087
 21
133.3803204154488
 31
0.0
  0
LINE
  5
40D
  8
0
  6
CONTINUOUS
 62
     4
 10
-54.74342602025087
 20
89.38031278605429
 30
0.0
 11
-54.74342602025087
 21
82.88030820841757
 31
0.0
  0
LINE
  5
40E
  8
0
  6
CONTINUOUS
 62
     4
 10
-55.74342602025087
 20
89.38031278605429
 30
0.0
 11
-55.74342602025087
 21
82.88030820841757
 31
0.0
  0
LINE
  5
40F
  8
0
  6
CONTINUOUS
 62
     4
 10
-74.04342907200868
 20
118.8803127860543
 30
0.0
 11
-41.74342602025087
 21
118.8803127860543
 31
0.0
  0
LINE
  5
410
  8
0
  6
CONTINUOUS
 62
     4
 10
-74.04342907200868
 20
128.8803204154488
 30
0.0
 11
-41.74342602025087
 21
128.8803204154488
 31
0.0
  0
LINE
  5
411
  8
0
  6
CONTINUOUS
 62
     4
 10
-74.04342907200868
 20
103.8803127860543
 30
0.0
 11
-41.74342602025087
 21
103.8803127860543
 31
0.0
  0
LINE
  5
412
  8
0
  6
CONTINUOUS
 62
     4
 10
-74.04342907200868
 20
93.88031278605429
 30
0.0
 11
-41.74342602025087
 21
93.88031278605429
 31
0.0
  0
LINE
  5
413
  8
0
  6
CONTINUOUS
 62
     4
 10
-145.7434260202509
 20
70.08031278605429
 30
0.0
 11
-124.7434260202509
 21
70.08031278605429
 31
0.0
  0
LINE
  5
414
  8
0
  6
CONTINUOUS
 62
     4
 10
-145.7434260202509
 20
11.68031126017539
 30
0.0
 11
-124.7434260202509
 21
11.68031126017539
 31
0.0
  0
LINE
  5
415
  8
0
  6
CONTINUOUS
 62
     4
 10
-187.7434260202509
 20
-15.50469011311562
 30
0.0
 11
-155.7434260202509
 21
-15.50469011311562
 31
0.0
  0
LINE
  5
416
  8
0
  6
CONTINUOUS
 62
     4
 10
-187.7434260202509
 20
-7.504690113115622
 30
0.0
 11
-155.7434260202509
 21
-7.504690113115622
 31
0.0
  0
LINE
  5
417
  8
0
  6
CONTINUOUS
 62
     4
 10
-117.7434260202509
 20
-45.61969942097695
 30
0.0
 11
-117.7434260202509
 21
-61.61969942097696
 31
0.0
  0
LINE
  5
418
  8
0
  6
CONTINUOUS
 62
     4
 10
-125.7434260202509
 20
-45.61969942097695
 30
0.0
 11
-125.7434260202509
 21
-61.61969942097696
 31
0.0
  0
CIRCLE
  5
419
  8
0
  6
CONTINUOUS
 62
     4
 10
52.00405627955382
 20
42.85145002360313
 30
0.0
 40
0.75
  0
CIRCLE
  5
41A
  8
0
  6
CONTINUOUS
 62
     4
 10
183.5899174856085
 20
114.8803082084176
 30
0.0
 40
0.75
  0
CIRCLE
  5
41B
  8
0
  6
CONTINUOUS
 62
     4
 10
180.1757939504523
 20
-35.09083742146523
 30
0.0
 40
0.75
  0
CIRCLE
  5
41C
  8
0
  6
CONTINUOUS
 62
     4
 10
102.3676961110968
 20
50.58601957316368
 30
0.0
 40
3.0
  0
CIRCLE
  5
41D
  8
0
  6
CONTINUOUS
 62
     4
 10
148.295605962171
 20
4.65808492655723
 30
0.0
 40
3.0
  0
CIRCLE
  5
41E
  8
0
  6
CONTINUOUS
 62
     4
 10
165.1064427541632
 20
67.39679532999961
 30
0.0
 40
3.0
  0
ARC
  5
41F
  8
0
  6
CONTINUOUS
 62
     4
 10
138.5899174856085
 20
40.88030820841758
 30
0.0
 40
50.0
 50
145.8885239919169
 51
154.1114433752086
  0
LINE
  5
420
  8
0
  6
CONTINUOUS
 62
     3
 10
-81.74342602025087
 20
1.380308208417581
 30
0.0
 11
-63.74342602025087
 21
1.380308208417581
 31
0.0
  0
LINE
  5
421
  8
0
  6
CONTINUOUS
 62
     3
 10
-81.74342602025087
 20
-3.619691791582419
 30
0.0
 11
-63.74342602025087
 21
-3.619691791582419
 31
0.0
  0
LINE
  5
422
  8
0
  6
CONTINUOUS
 62
     3
 10
-146.5434290720087
 20
10.88030820841758
 30
0.0
 11
-124.6094538522821
 21
10.88030820841758
 31
0.0
  0
LINE
  5
423
  8
0
  6
CONTINUOUS
 62
     3
 10
-146.5434290720087
 20
70.88030820841757
 30
0.0
 11
-124.6094538522821
 21
70.88030820841757
 31
0.0
  0
LINE
  5
424
  8
0
  6
CONTINUOUS
 62
     3
 10
-155.7434260202509
 20
-6.504690113115622
 30
0.0
 11
-155.7434260202509
 21
-16.50469011311562
 31
0.0
  0
LINE
  5
425
  8
0
  6
CONTINUOUS
 62
     3
 10
-125.7434260202509
 20
-45.61969942097695
 30
0.0
 11
-117.7434260202509
 21
-45.61969942097695
 31
0.0
  0
POLYLINE
  5
426
  8
0
  6
CONTINUOUS
 62
     3
 66
     1
 10
0.0
 20
0.0
 30
0.0
  0
VERTEX
  5
4EC
  8
0
  6
CONTINUOUS
 62
     3
 10
-137.5305506540399
 20
-2.901403369951559
 30
0.0
  0
VERTEX
  5
4ED
  8
0
  6
CONTINUOUS
 62
     3
 10
-137.7110425464904
 20
-3.14000244114255
 30
0.0
  0
VERTEX
  5
4EE
  8
0
  6
CONTINUOUS
 62
     3
 10
-137.8854127429672
 20
-3.385503684494323
 30
0.0
  0
VERTEX
  5
4EF
  8
0
  6
CONTINUOUS
 62
     3
 10
-138.05255672336
 20
-3.637465553315726
 30
0.0
  0
VERTEX
  5
4F0
  8
0
  6
CONTINUOUS
 62
     3
 10
-138.2113699675584
 20
-3.895446500915617
 30
0.0
  0
VERTEX
  5
4F1
  8
0
  6
CONTINUOUS
 62
     3
 10
-138.3607479554524
 20
-4.159004980602846
 30
0.0
  0
VERTEX
  5
4F2
  8
0
  6
CONTINUOUS
 62
     3
 10
-138.4995861669314
 20
-4.427699445686267
 30
0.0
  0
VERTEX
  5
4F3
  8
0
  6
CONTINUOUS
 62
     3
 10
-138.6267800818854
 20
-4.70108834947473
 30
0.0
  0
VERTEX
  5
4F4
  8
0
  6
CONTINUOUS
 62
     3
 10
-138.7412251802039
 20
-4.978730145277092
 30
0.0
  0
VERTEX
  5
4F5
  8
0
  6
CONTINUOUS
 62
     3
 10
-138.8418169417767
 20
-5.260183286402204
 30
0.0
  0
VERTEX
  5
4F6
  8
0
  6
CONTINUOUS
 62
     3
 10
-138.9274508464936
 20
-5.545006226158918
 30
0.0
  0
VERTEX
  5
4F7
  8
0
  6
CONTINUOUS
 62
     3
 10
-138.9970223742441
 20
-5.832757417856087
 30
0.0
  0
VERTEX
  5
4F8
  8
0
  6
CONTINUOUS
 62
     3
 10
-139.0498925667814
 20
-6.12302572654244
 30
0.0
  0
VERTEX
  5
4F9
  8
0
  6
CONTINUOUS
 62
     3
 10
-139.0873389489887
 20
-6.415525207044934
 30
0.0
  0
VERTEX
  5
4FA
  8
0
  6
CONTINUOUS
 62
     3
 10
-139.1111321180135
 20
-6.710002122983018
 30
0.0
  0
VERTEX
  5
4FB
  8
0
  6
CONTINUOUS
 62
     3
 10
-139.1230426714232
 20
-7.006202738003557
 30
0.0
  0
VERTEX
  5
4FC
  8
0
  6
CONTINUOUS
 62
     3
 10
-139.1248412067853
 20
-7.303873315753418
 30
0.0
  0
VERTEX
  5
4FD
  8
0
  6
CONTINUOUS
 62
     3
 10
-139.1182983216671
 20
-7.602760119879469
 30
0.0
  0
VERTEX
  5
4FE
  8
0
  6
CONTINUOUS
 62
     3
 10
-139.1051846136359
 20
-7.902609414028577
 30
0.0
  0
VERTEX
  5
4FF
  8
0
  6
CONTINUOUS
 62
     3
 10
-139.0872706802593
 20
-8.20316746184761
 30
0.0
  0
VERTEX
  5
500
  8
0
  6
CONTINUOUS
 62
     3
 10
-139.0663271191046
 20
-8.504180526983435
 30
0.0
  0
VERTEX
  5
501
  8
0
  6
CONTINUOUS
 62
     3
 10
-139.0441245277392
 20
-8.80539487308292
 30
0.0
  0
VERTEX
  5
502
  8
0
  6
CONTINUOUS
 62
     3
 10
-139.0224335037304
 20
-9.106556763792929
 30
0.0
  0
VERTEX
  5
503
  8
0
  6
CONTINUOUS
 62
     3
 10
-139.0030246446458
 20
-9.407412462760334
 30
0.0
  0
VERTEX
  5
504
  8
0
  6
CONTINUOUS
 62
     3
 10
-138.9875493953483
 20
-9.707724843825313
 30
0.0
  0
VERTEX
  5
505
  8
0
  6
CONTINUOUS
 62
     3
 10
-138.9763453228132
 20
-10.00743993878355
 30
0.0
  0
VERTEX
  5
506
  8
0
  6
CONTINUOUS
 62
     3
 10
-138.9689349905918
 20
-10.30661739300334
 30
0.0
  0
VERTEX
  5
507
  8
0
  6
CONTINUOUS
 62
     3
 10
-138.9648287735627
 20
-10.60531855098529
 30
0.0
  0
VERTEX
  5
508
  8
0
  6
CONTINUOUS
 62
     3
 10
-138.9635370466048
 20
-10.90360475723
 30
0.0
  0
VERTEX
  5
509
  8
0
  6
CONTINUOUS
 62
     3
 10
-138.9645701845968
 20
-11.20153735623807
 30
0.0
  0
VERTEX
  5
50A
  8
0
  6
CONTINUOUS
 62
     3
 10
-138.9674385624173
 20
-11.4991776925101
 30
0.0
  0
VERTEX
  5
50B
  8
0
  6
CONTINUOUS
 62
     3
 10
-138.9716525549451
 20
-11.79658711054667
 30
0.0
  0
VERTEX
  5
50C
  8
0
  6
CONTINUOUS
 62
     3
 10
-138.976722537059
 20
-12.0938269548484
 30
0.0
  0
VERTEX
  5
50D
  8
0
  6
CONTINUOUS
 62
     3
 10
-138.9821588836376
 20
-12.39095856991589
 30
0.0
  0
VERTEX
  5
50E
  8
0
  6
CONTINUOUS
 62
     3
 10
-138.9874719695597
 20
-12.68804330024972
 30
0.0
  0
VERTEX
  5
50F
  8
0
  6
CONTINUOUS
 62
     3
 10
-138.992172169704
 20
-12.9851424903505
 30
0.0
  0
VERTEX
  5
510
  8
0
  6
CONTINUOUS
 62
     3
 10
-138.9957698589493
 20
-13.28231748471883
 30
0.0
  0
VERTEX
  5
511
  8
0
  6
CONTINUOUS
 62
     3
 10
-138.9977758179128
 20
-13.57962958844596
 30
0.0
  0
VERTEX
  5
512
  8
0
  6
CONTINUOUS
 62
     3
 10
-138.9979127328892
 20
-13.87711952424893
 30
0.0
  0
VERTEX
  5
513
  8
0
  6
CONTINUOUS
 62
     3
 10
-138.9964617170096
 20
-14.17477377491
 30
0.0
  0
VERTEX
  5
514
  8
0
  6
CONTINUOUS
 62
     3
 10
-138.9937947900589
 20
-14.47256999345851
 30
0.0
  0
VERTEX
  5
515
  8
0
  6
CONTINUOUS
 62
     3
 10
-138.9902839718218
 20
-14.77048583292383
 30
0.0
  0
VERTEX
  5
516
  8
0
  6
CONTINUOUS
 62
     3
 10
-138.9863012820832
 20
-15.06849894633534
 30
0.0
  0
VERTEX
  5
517
  8
0
  6
CONTINUOUS
 62
     3
 10
-138.9822187406277
 20
-15.36658698672238
 30
0.0
  0
VERTEX
  5
518
  8
0
  6
CONTINUOUS
 62
     3
 10
-138.9784083672403
 20
-15.66472760711434
 30
0.0
  0
VERTEX
  5
519
  8
0
  6
CONTINUOUS
 62
     3
 10
-138.9752421817057
 20
-15.96289846054056
 30
0.0
  0
VERTEX
  5
51A
  8
0
  6
CONTINUOUS
 62
     3
 10
-138.9730922038087
 20
-16.26107720003042
 30
0.0
  0
VERTEX
  5
51B
  8
0
  6
CONTINUOUS
 62
     3
 10
-138.9723304533342
 20
-16.55924147861327
 30
0.0
  0
VERTEX
  5
51C
  8
0
  6
CONTINUOUS
 62
     3
 10
-138.9733289500668
 20
-16.85736894931849
 30
0.0
  0
VERTEX
  5
51D
  8
0
  6
CONTINUOUS
 62
     3
 10
-138.9764597137914
 20
-17.15543726517544
 30
0.0
  0
VERTEX
  5
51E
  8
0
  6
CONTINUOUS
 62
     3
 10
-138.9820947642929
 20
-17.45342407921347
 30
0.0
  0
VERTEX
  5
51F
  8
0
  6
CONTINUOUS
 62
     3
 10
-138.9906061213559
 20
-17.75130704446196
 30
0.0
  0
VERTEX
  5
520
  8
0
  6
CONTINUOUS
 62
     3
 10
-139.0023612952979
 20
-18.04906387446108
 30
0.0
  0
VERTEX
  5
521
  8
0
  6
CONTINUOUS
 62
     3
 10
-139.0175175409638
 20
-18.34667510408837
 30
0.0
  0
VERTEX
  5
522
  8
0
  6
CONTINUOUS
 62
     3
 10
-139.0359368461771
 20
-18.64412523029607
 30
0.0
  0
VERTEX
  5
523
  8
0
  6
CONTINUOUS
 62
     3
 10
-139.0574590700694
 20
-18.9413990469728
 30
0.0
  0
VERTEX
  5
524
  8
0
  6
CONTINUOUS
 62
     3
 10
-139.0819240717723
 20
-19.23848134800721
 30
0.0
  0
VERTEX
  5
525
  8
0
  6
CONTINUOUS
 62
     3
 10
-139.1091717104173
 20
-19.53535692728793
 30
0.0
  0
VERTEX
  5
526
  8
0
  6
CONTINUOUS
 62
     3
 10
-139.1390418451359
 20
-19.83201057870361
 30
0.0
  0
VERTEX
  5
527
  8
0
  6
CONTINUOUS
 62
     3
 10
-139.1713743350596
 20
-20.12842709614287
 30
0.0
  0
VERTEX
  5
528
  8
0
  6
CONTINUOUS
 62
     3
 10
-139.2060090393201
 20
-20.42459127349436
 30
0.0
  0
VERTEX
  5
529
  8
0
  6
CONTINUOUS
 62
     3
 10
-139.2427858170489
 20
-20.72048790464671
 30
0.0
  0
VERTEX
  5
52A
  8
0
  6
CONTINUOUS
 62
     3
 10
-139.2815445273774
 20
-21.01610178348856
 30
0.0
  0
VERTEX
  5
52B
  8
0
  6
CONTINUOUS
 62
     3
 10
-139.3221250294374
 20
-21.31141770390855
 30
0.0
  0
VERTEX
  5
52C
  8
0
  6
CONTINUOUS
 62
     3
 10
-139.3643671823602
 20
-21.60642045979531
 30
0.0
  0
SEQEND
  5
4EB
  8
0
  6
CONTINUOUS
 62
     3
  0
LINE
  5
427
  8
0
  6
CONTINUOUS
 62
     3
 10
166.7620216441609
 20
2.675835657267079
 30
0.0
 11
171.5120183957073
 21
10.90307023830545
 31
0.0
  0
LINE
  5
428
  8
0
  6
CONTINUOUS
 62
     3
 10
168.0611031847161
 20
1.925819286923151
 30
0.0
 11
172.8110961215647
 21
10.15304726071216
 31
0.0
  0
LINE
  5
429
  8
0
  6
CONTINUOUS
 62
     3
 10
169.3601374523796
 20
1.175812590266823
 30
0.0
 11
174.1101380186237
 21
9.403053778554558
 31
0.0
  0
LINE
  5
42A
  8
0
  6
CONTINUOUS
 62
     3
 10
170.6591623202421
 20
0.4258201302552962
 30
0.0
 11
175.4091590717885
 21
8.65305471129367
 31
0.0
  0
LINE
  5
42B
  8
0
  6
CONTINUOUS
 62
     3
 10
171.9582344609962
 20
-0.3241820034438305
 30
0.0
 11
176.7082273978448
 21
7.903045970345183
 31
0.0
  0
LINE
  5
42C
  8
0
  6
CONTINUOUS
 62
     3
 10
173.2572516994632
 20
-1.074187677954079
 30
0.0
 11
178.0072484510096
 21
7.153046903084295
 31
0.0
  0
CIRCLE
  5
42D
  8
0
  6
CONTINUOUS
 62
     3
 10
148.295605962171
 20
4.65808492655723
 30
0.0
 40
2.400000095367432
  0
CIRCLE
  5
42E
  8
0
  6
CONTINUOUS
 62
     3
 10
165.1064427541632
 20
67.39679532999961
 30
0.0
 40
2.400000095367432
  0
CIRCLE
  5
42F
  8
0
  6
CONTINUOUS
 62
     3
 10
102.3676961110968
 20
50.58601957316368
 30
0.0
 40
2.400000095367432
  0
LINE
  5
430
  8
0
  6
CONTINUOUS
 62
     4
 10
-60.74342999595422
 20
-1.919691154685062
 30
0.0
 11
-58.54342723931507
 21
-3.189863198117529
 31
0.0
  0
LINE
  5
431
  8
0
  6
CONTINUOUS
 62
     4
 10
-62.94343183919057
 20
-3.18986427340959
 30
0.0
 11
-60.74342908255142
 21
-1.919692229977123
 31
0.0
  0
LINE
  5
432
  8
0
  6
CONTINUOUS
 62
     4
 10
-59.14343160061026
 20
-1.919691011175324
 30
0.0
 11
-58.54342724484513
 21
-2.266103649218927
 31
0.0
  0
LINE
  5
433
  8
0
  6
CONTINUOUS
 62
     4
 10
-62.94343087998624
 20
-2.266106376323442
 30
0.0
 11
-62.34342652422112
 21
-1.91969373827984
 31
0.0
  0
LINE
  5
434
  8
0
  6
CONTINUOUS
 62
     4
 10
-62.94343184472064
 20
-4.113623822308192
 30
0.0
 11
-59.14342738358255
 21
-1.919690466138341
 31
0.0
  0
LINE
  5
435
  8
0
  6
CONTINUOUS
 62
     4
 10
-62.94343089657644
 20
-5.037385023019247
 30
0.0
 11
-58.54342868692305
 21
-2.497042843502833
 31
0.0
  0
LINE
  5
436
  8
0
  6
CONTINUOUS
 62
     4
 10
-61.83240202384451
 20
-5.319691820844774
 30
0.0
 11
-58.54342869245312
 21
-3.420802392401434
 31
0.0
  0
LINE
  5
437
  8
0
  6
CONTINUOUS
 62
     4
 10
-60.23239937120138
 20
-5.319691708818446
 30
0.0
 11
-58.54342774430893
 21
-4.34456359311249
 31
0.0
  0
LINE
  5
438
  8
0
  6
CONTINUOUS
 62
     4
 10
-62.34342839129818
 20
-1.919691298194799
 30
0.0
 11
-58.543427233785
 21
-4.11362274701613
 31
0.0
  0
LINE
  5
439
  8
0
  6
CONTINUOUS
 62
     4
 10
-62.94343039158258
 20
-2.497041768210771
 30
0.0
 11
-58.54342818192919
 21
-5.037383947727186
 31
0.0
  0
LINE
  5
43A
  8
0
  6
CONTINUOUS
 62
     4
 10
-62.94343038605251
 20
-3.420801317109373
 30
0.0
 11
-59.65445705466112
 21
-5.319690745552713
 31
0.0
  0
LINE
  5
43B
  8
0
  6
CONTINUOUS
 62
     4
 10
-62.94343038052244
 20
-4.344560866007974
 30
0.0
 11
-61.25445545000508
 21
-5.31969088906245
 31
0.0
  0
LINE
  5
43C
  8
0
  6
CONTINUOUS
 62
     4
 10
-40.74342447515284
 20
119.9935650388604
 30
0.0
 11
-35.74342616879659
 21
122.8803150880492
 31
0.0
  0
LINE
  5
43D
  8
0
  6
CONTINUOUS
 62
     4
 10
-40.74342734129488
 20
94.99356025140413
 30
0.0
 11
-35.74341912406391
 21
97.88031602263841
 31
0.0
  0
LINE
  5
43E
  8
0
  6
CONTINUOUS
 62
     4
 10
-35.74341381762707
 20
97.88031828570395
 30
0.0
 11
-30.7434237703331
 21
94.99357300488653
 31
0.0
  0
LINE
  5
43F
  8
0
  6
CONTINUOUS
 62
     4
 10
-35.74342380209106
 20
122.880318373259
 30
0.0
 11
-30.74342054029745
 21
119.9935654630475
 31
0.0
  0
LINE
  5
440
  8
0
  6
CONTINUOUS
 62
     4
 10
-32.74341404633589
 20
97.88031860155122
 30
0.0
 11
-30.74342595611807
 21
96.7256250668607
 31
0.0
  0
LINE
  5
441
  8
0
  6
CONTINUOUS
 62
     4
 10
-40.7434251555099
 20
96.72561231337831
 30
0.0
 11
-38.74342054716755
 21
97.88031538481143
 31
0.0
  0
LINE
  5
442
  8
0
  6
CONTINUOUS
 62
     4
 10
-40.7434294076898
 20
121.7256218007359
 30
0.0
 11
-38.74342810297236
 21
122.8803229648205
 31
0.0
  0
LINE
  5
443
  8
0
  6
CONTINUOUS
 62
     4
 10
-32.74342403079987
 20
122.8803186891062
 30
0.0
 11
-30.74342272608243
 21
121.7256175250216
 31
0.0
  0
LINE
  5
444
  8
0
  6
CONTINUOUS
 62
     4
 10
-38.74343018063206
 20
122.8803218721087
 30
0.0
 11
-30.74342496176229
 21
118.2615172157703
 31
0.0
  0
LINE
  5
445
  8
0
  6
CONTINUOUS
 62
     4
 10
-40.74342269231471
 20
122.3029671595221
 30
0.0
 11
-30.74342277597731
 21
116.5294651537962
 31
0.0
  0
LINE
  5
446
  8
0
  6
CONTINUOUS
 62
     4
 10
-40.74342711377955
 20
120.570918912245
 30
0.0
 11
-32.61907345337801
 21
115.8803216576467
 31
0.0
  0
LINE
  5
447
  8
0
  6
CONTINUOUS
 62
     4
 10
-40.74342492799457
 20
118.8388668502708
 30
0.0
 11
-35.61907322466919
 21
115.8803213417994
 31
0.0
  0
LINE
  5
448
  8
0
  6
CONTINUOUS
 62
     4
 10
-40.74342274220959
 20
117.1068147882966
 30
0.0
 11
-38.61907299596038
 21
115.8803210259521
 31
0.0
  0
LINE
  5
449
  8
0
  6
CONTINUOUS
 62
     4
 10
-38.74341358891826
 20
97.88031796985668
 30
0.0
 11
-30.74342158454812
 21
93.26152094291236
 31
0.0
  0
LINE
  5
44A
  8
0
  6
CONTINUOUS
 62
     4
 10
-40.74342592235036
 20
97.30297470136118
 30
0.0
 11
-30.74342600601295
 21
91.52947269563522
 31
0.0
  0
LINE
  5
44B
  8
0
  6
CONTINUOUS
 62
     4
 10
-40.74342373656538
 20
95.57092263938701
 30
0.0
 11
-32.61905686166421
 21
90.88031775539464
 31
0.0
  0
LINE
  5
44C
  8
0
  6
CONTINUOUS
 62
     4
 10
-40.7434215507804
 20
93.83887057741283
 30
0.0
 11
-35.61906324020521
 21
90.88032125424441
 31
0.0
  0
LINE
  5
44D
  8
0
  6
CONTINUOUS
 62
     4
 10
-40.74342597224523
 20
92.1068223301357
 30
0.0
 11
-38.61906301149639
 21
90.88032093839713
 31
0.0
  0
LINE
  5
44E
  8
0
  6
CONTINUOUS
 62
     4
 10
-40.74342704936117
 20
93.26150961994135
 30
0.0
 11
-32.74342100458517
 21
97.88031475311688
 31
0.0
  0
LINE
  5
44F
  8
0
  6
CONTINUOUS
 62
     4
 10
-40.74342593152124
 20
91.5294594653157
 30
0.0
 11
-30.74342518927762
 21
97.30296194787879
 31
0.0
  0
LINE
  5
450
  8
0
  6
CONTINUOUS
 62
     4
 10
-38.86777608002677
 20
90.8803154923291
 30
0.0
 11
-30.74342407143769
 21
95.57091179325313
 31
0.0
  0
LINE
  5
451
  8
0
  6
CONTINUOUS
 62
     4
 10
-35.86777630873559
 20
90.88031517648183
 30
0.0
 11
-30.74342625722267
 21
93.83885973127896
 31
0.0
  0
LINE
  5
452
  8
0
  6
CONTINUOUS
 62
     4
 10
-32.8677765374444
 20
90.88031486063456
 30
0.0
 11
-30.74342513938274
 21
92.10680957665331
 31
0.0
  0
LINE
  5
453
  8
0
  6
CONTINUOUS
 62
     4
 10
-40.74342666093781
 20
118.2615129768863
 30
0.0
 11
-32.7434263975054
 21
122.8803147722019
 31
0.0
  0
LINE
  5
454
  8
0
  6
CONTINUOUS
 62
     4
 10
-40.74342554309789
 20
116.5294628222606
 30
0.0
 11
-30.74342727857294
 21
122.3029638743123
 31
0.0
  0
LINE
  5
455
  8
0
  6
CONTINUOUS
 62
     4
 10
-38.867781472947
 20
115.8803155114141
 30
0.0
 11
-30.74342616073301
 21
120.5709137196867
 31
0.0
  0
LINE
  5
456
  8
0
  6
CONTINUOUS
 62
     4
 10
-35.86778170165582
 20
115.8803151955668
 30
0.0
 11
-30.74342504289308
 21
118.838863565061
 31
0.0
  0
LINE
  5
457
  8
0
  6
CONTINUOUS
 62
     4
 10
-32.86778193036463
 20
115.8803148797196
 30
0.0
 11
-30.74342722867806
 21
117.1068115030868
 31
0.0
  0
ARC
  5
458
  8
0
  6
CONTINUOUS
 62
     4
 10
138.5899174856085
 20
40.88030820841758
 30
0.0
 40
68.0
 50
108.4318690364045
 51
191.5681188212885
  0
ARC
  5
459
  8
0
  6
CONTINUOUS
 62
     4
 10
138.5899174856085
 20
40.88030820841758
 30
0.0
 40
74.0
 50
106.8903363218677
 51
193.1096651962037
  0
ARC
  5
45A
  8
0
  6
CONTINUOUS
 62
     4
 10
138.5899174856085
 20
40.88030820841758
 30
0.0
 40
62.0
 50
167.7630654127182
 51
189.7098292538031
  0
ARC
  5
45B
  8
0
  6
CONTINUOUS
 62
     4
 10
138.5899174856085
 20
40.88030820841758
 30
0.0
 40
56.00000381469727
 50
174.8753550558308
 51
187.4227404102244
  0
ARC
  5
45C
  8
0
  6
CONTINUOUS
 62
     4
 10
138.5899174856085
 20
40.88030820841758
 30
0.0
 40
50.0
 50
175.8885999588239
 51
184.3209329420681
  0
ARC
  5
45D
  8
0
  6
CONTINUOUS
 62
     4
 10
138.5899174856085
 20
40.88030820841758
 30
0.0
 40
56.0
 50
144.8752927493022
 51
155.1246882782017
  0
ARC
  5
45E
  8
0
  6
CONTINUOUS
 62
     4
 10
138.5899174856085
 20
40.88030820841758
 30
0.0
 40
62.0
 50
137.7629894458113
 51
162.2369779213143
  0
ARC
  5
45F
  8
0
  6
CONTINUOUS
 62
     4
 10
138.5899174856085
 20
40.88030820841758
 30
0.0
 40
74.0
 50
226.8903228130701
 51
313.1096892534465
  0
ARC
  5
460
  8
0
  6
CONTINUOUS
 62
     4
 10
138.5899174856085
 20
40.88030820841758
 30
0.0
 40
50.0
 50
115.4675717683538
 51
124.1113674083017
  0
ARC
  5
461
  8
0
  6
CONTINUOUS
 62
     4
 10
138.5899174856085
 20
40.88030820841758
 30
0.0
 40
56.0
 50
112.577261107847
 51
125.1246123112948
  0
ARC
  5
462
  8
0
  6
CONTINUOUS
 62
     4
 10
138.5899174856085
 20
40.88030820841758
 30
0.0
 40
62.0
 50
110.2901586038899
 51
132.2369019544074
  0
ARC
  5
463
  8
0
  6
CONTINUOUS
 62
     4
 10
138.5899174856085
 20
40.88030820841758
 30
0.0
 40
74.0
 50
346.89035091181
 51
433.109682347467
  0
ARC
  5
464
  8
0
  6
CONTINUOUS
 62
     4
 10
138.5899174856085
 20
40.88030820841758
 30
0.0
 40
68.0
 50
348.4318853338942
 51
431.5681496329302
  0
ARC
  5
465
  8
0
  6
CONTINUOUS
 62
     4
 10
138.5899174856085
 20
40.88030820841758
 30
0.0
 40
62.0
 50
47.76303475265727
 51
69.70986006544477
  0
ARC
  5
466
  8
0
  6
CONTINUOUS
 62
     4
 10
138.5899174856085
 20
40.88030820841758
 30
0.0
 40
56.0
 50
54.87531415048613
 51
67.42275756148766
  0
ARC
  5
467
  8
0
  6
CONTINUOUS
 62
     4
 10
138.5899174856085
 20
40.88030820841758
 30
0.0
 40
50.0
 50
55.8885317327225
 51
64.53244007079171
  0
ARC
  5
468
  8
0
  6
CONTINUOUS
 62
     4
 10
138.5899174856085
 20
40.88030820841758
 30
0.0
 40
50.0
 50
355.4286380583278
 51
364.111432797776
  0
ARC
  5
469
  8
0
  6
CONTINUOUS
 62
     4
 10
138.5899174856085
 20
40.88030820841758
 30
0.0
 40
56.00000381469727
 50
352.5772543534482
 51
365.1246631866171
  0
ARC
  5
46A
  8
0
  6
CONTINUOUS
 62
     4
 10
138.5899174856085
 20
40.88030820841758
 30
0.0
 40
62.0
 50
350.2901501419438
 51
372.2369506952956
  0
ARC
  5
46B
  8
0
  6
CONTINUOUS
 62
     4
 10
138.5899174856085
 20
40.88030820841758
 30
0.0
 40
56.0
 50
24.87534234396405
 51
35.12463029738409
  0
ARC
  5
46C
  8
0
  6
CONTINUOUS
 62
     4
 10
138.5899174856085
 20
40.88030820841758
 30
0.0
 40
50.0
 50
25.88858041676793
 51
34.11140246986397
  0
ARC
  5
46D
  8
0
  6
CONTINUOUS
 62
     4
 10
138.5899174856085
 20
40.88030820841758
 30
0.0
 40
68.0
 50
228.4318555276069
 51
311.5681565389097
  0
ARC
  5
46E
  8
0
  6
CONTINUOUS
 62
     4
 10
138.5899174856085
 20
40.88030820841758
 30
0.0
 40
62.0
 50
257.7630442389053
 51
282.2369234313817
  0
ARC
  5
46F
  8
0
  6
CONTINUOUS
 62
     4
 10
138.5899174856085
 20
40.88030820841758
 30
0.0
 40
62.0
 50
230.2901314347139
 51
252.2369430871231
  0
ARC
  5
470
  8
0
  6
CONTINUOUS
 62
     4
 10
138.5899174856085
 20
40.88030820841758
 30
0.0
 40
56.00000381469727
 50
294.8753142262765
 51
307.4227644674672
  0
ARC
  5
471
  8
0
  6
CONTINUOUS
 62
     4
 10
138.5899174856085
 20
40.88030820841758
 30
0.0
 40
62.0
 50
287.7630245831639
 51
309.7098635563297
  0
ARC
  5
472
  8
0
  6
CONTINUOUS
 62
     4
 10
138.5899174856085
 20
40.88030820841758
 30
0.0
 40
50.00000381469727
 50
295.8885454688912
 51
304.5324435616766
  0
ARC
  5
473
  8
0
  6
CONTINUOUS
 62
     4
 10
138.5899174856085
 20
40.88030820841758
 30
0.0
 40
56.00000381469727
 50
264.875333882018
 51
275.124633788269
  0
ARC
  5
474
  8
0
  6
CONTINUOUS
 62
     4
 10
138.5899174856085
 20
40.88030820841758
 30
0.0
 40
50.00000381469727
 50
265.8885651246326
 51
274.1113957154652
  0
ARC
  5
475
  8
0
  6
CONTINUOUS
 62
     4
 10
138.5899174856085
 20
40.88030820841758
 30
0.0
 40
50.00000381469727
 50
235.4675650897454
 51
244.1114153712066
  0
ARC
  5
476
  8
0
  6
CONTINUOUS
 62
     4
 10
138.5899174856085
 20
40.88030820841758
 30
0.0
 40
56.00000381469727
 50
232.5772475990494
 51
245.1246466138213
  0
ARC
  5
477
  8
0
  6
CONTINUOUS
 62
     4
 10
138.5899174856085
 20
40.88030820841758
 30
0.0
 40
62.0
 50
17.76302196500016
 51
42.2370121480505
  0
LINE
  5
478
  8
0
  6
CONTINUOUS
 62
     4
 10
-153.0991938608473
 20
-154.9511844619354
 30
0.0
 11
-217.0635580110728
 21
-154.9511844619354
 31
0.0
  0
LINE
  5
479
  8
0
  6
CONTINUOUS
 62
     4
 10
-147.1428851305043
 20
-142.3763661072308
 30
0.0
 11
-153.0991877592842
 21
-154.9511850478667
 31
0.0
  0
INSERT
  5
47A
  8
0
 62
     4
  2
_OPEN30
 10
-147.1428851305043
 20
-142.3763661072308
 30
0.0
 41
1.50000139391263
 42
1.499998500689492
 50
64.65453318761323
  0
TEXT
  5
47B
  8
0
 62
     7
 10
-152.4813587005548
 20
-38.55915800502555
 30
0.0
 40
4.0
  1
MIN 39
 41
0.7999999999999995
  7
FDASTYLE1
 72
     5
 11
-133.2813587005548
 21
-38.55915800502555
 31
0.0
  0
TEXT
  5
47C
  8
0
 62
     7
 10
-168.5475790607834
 20
163.1820469066702
 30
0.0
 40
4.0
  1
MIN 14
 41
0.7999999999999995
  7
FDASTYLE1
 72
     5
 11
-149.3475790607834
 21
163.1820469066702
 31
0.0
  0
TEXT
  5
47D
  8
0
 62
     7
 10
-229.4435908151727
 20
-20.84687761311562
 30
0.0
 40
4.0
  1
7ﾟ7′30″
 50
90.0
 41
0.7567567567567569
  7
FDASTYLE1
 72
     5
 11
-229.4435908151727
 21
1.55312238688439
 31
0.0
  0
TEXT
  5
47E
  8
0
 62
     7
 10
18.21800132218394
 20
51.96415378139595
 30
0.0
 40
4.0
  1
MIN39.5
 50
90.0
 41
0.8000000000000002
  7
FDASTYLE1
 72
     5
 11
18.21800132218394
 21
74.36415378139596
 31
0.0
  0
TEXT
  5
47F
  8
0
 62
     7
 10
-6.707185079544004
 20
87.09772534105386
 30
0.0
 40
4.0
  1
MIN
 50
90.0
 41
0.7999999999999995
  7
FDASTYLE1
 72
     5
 11
-6.707185079544004
 21
96.69772534105385
 31
0.0
  0
LINE
  5
480
  8
LAYER0014
  6
CONTINUOUS
 62
     7
 10
-170.7434260202509
 20
154.2700176810738
 30
0.0
 11
-183.5304133249384
 21
154.2700176810738
 31
0.0
  0
LINE
  5
481
  8
LAYER0014
  6
CONTINUOUS
 62
     7
 10
-164.2434260202509
 20
154.2700176810738
 30
0.0
 11
-170.7434260202509
 21
154.2700176810738
 31
0.0
  0
LINE
  5
482
  8
LAYER0014
  6
CONTINUOUS
 62
     7
 10
-164.2434260202509
 20
103.9603091239449
 30
0.0
 11
-164.2434260202509
 21
156.5559979056832
 31
0.0
  0
LINE
  5
483
  8
LAYER0014
  6
CONTINUOUS
 62
     7
 10
-54.74342602025087
 20
167.7416668509957
 30
0.0
 11
-47.23132961522157
 21
167.7416668509957
 31
0.0
  0
LINE
  5
484
  8
LAYER0014
  6
CONTINUOUS
 62
     7
 10
-54.74342602025087
 20
167.7416668509957
 30
0.0
 11
-56.74342602025087
 21
167.7416668509957
 31
0.0
  0
LINE
  5
485
  8
LAYER0014
  6
CONTINUOUS
 62
     7
 10
-54.74342602025087
 20
143.4203082084176
 30
0.0
 11
-54.74342602025087
 21
170.0276775931832
 31
0.0
  0
LINE
  5
486
  8
LAYER0014
  6
CONTINUOUS
 62
     7
 10
-56.74342602025087
 20
143.3495379447457
 30
0.0
 11
-56.74342602025087
 21
170.0276775931832
 31
0.0
  0
LINE
  5
487
  8
LAYER0014
  6
CONTINUOUS
 62
     7
 10
-171.7434260202509
 20
-97.45302766804727
 30
0.0
 11
-179.2196070505243
 21
-97.45302766804727
 31
0.0
  0
LINE
  5
488
  8
LAYER0014
  6
CONTINUOUS
 62
     7
 10
-171.7434260202509
 20
-97.45302766804727
 30
0.0
 11
-170.7434260202509
 21
-97.45302766804727
 31
0.0
  0
LINE
  5
489
  8
LAYER0014
  6
CONTINUOUS
 62
     7
 10
-170.7434260202509
 20
-54.15969179158242
 30
0.0
 11
-170.7434260202509
 21
-99.73903078084024
 31
0.0
  0
ARC
  5
48A
  8
LAYER0014
  6
CONTINUOUS
 62
     7
 10
-170.7434260202509
 20
-0.4021930122855437
 30
0.0
 40
55.8038330078125
 50
179.9999776881997
 51
187.1249714831685
  0
LINE
  5
48B
  8
LAYER0014
  6
CONTINUOUS
 62
     7
 10
-173.2638075056833
 20
-0.717239136239856
 30
0.0
 11
-228.3846791403678
 21
-7.607308358241845
 31
0.0
  0
LINE
  5
48C
  8
LAYER0014
  6
CONTINUOUS
 62
     7
 10
-164.2434260202509
 20
154.2700176810738
 30
0.0
 11
-157.8934260202509
 21
154.2700176810738
 31
0.0
  0
INSERT
  5
48D
  8
LAYER0014
 62
     7
  2
_OPEN30
 10
-164.2434260202509
 20
154.2700176810738
 30
0.0
 41
1.50000139391263
 42
1.499998500689492
 50
180.0
  0
LINE
  5
48E
  8
LAYER0014
  6
CONTINUOUS
 62
     7
 10
-54.74342602025087
 20
167.7416668509957
 30
0.0
 11
-48.39342602025086
 21
167.7416668509957
 31
0.0
  0
INSERT
  5
48F
  8
LAYER0014
 62
     7
  2
_OPEN30
 10
-54.74342602025087
 20
167.7416668509957
 30
0.0
 41
1.50000139391263
 42
1.499998500689492
 50
180.0
  0
LINE
  5
490
  8
LAYER0014
  6
CONTINUOUS
 62
     7
 10
-171.7434260202509
 20
-97.45302766804727
 30
0.0
 11
-178.0934260202509
 21
-97.45302766804727
 31
0.0
  0
INSERT
  5
491
  8
LAYER0014
 62
     7
  2
_OPEN30
 10
-171.7434260202509
 20
-97.45302766804727
 30
0.0
 41
1.50000139391263
 42
1.499998500689492
 50
360.0
  0
ARC
  5
492
  8
LAYER0014
  6
CONTINUOUS
 62
     7
 10
-170.7434260202509
 20
-0.4021930122855437
 30
0.0
 40
55.8038330078125
 50
187.1249714831685
 51
193.6447422640956
  0
INSERT
  5
493
  8
LAYER0014
 62
     7
  2
_OPEN30
 10
-226.1163403697127
 20
-7.3237632684476
 30
0.0
 41
1.50000139391263
 42
1.499998500689492
 50
97.89502376630158
  0
LINE
  5
494
  8
LAYER0014
  6
CONTINUOUS
 62
     7
 10
-177.0934260202509
 20
154.2700176810738
 30
0.0
 11
-170.7434260202509
 21
154.2700176810738
 31
0.0
  0
INSERT
  5
495
  8
LAYER0014
 62
     7
  2
_OPEN30
 10
-170.7434260202509
 20
154.2700176810738
 30
0.0
 41
1.50000139391263
 42
1.499998500689492
 50
360.0
  0
LINE
  5
496
  8
LAYER0014
  6
CONTINUOUS
 62
     7
 10
-63.09342602025087
 20
167.7416668509957
 30
0.0
 11
-56.74342602025087
 21
167.7416668509957
 31
0.0
  0
INSERT
  5
497
  8
LAYER0014
 62
     7
  2
_OPEN30
 10
-56.74342602025087
 20
167.7416668509957
 30
0.0
 41
1.50000139391263
 42
1.499998500689492
 50
360.0
  0
LINE
  5
498
  8
LAYER0014
  6
CONTINUOUS
 62
     7
 10
-164.3934260202509
 20
-97.45302766804727
 30
0.0
 11
-170.7434260202509
 21
-97.45302766804727
 31
0.0
  0
INSERT
  5
499
  8
LAYER0014
 62
     7
  2
_OPEN30
 10
-170.7434260202509
 20
-97.45302766804727
 30
0.0
 41
1.50000139391263
 42
1.499998500689492
 50
180.0
  0
TEXT
  5
49A
  8
LAYER0014
 62
     7
 10
-183.0548777669179
 20
155.014066894563
 30
0.0
 40
4.0
  1
6.5
 41
0.8000000000000019
  7
FDASTYLE1
 72
     5
 11
-173.4548777669179
 21
155.014066894563
 31
0.0
  0
TEXT
  5
49B
  8
LAYER0014
 62
     7
 10
-178.2333794071655
 20
-96.62682597860926
 30
0.0
 40
4.0
  1
1
 50
-0.1000000000000078
 41
0.8000000000000025
  7
FDASTYLE1
 72
     5
 11
-175.0333842810429
 21
-96.63241102938014
 31
0.0
  0
TEXT
  5
49C
  8
LAYER0014
 62
     7
 10
-49.51705148945863
 20
169.3416668509957
 30
0.0
 40
4.0
  1
2
 41
0.8000000000000007
  7
FDASTYLE1
 72
     5
 11
-46.31705148945863
 21
169.3416668509957
 31
0.0
  0
INSERT
  5
49D
  8
LAYER0014
  6
CONTINUOUS
  2
DA_IMAGEDIMGROUP_1
 10
0.0
 20
0.0
 30
0.0
  0
INSERT
  5
49E
  8
LAYER0014
  6
CONTINUOUS
  2
DA_IMAGEDIMGROUP_2
 10
0.0
 20
0.0
 30
0.0
  0
INSERT
  5
49F
  8
LAYER0014
  6
CONTINUOUS
  2
DA_IMAGEDIMGROUP_3
 10
0.0
 20
0.0
 30
0.0
  0
INSERT
  5
4A0
  8
LAYER0014
  6
CONTINUOUS
  2
DA_IMAGEDIMGROUP_4
 10
0.0
 20
0.0
 30
0.0
  0
INSERT
  5
4A1
  8
LAYER0014
  6
CONTINUOUS
  2
DC_GROUP_1
 10
0.0
 20
0.0
 30
0.0
  0
INSERT
  5
4A2
  8
LAYER0014
  6
CONTINUOUS
  2
DA_IMAGEDIMGROUP_5
 10
0.0
 20
0.0
 30
0.0
  0
INSERT
  5
4A3
  8
LAYER0014
  6
CONTINUOUS
  2
DA_IMAGEDIMGROUP_6
 10
0.0
 20
0.0
 30
0.0
  0
INSERT
  5
4A4
  8
LAYER0014
  6
CONTINUOUS
  2
DA_IMAGEDIMGROUP_7
 10
0.0
 20
0.0
 30
0.0
  0
INSERT
  5
4A5
  8
LAYER0014
  6
CONTINUOUS
  2
DA_IMAGEDIMGROUP_8
 10
0.0
 20
0.0
 30
0.0
  0
INSERT
  5
4A6
  8
LAYER0014
  6
CONTINUOUS
  2
DA_IMAGEDIMGROUP_9
 10
0.0
 20
0.0
 30
0.0
  0
INSERT
  5
4A7
  8
LAYER0014
  6
CONTINUOUS
  2
DA_IMAGEDIMGROUP_10
 10
0.0
 20
0.0
 30
0.0
  0
INSERT
  5
4A8
  8
LAYER0014
  6
CONTINUOUS
  2
DA_IMAGEDIMGROUP_11
 10
0.0
 20
0.0
 30
0.0
  0
INSERT
  5
4A9
  8
LAYER0014
  6
CONTINUOUS
  2
DA_IMAGEDIMGROUP_12
 10
0.0
 20
0.0
 30
0.0
  0
INSERT
  5
4AA
  8
LAYER0014
  6
CONTINUOUS
  2
DA_IMAGEDIMGROUP_13
 10
0.0
 20
0.0
 30
0.0
  0
INSERT
  5
4AB
  8
LAYER0014
  6
CONTINUOUS
  2
DA_IMAGEDIMGROUP_14
 10
0.0
 20
0.0
 30
0.0
  0
INSERT
  5
4AC
  8
LAYER0014
  6
CONTINUOUS
  2
DA_IMAGEDIMGROUP_15
 10
0.0
 20
0.0
 30
0.0
  0
INSERT
  5
4AD
  8
LAYER0014
  6
CONTINUOUS
  2
DA_IMAGEDIMGROUP_16
 10
0.0
 20
0.0
 30
0.0
  0
INSERT
  5
4AE
  8
LAYER0014
  6
CONTINUOUS
  2
DA_IMAGEDIMGROUP_17
 10
0.0
 20
0.0
 30
0.0
  0
INSERT
  5
4AF
  8
LAYER0014
  6
CONTINUOUS
  2
DC_GROUP_2
 10
0.0
 20
0.0
 30
0.0
  0
INSERT
  5
4B0
  8
LAYER0014
  6
CONTINUOUS
  2
DA_IMAGEDIMGROUP_18
 10
0.0
 20
0.0
 30
0.0
  0
INSERT
  5
4B1
  8
LAYER0014
  6
CONTINUOUS
  2
DA_IMAGEDIMGROUP_19
 10
0.0
 20
0.0
 30
0.0
  0
INSERT
  5
4B2
  8
LAYER0014
  6
CONTINUOUS
  2
DA_IMAGEDIMGROUP_20
 10
0.0
 20
0.0
 30
0.0
  0
INSERT
  5
4B3
  8
LAYER0014
  6
CONTINUOUS
  2
DA_IMAGEDIMGROUP_21
 10
0.0
 20
0.0
 30
0.0
  0
INSERT
  5
4B4
  8
LAYER0014
  6
CONTINUOUS
  2
DA_IMAGEDIMGROUP_22
 10
0.0
 20
0.0
 30
0.0
  0
INSERT
  5
4B5
  8
LAYER0014
  6
CONTINUOUS
  2
DC_GROUP_3
 10
0.0
 20
0.0
 30
0.0
  0
INSERT
  5
4B6
  8
LAYER0014
  6
CONTINUOUS
  2
DC_GROUP_4
 10
0.0
 20
0.0
 30
0.0
  0
INSERT
  5
4B7
  8
LAYER0014
  6
CONTINUOUS
  2
DA_IMAGEDIMGROUP_27
 10
0.0
 20
0.0
 30
0.0
  0
INSERT
  5
4B8
  8
LAYER0014
  6
CONTINUOUS
  2
DA_IMAGEDIMGROUP_28
 10
0.0
 20
0.0
 30
0.0
  0
INSERT
  5
4B9
  8
LAYER0014
  6
CONTINUOUS
  2
DA_IMAGEDIMGROUP_29
 10
0.0
 20
0.0
 30
0.0
  0
INSERT
  5
4BA
  8
LAYER0014
  6
CONTINUOUS
  2
DA_IMAGEDIMGROUP_30
 10
0.0
 20
0.0
 30
0.0
  0
INSERT
  5
4BB
  8
LAYER0014
  6
CONTINUOUS
  2
DA_IMAGEDIMGROUP_31
 10
0.0
 20
0.0
 30
0.0
  0
INSERT
  5
4BC
  8
LAYER0014
  6
CONTINUOUS
  2
DA_IMAGEDIMGROUP_32
 10
0.0
 20
0.0
 30
0.0
  0
INSERT
  5
4BD
  8
LAYER0014
  6
CONTINUOUS
  2
DA_IMAGEDIMGROUP_33
 10
0.0
 20
0.0
 30
0.0
  0
INSERT
  5
4BE
  8
LAYER0014
  6
CONTINUOUS
  2
DC_GROUP_5
 10
0.0
 20
0.0
 30
0.0
  0
INSERT
  5
4BF
  8
0
  6
CONTINUOUS
  2
DA_IMAGEDIMGROUP_23
 10
0.0
 20
0.0
 30
0.0
  0
INSERT
  5
4C0
  8
0
  6
CONTINUOUS
  2
DA_IMAGEDIMGROUP_24
 10
0.0
 20
0.0
 30
0.0
  0
INSERT
  5
4C1
  8
0
  6
CONTINUOUS
  2
DA_IMAGEDIMGROUP_25
 10
0.0
 20
0.0
 30
0.0
  0
INSERT
  5
4C2
  8
0
  6
CONTINUOUS
  2
DA_IMAGEDIMGROUP_26
 10
0.0
 20
0.0
 30
0.0
  0
INSERT
  5
4C3
  8
0
  6
CONTINUOUS
  2
DA_IMAGEDIMGROUP_34
 10
0.0
 20
0.0
 30
0.0
  0
INSERT
  5
4C4
  8
0
  6
CONTINUOUS
  2
DC_GROUP_6
 10
0.0
 20
0.0
 30
0.0
  0
TEXT
  5
4C5
  8
0
 62
     5
 10
87.19512849637373
 20
-33.13991614743289
 30
0.0
 40
5.0
  1
NIKKO
 50
-15.0
 41
0.7674421159044375
  7
FDASTYLE1
 72
     5
 11
109.9633828466813
 21
-39.2406515136642
 31
0.0
  0
TEXT
  5
4C6
  8
0
 62
     5
 10
123.4087618923652
 20
-42.3256921380792
 30
0.0
 40
4.0
  1
MAC3-205A5
 50
-15.0
 41
0.7727275194893259
  7
FDASTYLE1
 72
     5
 11
160.9418832341017
 21
-52.38266169101683
 31
0.0
  0
TEXT
  5
4C7
  8
0
 62
     5
 10
122.0714081598517
 20
-48.69664691629301
 30
0.0
 40
3.0
  1
0001
 50
-15.0
 41
0.7647060767727462
  7
FDASTYLE1
 72
     5
 11
132.8345821627252
 21
-51.58063069835863
 31
0.0
  0
TEXT
  5
4C8
  8
0
 62
     5
 10
226.5660792783977
 20
32.46342155473169
 30
0.0
 40
3.0
  1
F MAX       31KN
 50
105.0
 41
0.8461540746677687
  7
FDASTYLE1
 72
     5
 11
212.9004336013383
 21
83.46430553975122
 31
0.0
  0
TEXT
  5
4C9
  8
0
 62
     5
 10
203.9539286347234
 20
102.3754449436665
 30
0.0
 40
3.0
  1
ΣS
 50
105.0
 41
0.9090909271529221
  7
FDASTYLE1
 72
     5
 11
202.4010143332546
 21
108.1710000165482
 31
0.0
  0
TEXT
  5
4CA
  8
0
 62
     5
 10
206.535242337915
 20
86.16419089492135
 30
0.0
 40
3.0
  1
F
 50
105.0
 41
0.8791213035583527
  7
FDASTYLE1
 72
     5
 11
205.8526423289662
 21
88.71168880956512
 31
0.0
  0
TEXT
  5
4CB
  8
0
 62
     5
 10
211.7725436613121
 20
95.66986883845651
 30
0.0
 40
3.0
  1
N min
 50
105.0
 41
0.7983872414958766
  7
FDASTYLE1
 72
     5
 11
207.9290810513444
 21
110.0138665758473
 31
0.0
  0
TEXT
  5
4CC
  8
0
 62
     5
 10
205.9731339660118
 20
109.7525409572867
 30
0.0
 40
1.5
  1
-1
 50
105.0
 41
0.7826088684192895
  7
FDASTYLE1
 72
     5
 11
205.2743225010399
 21
112.3605408494735
 31
0.0
  0
TEXT
  5
4CD
  8
0
 62
     5
 10
231.8786708311321
 20
33.88692543046411
 30
0.0
 40
3.0
  1
ΣS MAX      86KN
 50
105.0
 41
0.8510640459141202
  7
FDASTYLE1
 72
     5
 11
218.2130251540727
 21
84.88780941548365
 31
0.0
  0
TEXT
  5
4CE
  8
0
 62
     5
 10
237.1912623838664
 20
35.31042930619653
 30
0.0
 40
3.0
  1
N MAX 6500 AT ΣS MAX
 50
105.0
 41
0.8505395087621928
  7
FDASTYLE1
 72
     5
 11
220.0470887875267
 21
99.2933562215172
 31
0.0
  0
LINE
  5
4CF
  8
0
  6
CONTINUOUS
 62
     5
 10
214.2737822874196
 20
92.55874879598994
 30
0.0
 11
212.3326394601472
 21
99.80319239139934
 31
0.0
  0
LINE
  5
4D0
  8
0
  6
CONTINUOUS
 62
     5
 10
199.784864631568
 20
88.67645892762928
 30
0.0
 11
214.2737518223868
 21
92.55874458217411
 31
0.0
  0
LINE
  5
4D1
  8
0
  6
CONTINUOUS
 62
     5
 10
199.7848803577426
 20
88.67645919217992
 30
0.0
 11
196.8731641422014
 21
99.54313195472312
 31
0.0
  0
LINE
  5
4D2
  8
0
  6
CONTINUOUS
 62
     5
 10
196.8731641422014
 20
99.54313195472312
 30
0.0
 11
199.0464972208242
 21
100.1254748029049
 31
0.0
  0
LINE
  5
4D3
  8
0
  6
CONTINUOUS
 62
     5
 10
199.3376706195476
 20
99.03880089416433
 30
0.0
 11
199.0465011700894
 21
100.1254600640466
 31
0.0
  0
LINE
  5
4D4
  8
0
  6
CONTINUOUS
 62
     5
 10
199.3376558806894
 20
99.03879694489913
 30
0.0
 11
200.7865445997713
 21
99.42702551035362
 31
0.0
  0
LINE
  5
4D5
  8
0
  6
CONTINUOUS
 62
     5
 10
201.0777307627204
 20
98.3403629203074
 30
0.0
 11
200.7865593386295
 21
99.42702945961881
 31
0.0
  0
LINE
  5
4D6
  8
0
  6
CONTINUOUS
 62
     5
 10
202.9148480472567
 20
97.27970276668
 30
0.0
 11
202.5266194818022
 21
98.72859148576188
 31
0.0
  0
LINE
  5
4D7
  8
0
  6
CONTINUOUS
 62
     5
 10
201.0777140492295
 20
98.34036634047132
 30
0.0
 11
202.5266175071697
 21
98.728598855191
 31
0.0
  0
LINE
  5
4D8
  8
0
  6
CONTINUOUS
 62
     5
 10
197.8437375304702
 20
95.92090278758931
 30
0.0
 11
212.3326099824307
 21
99.80318449286895
 31
0.0
  0
LINE
  5
4D9
  8
0
  6
CONTINUOUS
 62
     5
 10
207.2234529747374
 20
89.89316160917659
 30
0.0
 11
208.388139164759
 21
85.54649360957367
 31
0.0
  0
LINE
  5
4DA
  8
0
  6
CONTINUOUS
 62
     5
 10
208.3881169245287
 20
85.5465193852331
 30
0.0
 11
207.4695639038682
 21
86.07684622849482
 31
0.0
  0
LINE
  5
4DB
  8
0
  6
CONTINUOUS
 62
     5
 10
208.3881728889468
 20
85.54647018270524
 30
0.0
 11
208.9185072667719
 21
86.46503648108526
 31
0.0
  0
LINE
  5
4DC
  8
0
  6
CONTINUOUS
 62
     5
 10
206.6931483345633
 20
88.97458506904766
 30
0.0
 11
207.2234827123884
 21
89.89315136742769
 31
0.0
  0
LINE
  5
4DD
  8
0
  6
CONTINUOUS
 62
     5
 10
208.1419858278886
 20
89.36285297763132
 30
0.0
 11
207.2234328072281
 21
89.89317982089304
 31
0.0
  0
LINE
  5
4DE
  8
0
  6
CONTINUOUS
 62
     5
 10
203.7554630444437
 20
99.9381089350459
 30
0.0
 11
204.2857974222688
 21
100.8566752334259
 31
0.0
  0
LINE
  5
4DF
  8
0
  6
CONTINUOUS
 62
     5
 10
204.2857771863423
 20
100.8567227256852
 30
0.0
 11
203.3672175584324
 21
101.3870533836441
 31
0.0
  0
LINE
  5
4E0
  8
0
  6
CONTINUOUS
 62
     5
 10
201.4269821898701
 20
100.0906533965261
 30
0.0
 11
204.285760609167
 21
100.8566607717364
 31
0.0
  0
LINE
  5
4E1
  8
0
  6
CONTINUOUS
 62
     5
 10
207.4106744229424
 20
96.44183170970948
 30
0.0
 11
206.5093957798011
 21
96.04055670738464
 31
0.0
  0
LINE
  5
4E2
  8
0
  6
CONTINUOUS
 62
     5
 10
207.4106917098049
 20
96.44182491642079
 30
0.0
 11
207.0094227961805
 21
97.34308956116075
 31
0.0
  0
ARC
  5
4E3
  8
0
  6
CONTINUOUS
 62
     5
 10
206.0981877492804
 20
94.16849332804648
 30
0.0
 40
2.625001907348633
 50
60.00011095267883
 51
354.9999563756265
  0
TEXT
  5
4E4
  8
0
 62
     4
 10
-217.0366872658602
 20
-154.5163558075492
 30
0.0
 40
3.200000047683716
  1
52ＴS型シリンダー（圧力2.8MPa)
 41
0.7263159550375882
  7
FDASTYLE1
 72
     5
 11
-153.9509710183016
 21
-154.5163558075492
 31
0.0
  0
VIEWPORT
  5
48
 67
     1
  8
0
 10
0.0
 20
0.0
 30
0.0
 40
1662.0
 41
1140.0
 68
     1
 69
     1
1001
ACAD
1000
MVIEW
1002
{
1070
    16
1010
0.0
1020
0.0
1030
0.0
1020
0.0
1030
0.0
1010
0.0
1020
0.0
1030
1.0
1020
0.0
1030
1.0
1040
0.0
1040
1140.0
1040
0.0
1040
0.0
1040
50.0
1040
0.0
1040
0.0
1070
     0
1070
   100
1070
     0
1070
     1
1070
     0
1070
     0
1070
     0
1070
     0
1040
0.0
1040
0.0
1040
0.0
1040
0.5
1040
0.5
1040
0.0
1040
0.0
1070
     0
1002
{
1002
}
1002
}
  0
ENDSEC
  0
EOF
