  0
SECTION
  2
HEADER
  9
$ACADVER
  1
AC1009
  9
$DWGCODEPAGE
  3
ansi_932
  9
$INSBASE
 10
0.0
 20
0.0
 30
0.0
  9
$EXTMIN
 10
-831.0
 20
-569.9999999999999
 30
0.0
  9
$EXTMAX
 10
831.0
 20
569.9999999999999
 30
0.0
  9
$LIMMIN
 10
-297.0
 20
-210.0
  9
$LIMMAX
 10
297.0
 20
210.0
  9
$ORTHOMODE
 70
     0
  9
$REGENMODE
 70
     1
  9
$FILLMODE
 70
     1
  9
$QTEXTMODE
 70
     0
  9
$MIRRTEXT
 70
     1
  9
$DRAGMODE
 70
     2
  9
$LTSCALE
 40
1.0
  9
$OSMODE
 70
    37
  9
$ATTMODE
 70
     1
  9
$TEXTSIZE
 40
0.2
  9
$TRACEWID
 40
0.05
  9
$TEXTSTYLE
  7
STANDARD
  9
$CLAYER
  8
0
  9
$CELTYPE
  6
BYLAYER
  9
$CECOLOR
 62
   256
  9
$DIMSCALE
 40
1.0
  9
$DIMASZ
 40
2.5
  9
$DIMEXO
 40
0.0625
  9
$DIMDLI
 40
0.38
  9
$DIMRND
 40
0.0
  9
$DIMDLE
 40
0.0
  9
$DIMEXE
 40
0.18
  9
$DIMTP
 40
0.0
  9
$DIMTM
 40
0.0
  9
$DIMTXT
 40
0.18
  9
$DIMCEN
 40
0.09
  9
$DIMTSZ
 40
0.0
  9
$DIMTOL
 70
     0
  9
$DIMLIM
 70
     0
  9
$DIMTIH
 70
     1
  9
$DIMTOH
 70
     1
  9
$DIMSE1
 70
     0
  9
$DIMSE2
 70
     0
  9
$DIMTAD
 70
     3
  9
$DIMZIN
 70
     0
  9
$DIMBLK
  1

  9
$DIMASO
 70
     1
  9
$DIMSHO
 70
     1
  9
$DIMPOST
  1

  9
$DIMAPOST
  1

  9
$DIMALT
 70
     0
  9
$DIMALTD
 70
     2
  9
$DIMALTF
 40
25.4
  9
$DIMLFAC
 40
1.0
  9
$DIMTOFL
 70
     0
  9
$DIMTVP
 40
0.0
  9
$DIMTIX
 70
     0
  9
$DIMSOXD
 70
     0
  9
$DIMSAH
 70
     0
  9
$DIMBLK1
  1

  9
$DIMBLK2
  1

  9
$DIMSTYLE
  2
STANDARD
  9
$DIMCLRD
 70
     0
  9
$DIMCLRE
 70
     0
  9
$DIMCLRT
 70
     0
  9
$DIMTFAC
 40
1.0
  9
$DIMGAP
 40
0.09
  9
$LUNITS
 70
     2
  9
$LUPREC
 70
     4
  9
$SKETCHINC
 40
0.1
  9
$FILLETRAD
 40
0.5
  9
$AUNITS
 70
     0
  9
$AUPREC
 70
     0
  9
$MENU
  1
.
  9
$ELEVATION
 40
0.0
  9
$PELEVATION
 40
0.0
  9
$THICKNESS
 40
0.0
  9
$LIMCHECK
 70
     0
  9
$CHAMFERA
 40
0.5
  9
$CHAMFERB
 40
0.5
  9
$SKPOLY
 70
     0
  9
$TDCREATE
 40
2456272.478854514
  9
$TDUPDATE
 40
2456272.478854525
  9
$TDINDWG
 40
0.0000000116
  9
$TDUSRTIMER
 40
0.0000000116
  9
$USRTIMER
 70
     1
  9
$ANGBASE
 50
0.0
  9
$ANGDIR
 70
     0
  9
$PDMODE
 70
     0
  9
$PDSIZE
 40
1.0
  9
$PLINEWID
 40
0.0
  9
$COORDS
 70
     1
  9
$SPLFRAME
 70
     0
  9
$SPLINETYPE
 70
     6
  9
$SPLINESEGS
 70
     8
  9
$ATTDIA
 70
     0
  9
$ATTREQ
 70
     1
  9
$HANDLING
 70
     1
  9
$HANDSEED
  5
56A
  9
$SURFTAB1
 70
     6
  9
$SURFTAB2
 70
     6
  9
$SURFTYPE
 70
     6
  9
$SURFU
 70
     6
  9
$SURFV
 70
     6
  9
$UCSNAME
  2

  9
$UCSORG
 10
0.0
 20
0.0
 30
0.0
  9
$UCSXDIR
 10
1.0
 20
0.0
 30
0.0
  9
$UCSYDIR
 10
0.0
 20
1.0
 30
0.0
  9
$PUCSNAME
  2

  9
$PUCSORG
 10
0.0
 20
0.0
 30
0.0
  9
$PUCSXDIR
 10
1.0
 20
0.0
 30
0.0
  9
$PUCSYDIR
 10
0.0
 20
1.0
 30
0.0
  9
$USERI1
 70
     0
  9
$USERI2
 70
     0
  9
$USERI3
 70
     0
  9
$USERI4
 70
     0
  9
$USERI5
 70
     0
  9
$USERR1
 40
0.0
  9
$USERR2
 40
0.0
  9
$USERR3
 40
0.0
  9
$USERR4
 40
0.0
  9
$USERR5
 40
0.0
  9
$WORLDVIEW
 70
     1
  9
$SHADEDGE
 70
     3
  9
$SHADEDIF
 70
    70
  9
$TILEMODE
 70
     1
  9
$MAXACTVP
 70
    64
  9
$PLIMCHECK
 70
     0
  9
$PEXTMIN
 10
1.000000000000000E+20
 20
1.000000000000000E+20
 30
1.000000000000000E+20
  9
$PEXTMAX
 10
-1.000000000000000E+20
 20
-1.000000000000000E+20
 30
-1.000000000000000E+20
  9
$PLIMMIN
 10
0.0
 20
0.0
  9
$PLIMMAX
 10
12.0
 20
9.0
  9
$UNITMODE
 70
     0
  9
$VISRETAIN
 70
     0
  9
$PLINEGEN
 70
     1
  9
$PSLTSCALE
 70
     0
  0
ENDSEC
  0
SECTION
  2
TABLES
  0
TABLE
  2
VPORT
 70
     1
  0
VPORT
  2
*ACTIVE
 70
     0
 10
0.0
 20
0.0
 11
1.0
 21
1.0
 12
0.0
 22
0.0
 13
0.0
 23
0.0
 14
0.5
 24
0.5
 15
0.5
 25
0.5
 16
0.0
 26
0.0
 36
1.0
 17
-0.0000000000000036
 27
0.0
 37
0.0
 40
387.6
 41
1.457894736842106
 42
50.0
 43
0.0
 44
0.0
 50
0.0
 51
0.0
 71
     0
 72
  1000
 73
     1
 74
     1
 75
     0
 76
     0
 77
     0
 78
     0
  0
ENDTAB
  0
TABLE
  2
LTYPE
 70
    28
  0
LTYPE
  2
CONTINUOUS
 70
     0
  3
Solid line
 72
    65
 73
     0
 40
0.0
  0
LTYPE
  2
HIDDENX2
 70
     0
  3
CADPAC LINETYPE
 72
    65
 73
     2
 40
9.893992932862261
 49
7.420494699646696
 49
-2.473498233215565
  0
LTYPE
  2
HIDDEN
 70
     0
  3
CADPAC LINETYPE
 72
    65
 73
     2
 40
7.420494699646696
 49
4.946996466431131
 49
-2.473498233215565
  0
LTYPE
  2
HIDDEN2
 70
     0
  3
CADPAC LINETYPE
 72
    65
 73
     2
 40
6.183745583038913
 49
3.710247349823348
 49
-2.473498233215565
  0
LTYPE
  2
DASHED
 70
     0
  3
CADPAC LINETYPE
 72
    65
 73
     2
 40
6.925795053003583
 49
4.946996466431131
 49
-1.978798586572452
  0
LTYPE
  2
DASHED2
 70
     0
  3
CADPAC LINETYPE
 72
    65
 73
     2
 40
4.452296819787989
 49
2.968197879858678
 49
-1.484098939929311
  0
LTYPE
  2
DASHEDX2
 70
     0
  3
CADPAC LINETYPE
 72
    65
 73
     2
 40
11.87279151943466
 49
9.893992932862204
 49
-1.978798586572452
  0
LTYPE
  2
DOTX2
 70
     0
  3
CADPAC LINETYPE
 72
    65
 73
     2
 40
4.328621908127204
 49
0.0
 49
-4.328621908127204
  0
LTYPE
  2
DOT
 70
     0
  3
CADPAC LINETYPE
 72
    65
 73
     2
 40
3.462897526501763
 49
0.0
 49
-3.462897526501763
  0
LTYPE
  2
DOT2
 70
     0
  3
CADPAC LINETYPE
 72
    65
 73
     2
 40
2.597173144876322
 49
0.0
 49
-2.597173144876322
  0
LTYPE
  2
CENTERX2
 70
     0
  3
CADPAC LINETYPE
 72
    65
 73
     4
 40
14.84098939929339
 49
6.183745583038913
 49
-3.091872791519457
 49
2.473498233215565
 49
-3.091872791519457
  0
LTYPE
  2
CENTER
 70
     0
  3
CADPAC LINETYPE
 72
    65
 73
     4
 40
11.3780918727916
 49
4.946996466431131
 49
-2.473498233215565
 49
1.484098939929339
 49
-2.473498233215565
  0
LTYPE
  2
CENTER2
 70
     0
  3
CADPAC LINETYPE
 72
    65
 73
     4
 40
7.915194346289809
 49
3.710247349823348
 49
-1.855123674911674
 49
0.4946996466431131
 49
-1.855123674911674
  0
LTYPE
  2
DASHDOTX2
 70
     0
  3
CADPAC LINETYPE
 72
    65
 73
     4
 40
23.7455830388692
 49
11.87279151943466
 49
-3.957597173144848
 49
3.957597173144848
 49
-3.957597173144848
  0
LTYPE
  2
DASHDOT
 70
     0
  3
CADPAC LINETYPE
 72
    65
 73
     4
 40
11.87279151943466
 49
5.9363957597173
 49
-1.978798586572452
 49
1.978798586572452
 49
-1.978798586572452
  0
LTYPE
  2
DASHDOT2
 70
     0
  3
CADPAC LINETYPE
 72
    65
 73
     4
 40
7.618374558303898
 49
4.452296819787975
 49
-1.484098939929339
 49
0.1978798586572452
 49
-1.484098939929339
  0
LTYPE
  2
DIVIDEX2
 70
     0
  3
CADPAC LINETYPE
 72
    65
 73
     6
 40
31.6607773851589
 49
11.87279151943466
 49
-3.957597173144848
 49
3.957597173144848
 49
-3.957597173144848
 49
3.957597173144848
 49
-3.957597173144848
  0
LTYPE
  2
DIVIDE
 70
     0
  3
CADPAC LINETYPE
 72
    65
 73
     6
 40
15.83038869257956
 49
5.9363957597173
 49
-1.978798586572452
 49
1.978798586572452
 49
-1.978798586572452
 49
1.978798586572452
 49
-1.978798586572452
  0
LTYPE
  2
DIVIDE2
 70
     0
  3
CADPAC LINETYPE
 72
    65
 73
     6
 40
11.87279151943467
 49
4.452296819787975
 49
-1.484098939929339
 49
1.484098939929339
 49
-1.484098939929339
 49
1.484098939929339
 49
-1.484098939929339
  0
LTYPE
  2
BORDERX2
 70
     0
  3
CADPAC LINETYPE
 72
    65
 73
     6
 40
21.6431095406362
 49
6.183745583038913
 49
-3.091872791519457
 49
6.183745583038913
 49
-3.091872791519457
 49
0.0
 49
-3.091872791519457
  0
LTYPE
  2
BORDER
 70
     0
  3
CADPAC LINETYPE
 72
    65
 73
     6
 40
17.31448763250896
 49
4.946996466431131
 49
-2.473498233215565
 49
4.946996466431131
 49
-2.473498233215565
 49
0.0
 49
-2.473498233215565
  0
LTYPE
  2
BORDER2
 70
     0
  3
CADPAC LINETYPE
 72
    65
 73
     6
 40
12.86219081272091
 49
3.957597173144848
 49
-2.473498233215594
 49
1.484098939929311
 49
-2.473498233215594
 49
0.0
 49
-2.473498233215565
  0
LTYPE
  2
PHANTOMX2
 70
     0
  3
CADPAC LINETYPE
 72
    65
 73
     6
 40
18.55123674911674
 49
6.183745583038913
 49
-2.473498233215565
 49
2.473498233215565
 49
-2.473498233215565
 49
2.473498233215565
 49
-2.473498233215565
  0
LTYPE
  2
PHANTOM
 70
     0
  3
CADPAC LINETYPE
 72
    65
 73
     6
 40
15.33568904593651
 49
4.946996466431131
 49
-2.473498233215565
 49
1.484098939929339
 49
-2.473498233215565
 49
1.484098939929339
 49
-2.473498233215565
  0
LTYPE
  2
PHANTOM2
 70
     0
  3
CADPAC LINETYPE
 72
    65
 73
     6
 40
13.1095406360425
 49
3.710247349823348
 49
-2.473498233215565
 49
0.9893992932862261
 49
-2.473498233215565
 49
0.9893992932862261
 49
-2.473498233215565
  0
LTYPE
  2
ACAD_ISO06W100
 70
     0
  3
CADPAC LINETYPE
 72
    65
 73
     8
 40
26.21908127208496
 49
11.87279151943466
 49
-2.473498233215594
 49
1.484098939929311
 49
-2.473498233215594
 49
1.484098939929311
 49
-2.473498233215594
 49
1.484098939929311
 49
-2.473498233215594
  0
LTYPE
  2
ACAD_ISO13W100
 70
     0
  3
CADPAC LINETYPE
 72
    65
 73
     8
 40
19.78798586572452
 49
4.946996466431131
 49
-2.473498233215565
 49
4.946996466431131
 49
-2.473498233215565
 49
0.0
 49
-2.473498233215565
 49
0.0
 49
-2.473498233215565
  0
LTYPE
  2
ACAD_ISO14W100
 70
     0
  3
CADPAC LINETYPE
 72
    65
 73
     8
 40
14.84098939929339
 49
4.946996466431131
 49
-2.473498233215565
 49
0.0
 49
-2.473498233215565
 49
0.0
 49
-2.473498233215565
 49
0.0
 49
-2.473498233215565
  0
ENDTAB
  0
TABLE
  2
LAYER
 70
     3
  0
LAYER
  2
0
 70
     0
 62
     7
  6
CONTINUOUS
  0
LAYER
  2
LAYER0014
 70
     0
 62
     7
  6
CONTINUOUS
  0
LAYER
  2
ZUWAKU
 70
     0
 62
     7
  6
CONTINUOUS
  0
ENDTAB
  0
TABLE
  2
STYLE
 70
     5
  0
STYLE
  2
STANDARD
 70
     0
 40
0.0
 41
1.0
 50
0.0
 71
     0
 42
0.2
  3
txt
  4

  0
STYLE
  2
FDASTYLE1
 70
     0
 40
0.0
 41
0.7999999999999993
 50
0.0
 71
     0
 42
0.2
  3
txt.shx
  4
bigfont
  0
STYLE
  2
FDASTYLE0
 70
     4
 40
0.0
 41
0.8
 50
0.0
 71
     0
 42
0.2
  3
txt.shx
  4
bigfont
  0
STYLE
  2
FDASTYLE2
 70
     0
 40
0.0
 41
0.8123476848090983
 50
0.0
 71
     0
 42
0.2
  3
MSMINCHO.TTC
  4

  0
STYLE
  2
FDASTYLE3
 70
     0
 40
0.0
 41
0.77
 50
0.0
 71
     0
 42
0.2
  3
MSGOTHIC.TTC
  4

  0
ENDTAB
  0
TABLE
  2
VIEW
 70
     0
  0
ENDTAB
  0
TABLE
  2
UCS
 70
     0
  0
ENDTAB
  0
TABLE
  2
APPID
 70
     2
  0
APPID
  2
ACAD
 70
     0
  0
APPID
  2
DAFUSIONOUT
 70
     0
  0
ENDTAB
  0
TABLE
  2
DIMSTYLE
 70
     1
  0
DIMSTYLE
  2
STANDARD
 70
     0
  3

  4

  5

  6

  7

 40
1.0
 41
0.18
 42
0.0625
 43
0.38
 44
0.18
 45
0.0
 46
0.0
 47
0.0
 48
0.0
140
0.18
141
0.09
142
0.0
143
25.4
144
1.0
145
0.0
146
1.0
147
0.09
 71
     0
 72
     0
 73
     1
 74
     1
 75
     0
 76
     0
 77
     0
 78
     0
170
     0
171
     2
172
     0
173
     0
174
     0
175
     0
176
     0
177
     0
178
     0
  0
ENDTAB
  0
ENDSEC
  0
SECTION
  2
BLOCKS
  0
BLOCK
  8
0
  2
$MODEL_SPACE
 70
     0
 10
0.0
 20
0.0
 30
0.0
  3
$MODEL_SPACE
  1

  0
ENDBLK
  5
21
  8
0
  0
BLOCK
 67
     1
  8
0
  2
$PAPER_SPACE
 70
     0
 10
0.0
 20
0.0
 30
0.0
  3
$PAPER_SPACE
  1

  0
ENDBLK
  5
1D
 67
     1
  8
0
  0
BLOCK
  8
0
  2
DA_IMAGEDIMGROUP_1
 70
     0
 10
0.0
 20
0.0
 30
0.0
  3
DA_IMAGEDIMGROUP_1
  1

  0
LINE
  5
D0
  8
LAYER0014
  6
CONTINUOUS
 62
     7
 10
101.4790583028307
 20
54.64836766543636
 30
0.0
 11
115.4713565427719
 21
46.56991084654431
 31
0.0
  0
ARC
  5
D1
  8
LAYER0014
  6
CONTINUOUS
 62
     7
 10
135.136768860227
 20
35.21608791793813
 30
0.0
 40
24.99365997314453
 50
150.0000246646978
 51
179.9999640278213
  0
INSERT
  5
D8
  8
LAYER0014
 62
     7
  2
_OPEN30
 10
113.4916190102979
 20
47.71290858670344
 30
0.0
 41
1.50000139391263
 42
1.499998500689492
 50
66.18953851947312
  0
INSERT
  5
D9
  8
LAYER0014
 62
     7
  2
_OPEN30
 10
110.1431088870874
 20
35.21610360978158
 30
0.0
 41
1.50000139391263
 42
1.499998500689492
 50
263.8104501730461
  0
TEXT
  5
DB
  8
LAYER0014
 62
     7
 10
108.3675251965357
 20
38.91470607659059
 30
0.0
 40
4.0
  1
30ﾟ
 50
71.90000000000001
 41
0.7999999999999993
  7
FDASTYLE1
 72
     5
 11
111.3500189209907
 21
48.03965710021731
 31
0.0
  0
ENDBLK
  5
4E
  8
0
  0
BLOCK
  8
0
  2
DC_GROUP_1
 70
     0
 10
0.0
 20
0.0
 30
0.0
  3
DC_GROUP_1
  1

  0
LINE
  5
DC
  8
LAYER0014
  6
CONTINUOUS
 62
     7
 10
144.9507044659916
 20
-58.24458806956442
 30
0.0
 11
197.252385213503
 21
-105.11873089377
 31
0.0
  0
INSERT
  5
DD
  8
LAYER0014
 62
     7
  2
_OPEN30
 10
144.9507044659916
 20
-58.24458806956442
 30
0.0
 41
1.50000139391263
 42
1.499998500689492
 50
138.132468245593
  0
LINE
  5
DE
  8
LAYER0014
  6
CONTINUOUS
 62
     7
 10
197.2523843989402
 20
-105.118733096746
 30
0.0
 11
224.3076666561483
 21
-105.118733096746
 31
0.0
  0
TEXT
  5
DF
  8
LAYER0014
 62
     7
 10
197.9924967036277
 20
-103.5187330967461
 30
0.0
 40
4.0
  1
PCD171.4
 41
0.7999999999999998
  7
FDASTYLE1
 72
     5
 11
223.5924967036277
 21
-103.5187330967461
 31
0.0
  0
ENDBLK
  5
51
  8
0
  0
BLOCK
  8
0
  2
DA_IMAGEDIMGROUP_2
 70
     0
 10
0.0
 20
0.0
 30
0.0
  3
DA_IMAGEDIMGROUP_2
  1

  0
LINE
  5
E0
  8
LAYER0014
  6
CONTINUOUS
 62
     7
 10
-203.1461354397687
 20
13.62863026107777
 30
0.0
 11
-177.1461354397687
 21
13.62863026107777
 31
0.0
  0
INSERT
  5
E1
  8
LAYER0014
 62
     7
  2
_OPEN30
 10
-203.1461354397687
 20
13.62863026107777
 30
0.0
 41
1.50000139391263
 42
1.499998500689492
 50
180.0
  0
INSERT
  5
E2
  8
LAYER0014
 62
     7
  2
_OPEN30
 10
-177.1461354397687
 20
13.62863026107777
 30
0.0
 41
1.50000139391263
 42
1.499998500689492
 50
360.0
  0
TEXT
  5
E3
  8
LAYER0014
 62
     7
 10
-193.3461354397687
 20
15.22863026107777
 30
0.0
 40
4.0
  1
26
 41
0.7999999999999972
  7
FDASTYLE1
 72
     5
 11
-186.9461354397687
 21
15.22863026107777
 31
0.0
  0
ENDBLK
  5
54
  8
0
  0
BLOCK
  8
0
  2
DA_IMAGEDIMGROUP_3
 70
     0
 10
0.0
 20
0.0
 30
0.0
  3
DA_IMAGEDIMGROUP_3
  1

  0
LINE
  5
E4
  8
LAYER0014
  6
CONTINUOUS
 62
     7
 10
-177.1461354397687
 20
13.62863026107777
 30
0.0
 11
-152.1461354397687
 21
13.62863026107777
 31
0.0
  0
INSERT
  5
E5
  8
LAYER0014
 62
     7
  2
_OPEN30
 10
-177.1461354397687
 20
13.62863026107777
 30
0.0
 41
1.50000139391263
 42
1.499998500689492
 50
180.0
  0
INSERT
  5
E6
  8
LAYER0014
 62
     7
  2
_OPEN30
 10
-152.1461354397687
 20
13.62863026107777
 30
0.0
 41
1.50000139391263
 42
1.499998500689492
 50
360.0
  0
TEXT
  5
E7
  8
LAYER0014
 62
     7
 10
-167.8461354397687
 20
15.22863026107777
 30
0.0
 40
4.0
  1
25
 41
0.7999999999999972
  7
FDASTYLE1
 72
     5
 11
-161.4461354397687
 21
15.22863026107777
 31
0.0
  0
ENDBLK
  5
57
  8
0
  0
BLOCK
  8
0
  2
DA_IMAGEDIMGROUP_4
 70
     0
 10
0.0
 20
0.0
 30
0.0
  3
DA_IMAGEDIMGROUP_4
  1

  0
LINE
  5
E8
  8
LAYER0014
  6
CONTINUOUS
 62
     7
 10
-66.80279632039611
 20
1.716087917938125
 30
0.0
 11
-66.80279632039611
 21
68.71608791793813
 31
0.0
  0
INSERT
  5
E9
  8
LAYER0014
 62
     7
  2
_OPEN30
 10
-66.80279632039611
 20
1.716087917938125
 30
0.0
 41
1.50000139391263
 42
1.499998500689492
 50
270.0
  0
INSERT
  5
EA
  8
LAYER0014
 62
     7
  2
_OPEN30
 10
-66.80279632039611
 20
68.71608791793813
 30
0.0
 41
1.50000139391263
 42
1.499998500689492
 50
90.0
  0
TEXT
  5
EB
  8
LAYER0014
 62
     7
 10
-67.80279632039611
 20
28.47952961667953
 30
0.0
 40
4.0
  1
φ67
 50
90.0
 41
0.7499999999999996
  7
FDASTYLE1
 72
     5
 11
-67.80279632039611
 21
38.07952961667952
 31
0.0
  0
TEXT
  5
EC
  8
LAYER0014
 62
     7
 10
-71.70279632039598
 20
40.71608787025443
 30
0.0
 40
2.2
  1
+0.2
 50
90.0
 41
0.8000000000000006
  7
FDASTYLE1
 72
     5
 11
-71.70279632039598
 21
47.75608787025444
 31
0.0
  0
TEXT
  5
ED
  8
LAYER0014
 62
     7
 10
-68.10279632039607
 20
40.71608787025443
 30
0.0
 40
2.2
  1
 0
 50
90.0
 41
0.7999999999999991
  7
FDASTYLE1
 72
     5
 11
-68.10279632039607
 21
44.23608787025443
 31
0.0
  0
LINE
  5
EE
  8
LAYER0014
  6
CONTINUOUS
 62
     7
 10
-88.60613543976871
 20
1.716087917938125
 30
0.0
 11
-65.30279632039611
 21
1.716087917938125
 31
0.0
  0
LINE
  5
EF
  8
LAYER0014
  6
CONTINUOUS
 62
     7
 10
-88.60613543976871
 20
68.71608791793813
 30
0.0
 11
-65.30279632039611
 21
68.71608791793813
 31
0.0
  0
ENDBLK
  5
5A
  8
0
  0
BLOCK
  8
0
  2
DA_IMAGEDIMGROUP_5
 70
     0
 10
0.0
 20
0.0
 30
0.0
  3
DA_IMAGEDIMGROUP_5
  1

  0
LINE
  5
F0
  8
LAYER0014
  6
CONTINUOUS
 62
     7
 10
-218.1991778442778
 20
-11.28391208206187
 30
0.0
 11
-218.1991778442778
 21
81.71608791793815
 31
0.0
  0
INSERT
  5
F1
  8
LAYER0014
 62
     7
  2
_OPEN30
 10
-218.1991778442778
 20
-11.28391208206187
 30
0.0
 41
1.50000139391263
 42
1.499998500689492
 50
270.0
  0
INSERT
  5
F2
  8
LAYER0014
 62
     7
  2
_OPEN30
 10
-218.1991778442778
 20
81.71608791793815
 30
0.0
 41
1.50000139391263
 42
1.499998500689492
 50
90.0
  0
TEXT
  5
F3
  8
LAYER0014
 62
     7
 10
-219.799177844278
 20
27.21608791793813
 30
0.0
 40
4.0
  1
φ93H7
 50
90.0
 41
0.7692307692307692
  7
FDASTYLE1
 72
     5
 11
-219.799177844278
 21
43.21608791793813
 31
0.0
  0
LINE
  5
F4
  8
LAYER0014
  6
CONTINUOUS
 62
     7
 10
-187.6861354397686
 20
-11.28391208206187
 30
0.0
 11
-219.1991778442778
 21
-11.28391208206187
 31
0.0
  0
LINE
  5
F5
  8
LAYER0014
  6
CONTINUOUS
 62
     7
 10
-187.6861354397686
 20
81.71608791793815
 30
0.0
 11
-219.1991778442778
 21
81.71608791793815
 31
0.0
  0
ENDBLK
  5
5D
  8
0
  0
BLOCK
  8
0
  2
DA_IMAGEDIMGROUP_6
 70
     0
 10
0.0
 20
0.0
 30
0.0
  3
DA_IMAGEDIMGROUP_6
  1

  0
LINE
  5
F6
  8
LAYER0014
  6
CONTINUOUS
 62
     7
 10
-268.581726359337
 20
-89.78391208206188
 30
0.0
 11
-268.581726359337
 21
160.2160879179381
 31
0.0
  0
INSERT
  5
F7
  8
LAYER0014
 62
     7
  2
_OPEN30
 10
-268.581726359337
 20
-89.78391208206188
 30
0.0
 41
1.50000139391263
 42
1.499998500689492
 50
270.0
  0
INSERT
  5
F8
  8
LAYER0014
 62
     7
  2
_OPEN30
 10
-268.581726359337
 20
160.2160879179381
 30
0.0
 41
1.50000139391263
 42
1.499998500689492
 50
90.0
  0
TEXT
  5
F9
  8
LAYER0014
 62
     7
 10
-270.1817263593369
 20
28.81608791793815
 30
0.0
 40
4.0
  1
φ250
 50
90.0
 41
0.7619047619047592
  7
FDASTYLE1
 72
     5
 11
-270.1817263593369
 21
41.6160879179381
 31
0.0
  0
LINE
  5
FA
  8
LAYER0014
  6
CONTINUOUS
 62
     7
 10
-203.1709834622296
 20
-89.78391208206188
 30
0.0
 11
-269.581726359337
 21
-89.78391208206188
 31
0.0
  0
LINE
  5
FB
  8
LAYER0014
  6
CONTINUOUS
 62
     7
 10
-205.1861354397686
 20
160.2160879179381
 30
0.0
 11
-269.581726359337
 21
160.2160879179381
 31
0.0
  0
ENDBLK
  5
60
  8
0
  0
BLOCK
  8
0
  2
DA_IMAGEDIMGROUP_7
 70
     0
 10
0.0
 20
0.0
 30
0.0
  3
DA_IMAGEDIMGROUP_7
  1

  0
LINE
  5
FC
  8
LAYER0014
  6
CONTINUOUS
 62
     7
 10
-49.38293550269151
 20
-24.88390864883433
 30
0.0
 11
-49.38293550269151
 21
57.87556150170563
 31
0.0
  0
INSERT
  5
FD
  8
LAYER0014
 62
     7
  2
_OPEN30
 10
-49.38293550269151
 20
-24.88390864883433
 30
0.0
 41
1.50000139391263
 42
1.499998500689492
 50
270.0
  0
TEXT
  5
FE
  8
LAYER0014
 62
     7
 10
-50.98293550269142
 20
28.81608791793814
 30
0.0
 40
4.0
  1
φ120
 50
90.0
 41
0.7619047619047618
  7
FDASTYLE1
 72
     5
 11
-50.98293550269142
 21
41.61608791793814
 31
0.0
  0
LINE
  5
FF
  8
LAYER0014
  6
CONTINUOUS
 62
     7
 10
-78.5679503201398
 20
-24.88390864883433
 30
0.0
 11
-48.38293550269151
 21
-24.88390864883433
 31
0.0
  0
ENDBLK
  5
63
  8
0
  0
BLOCK
  8
0
  2
DA_IMAGEDIMGROUP_8
 70
     0
 10
0.0
 20
0.0
 30
0.0
  3
DA_IMAGEDIMGROUP_8
  1

  0
LINE
  5
100
  8
LAYER0014
  6
CONTINUOUS
 62
     7
 10
-203.1461354397687
 20
-0.5328649476624605
 30
0.0
 11
-185.1461354397687
 21
-0.5328649476624605
 31
0.0
  0
INSERT
  5
101
  8
LAYER0014
 62
     7
  2
_OPEN30
 10
-203.1461354397687
 20
-0.5328649476624605
 30
0.0
 41
1.50000139391263
 42
1.499998500689492
 50
180.0
  0
INSERT
  5
102
  8
LAYER0014
 62
     7
  2
_OPEN30
 10
-185.1461354397687
 20
-0.5328649476624605
 30
0.0
 41
1.50000139391263
 42
1.499998500689492
 50
360.0
  0
TEXT
  5
103
  8
LAYER0014
 62
     7
 10
-197.3433380405056
 20
1.07271766616968
 30
0.0
 40
4.0
  1
18
 50
-0.1000000000000078
 41
0.7999999999999954
  7
FDASTYLE1
 72
     5
 11
-190.9433477882606
 21
1.06154756462793
 31
0.0
  0
ENDBLK
  5
66
  8
0
  0
BLOCK
  8
0
  2
DA_IMAGEDIMGROUP_9
 70
     0
 10
0.0
 20
0.0
 30
0.0
  3
DA_IMAGEDIMGROUP_9
  1

  0
LINE
  5
104
  8
LAYER0014
  6
CONTINUOUS
 62
     7
 10
-58.45272607551743
 20
-2.283912082061868
 30
0.0
 11
-58.45272607551743
 21
72.71608791793815
 31
0.0
  0
INSERT
  5
105
  8
LAYER0014
 62
     7
  2
_OPEN30
 10
-58.45272607551743
 20
-2.283912082061868
 30
0.0
 41
1.50000139391263
 42
1.499998500689492
 50
270.0
  0
INSERT
  5
106
  8
LAYER0014
 62
     7
  2
_OPEN30
 10
-58.45272607551743
 20
72.71608791793815
 30
0.0
 41
1.50000139391263
 42
1.499998500689492
 50
90.0
  0
TEXT
  5
107
  8
LAYER0014
 62
     7
 10
-60.05272607551734
 20
30.41608791793814
 30
0.0
 40
4.0
  1
φ75
 50
90.0
 41
0.7499999999999996
  7
FDASTYLE1
 72
     5
 11
-60.05272607551734
 21
40.01608791793813
 31
0.0
  0
LINE
  5
108
  8
LAYER0014
  6
CONTINUOUS
 62
     7
 10
-79.10613543976871
 20
-2.283912082061868
 30
0.0
 11
-57.45272607551743
 21
-2.283912082061868
 31
0.0
  0
LINE
  5
109
  8
LAYER0014
  6
CONTINUOUS
 62
     7
 10
-79.10613543976871
 20
72.71608791793815
 30
0.0
 11
-57.45272607551743
 21
72.71608791793815
 31
0.0
  0
ENDBLK
  5
69
  8
0
  0
BLOCK
  8
0
  2
DA_IMAGEDIMGROUP_10
 70
     0
 10
0.0
 20
0.0
 30
0.0
  3
DA_IMAGEDIMGROUP_10
  1

  0
LINE
  5
10A
  8
LAYER0014
  6
CONTINUOUS
 62
     7
 10
-209.9959831468908
 20
-5.783912082061868
 30
0.0
 11
-209.9959831468908
 21
76.21608791793815
 31
0.0
  0
INSERT
  5
10B
  8
LAYER0014
 62
     7
  2
_OPEN30
 10
-209.9959831468908
 20
-5.783912082061868
 30
0.0
 41
1.50000139391263
 42
1.499998500689492
 50
270.0
  0
INSERT
  5
10C
  8
LAYER0014
 62
     7
  2
_OPEN30
 10
-209.9959831468908
 20
76.21608791793815
 30
0.0
 41
1.50000139391263
 42
1.499998500689492
 50
90.0
  0
LINE
  5
10D
  8
LAYER0014
  6
CONTINUOUS
 62
     7
 10
-179.4861384915265
 20
-5.783912082061868
 30
0.0
 11
-210.9959831468908
 21
-5.783912082061868
 31
0.0
  0
LINE
  5
10E
  8
LAYER0014
  6
CONTINUOUS
 62
     7
 10
-179.4861384915265
 20
76.21608791793815
 30
0.0
 11
-210.9959831468908
 21
76.21608791793815
 31
0.0
  0
TEXT
  5
10F
  8
LAYER0014
 62
     7
 10
-211.5959831468907
 20
22.41608791793812
 30
0.0
 40
4.0
  1
M82×P1.5
 50
90.0
 41
0.7804878048780496
  7
FDASTYLE1
 72
     5
 11
-211.5959831468907
 21
48.01608791793814
 31
0.0
  0
ENDBLK
  5
6C
  8
0
  0
BLOCK
  8
0
  2
DA_IMAGEDIMGROUP_11
 70
     0
 10
0.0
 20
0.0
 30
0.0
  3
DA_IMAGEDIMGROUP_11
  1

  0
LINE
  5
110
  8
0
  6
CONTINUOUS
 62
     9
 10
128.4479171572972
 20
10.2529525613574
 30
0.0
 11
124.0075491031118
 21
-6.318724574089032
 31
0.0
  0
ARC
  5
111
  8
0
  6
CONTINUOUS
 62
     9
 10
135.136753601438
 20
35.21602693075028
 30
0.0
 40
27.34367649829074
 50
254.9999982305803
 51
270.0
  0
ARC
  5
112
  8
0
  6
CONTINUOUS
 62
     9
 10
135.136753601438
 20
35.21602693075028
 30
0.0
 40
27.34367649829074
 50
216.478285178413
 51
254.9999982305803
  0
INSERT
  5
113
  8
0
 62
     9
  2
_OPEN30
 10
128.0596885448986
 20
8.804063833913144
 30
0.0
 41
1.50000139391263
 42
1.499998500689492
 50
343.4284513678923
  0
ARC
  5
114
  8
0
  6
CONTINUOUS
 62
     9
 10
135.136753601438
 20
35.21602693075028
 30
0.0
 40
27.34367649829074
 50
270.0
 51
285.7154560534308
  0
INSERT
  5
115
  8
0
 62
     9
  2
_OPEN30
 10
135.136753601438
 20
7.872350432459541
 30
0.0
 41
1.50000139391263
 42
1.499998500689492
 50
181.5715468626881
  0
TEXT
  5
116
  8
0
 62
     7
 10
116.5570340058152
 20
16.62222057765681
 30
0.0
 40
4.0
  1
15°
 50
-34.45651769179425
 41
0.7499999999999991
  7
FDASTYLE1
 72
     5
 11
124.4727697078793
 21
11.19072646506978
 31
0.0
  0
ENDBLK
  5
6F
  8
0
  0
BLOCK
  8
0
  2
DA_IMAGEDIMGROUP_12
 70
     0
 10
0.0
 20
0.0
 30
0.0
  3
DA_IMAGEDIMGROUP_12
  1

  0
LINE
  5
117
  8
0
  6
CONTINUOUS
 62
     9
 10
178.636753601438
 20
136.4303740982481
 30
0.0
 11
178.636753601438
 21
171.7271679697729
 31
0.0
  0
LINE
  5
118
  8
0
  6
CONTINUOUS
 62
     9
 10
135.136753601438
 20
168.8473592802428
 30
0.0
 11
135.136753601438
 21
171.7271679697729
 31
0.0
  0
LINE
  5
119
  8
0
  6
CONTINUOUS
 62
     9
 10
135.136753601438
 20
170.2271679697729
 30
0.0
 11
178.636753601438
 21
170.2271679697729
 31
0.0
  0
INSERT
  5
11A
  8
0
 62
     9
  2
_OPEN30
 10
135.136753601438
 20
170.2271679697729
 30
0.0
 41
1.50000139391263
 42
1.499998500689492
 50
180.0
  0
INSERT
  5
11B
  8
0
 62
     9
  2
_OPEN30
 10
178.636753601438
 20
170.2271679697729
 30
0.0
 41
1.50000139391263
 42
1.499998500689492
 50
360.0
  0
TEXT
  5
11C
  8
0
 62
     7
 10
150.486753601438
 20
171.2271679697729
 30
0.0
 40
4.0
  1
43.5
 41
0.8000000000000007
  7
FDASTYLE1
 72
     5
 11
163.286753601438
 21
171.2271679697729
 31
0.0
  0
ENDBLK
  5
72
  8
0
  0
BLOCK
  8
0
  2
DA_IMAGEDIMGROUP_13
 70
     0
 10
0.0
 20
0.0
 30
0.0
  3
DA_IMAGEDIMGROUP_13
  1

  0
LINE
  5
11D
  8
0
  6
CONTINUOUS
 62
     9
 10
-203.1461354397687
 20
-97.20113924213129
 30
0.0
 11
-177.1461354397687
 21
-97.20113924213129
 31
0.0
  0
INSERT
  5
11E
  8
0
 62
     9
  2
_OPEN30
 10
-203.1461354397687
 20
-97.20113924213129
 30
0.0
 41
1.50000139391263
 42
1.499998500689492
 50
180.0
  0
INSERT
  5
11F
  8
0
 62
     9
  2
_OPEN30
 10
-177.1461354397687
 20
-97.20113924213129
 30
0.0
 41
1.50000139391263
 42
1.499998500689492
 50
360.0
  0
LINE
  5
120
  8
0
  6
CONTINUOUS
 62
     9
 10
-226.3083153884311
 20
-97.20113924213129
 30
0.0
 11
-203.1461354397687
 21
-97.20113924213129
 31
0.0
  0
LINE
  5
121
  8
0
  6
CONTINUOUS
 62
     9
 10
-203.1461354397687
 20
-71.27766966241165
 30
0.0
 11
-203.1461354397687
 21
-98.20113924213129
 31
0.0
  0
LINE
  5
122
  8
0
  6
CONTINUOUS
 62
     9
 10
-177.1461354397687
 20
-11.7839197114564
 30
0.0
 11
-177.1461354397687
 21
-98.20113924213129
 31
0.0
  0
TEXT
  5
123
  8
0
 62
     7
 10
-223.5439104397686
 20
-95.70113924213129
 30
0.0
 40
4.0
  1
MAX36
 41
0.8
  7
FDASTYLE1
 72
     5
 11
-207.5439104397686
 21
-95.70113924213129
 31
0.0
  0
ENDBLK
  5
75
  8
0
  0
BLOCK
  8
0
  2
DA_IMAGEDIMGROUP_14
 70
     0
 10
0.0
 20
0.0
 30
0.0
  3
DA_IMAGEDIMGROUP_14
  1

  0
LINE
  5
124
  8
0
  6
CONTINUOUS
 62
     9
 10
-153.1461354397687
 20
-97.4243960570233
 30
0.0
 11
-81.14613543976867
 21
-97.4243960570233
 31
0.0
  0
INSERT
  5
125
  8
0
 62
     9
  2
_OPEN30
 10
-153.1461354397687
 20
-97.4243960570233
 30
0.0
 41
1.50000139391263
 42
1.499998500689492
 50
180.0
  0
INSERT
  5
126
  8
0
 62
     9
  2
_OPEN30
 10
-81.14613543976867
 20
-97.4243960570233
 30
0.0
 41
1.50000139391263
 42
1.499998500689492
 50
360.0
  0
LINE
  5
127
  8
0
  6
CONTINUOUS
 62
     9
 10
-153.1461354397687
 20
-89.28391208206188
 30
0.0
 11
-153.1461354397687
 21
-98.4243960570233
 31
0.0
  0
LINE
  5
128
  8
0
  6
CONTINUOUS
 62
     9
 10
-81.14613543976867
 20
-65.28391208206188
 30
0.0
 11
-81.14613543976867
 21
-98.4243960570233
 31
0.0
  0
TEXT
  5
129
  8
0
 62
     7
 10
-120.3461354397687
 20
-95.9243960570233
 30
0.0
 40
4.0
  1
72
 41
0.8000000000000007
  7
FDASTYLE1
 72
     5
 11
-113.9461354397687
 21
-95.9243960570233
 31
0.0
  0
ENDBLK
  5
78
  8
0
  0
BLOCK
  8
0
  2
DA_IMAGEDIMGROUP_15
 70
     0
 10
0.0
 20
0.0
 30
0.0
  3
DA_IMAGEDIMGROUP_15
  1

  0
LINE
  5
12A
  8
0
  6
CONTINUOUS
 62
     9
 10
-203.1461354397687
 20
-107.8231326039033
 30
0.0
 11
-81.14613543976867
 21
-107.8231326039033
 31
0.0
  0
INSERT
  5
12B
  8
0
 62
     9
  2
_OPEN30
 10
-203.1461354397687
 20
-107.8231326039033
 30
0.0
 41
1.50000139391263
 42
1.499998500689492
 50
180.0
  0
INSERT
  5
12C
  8
0
 62
     9
  2
_OPEN30
 10
-81.14613543976867
 20
-107.8231326039033
 30
0.0
 41
1.50000139391263
 42
1.499998500689492
 50
360.0
  0
LINE
  5
12D
  8
0
  6
CONTINUOUS
 62
     9
 10
-203.1461354397687
 20
-71.27766966241165
 30
0.0
 11
-203.1461354397687
 21
-108.8231326039033
 31
0.0
  0
LINE
  5
12E
  8
0
  6
CONTINUOUS
 62
     9
 10
-81.14613543976867
 20
-65.28391208206188
 30
0.0
 11
-81.14613543976867
 21
-108.8231326039033
 31
0.0
  0
TEXT
  5
12F
  8
0
 62
     7
 10
-146.9461354397687
 20
-106.3231326039033
 30
0.0
 40
4.0
  1
122
 41
0.8000000000000019
  7
FDASTYLE1
 72
     5
 11
-137.3461354397687
 21
-106.3231326039033
 31
0.0
  0
ENDBLK
  5
7B
  8
0
  0
BLOCK
  8
0
  2
DA_IMAGEDIMGROUP_16
 70
     0
 10
0.0
 20
0.0
 30
0.0
  3
DA_IMAGEDIMGROUP_16
  1

  0
LINE
  5
130
  8
0
  6
CONTINUOUS
 62
     9
 10
-81.14613543976867
 20
173.0860805847681
 30
0.0
 11
-79.14613543976867
 21
173.0860805847681
 31
0.0
  0
LINE
  5
131
  8
0
  6
CONTINUOUS
 62
     9
 10
-81.14613543976867
 20
157.890441244895
 30
0.0
 11
-81.14613543976867
 21
174.0860805847681
 31
0.0
  0
LINE
  5
132
  8
0
  6
CONTINUOUS
 62
     9
 10
-79.14613543976867
 20
158.6387411161803
 30
0.0
 11
-79.14613543976867
 21
174.0860805847681
 31
0.0
  0
LINE
  5
133
  8
0
  6
CONTINUOUS
 62
     9
 10
-76.64613543976867
 20
151.7160879179381
 30
0.0
 11
-76.64613543976867
 21
174.0860805847681
 31
0.0
  0
LINE
  5
134
  8
0
  6
CONTINUOUS
 62
     9
 10
-119.4411007102886
 20
173.0860805847681
 30
0.0
 11
-81.14613543976867
 21
173.0860805847681
 31
0.0
  0
INSERT
  5
135
  8
0
 62
     9
  2
_OPEN30
 10
-81.14613543976867
 20
173.0860805847681
 30
0.0
 41
1.50000139391263
 42
1.499998500689492
 50
360.0
  0
LINE
  5
136
  8
0
  6
CONTINUOUS
 62
     9
 10
-62.73104176019757
 20
173.0860805847681
 30
0.0
 11
-76.64613543976867
 21
173.0860805847681
 31
0.0
  0
INSERT
  5
137
  8
0
 62
     9
  2
_OPEN30
 10
-76.64613543976867
 20
173.0860805847681
 30
0.0
 41
1.50000139391263
 42
1.499998500689492
 50
180.0
  0
LINE
  5
138
  8
0
  6
CONTINUOUS
 62
     9
 10
-79.14613543976867
 20
173.0860805847681
 30
0.0
 11
-76.64613543976867
 21
173.0860805847681
 31
0.0
  0
INSERT
  5
13E
  8
0
 62
     9
  2
_DOT
 10
-79.14613543976867
 20
173.0860805847681
 30
0.0
 41
2.5
 42
2.5
 50
180.0
  0
TEXT
  5
13F
  8
0
 62
     7
 10
-117.5439104397686
 20
174.5860805847681
 30
0.0
 40
4.0
  1
チャック上面より 2
 41
0.6896551724137932
  7
FDASTYLE1
 72
     5
 11
-85.54391043976858
 21
174.5860805847681
 31
0.0
  0
TEXT
  5
140
  8
0
 62
     7
 10
-72.24836043976853
 20
174.5860805847681
 30
0.0
 40
4.0
  1
2.5
 41
0.8000000000000002
  7
FDASTYLE1
 72
     5
 11
-62.64836043976853
 21
174.5860805847681
 31
0.0
  0
ENDBLK
  5
7E
  8
0
  0
BLOCK
  8
0
  2
DA_IMAGEDIMGROUP_17
 70
     0
 10
0.0
 20
0.0
 30
0.0
  3
DA_IMAGEDIMGROUP_17
  1

  0
LINE
  5
141
  8
0
  6
CONTINUOUS
 62
     9
 10
-38.4037153355842
 20
86.71608028854362
 30
0.0
 11
-38.4037153355842
 21
107.7160802885436
 31
0.0
  0
INSERT
  5
142
  8
0
 62
     9
  2
_OPEN30
 10
-38.4037153355842
 20
86.71608028854362
 30
0.0
 41
1.50000139391263
 42
1.499998500689492
 50
270.0
  0
INSERT
  5
143
  8
0
 62
     9
  2
_OPEN30
 10
-38.4037153355842
 20
107.7160802885436
 30
0.0
 41
1.50000139391263
 42
1.499998500689492
 50
90.0
  0
LINE
  5
144
  8
0
  6
CONTINUOUS
 62
     9
 10
-78.64613543976867
 20
86.71608028854362
 30
0.0
 11
-37.4037153355842
 21
86.71608028854362
 31
0.0
  0
LINE
  5
145
  8
0
  6
CONTINUOUS
 62
     9
 10
-44.16552936066711
 20
107.7160802885436
 30
0.0
 11
-37.4037153355842
 21
107.7160802885436
 31
0.0
  0
TEXT
  5
146
  8
0
 62
     7
 10
-39.9037153355842
 20
89.15427543593322
 30
0.0
 40
4.0
  1
MIN21
 50
90.0
 41
0.8
  7
FDASTYLE1
 72
     5
 11
-39.9037153355842
 21
105.1542754359332
 31
0.0
  0
ENDBLK
  5
81
  8
0
  0
BLOCK
  8
0
  2
DA_IMAGEDIMGROUP_18
 70
     0
 10
0.0
 20
0.0
 30
0.0
  3
DA_IMAGEDIMGROUP_18
  1

  0
LINE
  5
147
  8
0
  6
CONTINUOUS
 62
     9
 10
-28.85656736418497
 20
35.21608791793813
 30
0.0
 11
-28.85656736418497
 21
86.71608028854362
 31
0.0
  0
INSERT
  5
148
  8
0
 62
     9
  2
_OPEN30
 10
-28.85656736418497
 20
35.21608791793813
 30
0.0
 41
1.50000139391263
 42
1.499998500689492
 50
270.0
  0
INSERT
  5
149
  8
0
 62
     9
  2
_OPEN30
 10
-28.85656736418497
 20
86.71608028854362
 30
0.0
 41
1.50000139391263
 42
1.499998500689492
 50
90.0
  0
LINE
  5
14A
  8
0
  6
CONTINUOUS
 62
     9
 10
-28.85656736418497
 20
86.71608028854362
 30
0.0
 11
-28.85656736418497
 21
157.7160947524566
 31
0.0
  0
INSERT
  5
14B
  8
0
 62
     9
  2
_OPEN30
 10
-28.85656736418497
 20
86.71608028854362
 30
0.0
 41
1.50000139391263
 42
1.499998500689492
 50
270.0
  0
INSERT
  5
14C
  8
0
 62
     9
  2
_OPEN30
 10
-28.85656736418497
 20
157.7160947524566
 30
0.0
 41
1.50000139391263
 42
1.499998500689492
 50
90.0
  0
LINE
  5
14D
  8
0
  6
CONTINUOUS
 62
     9
 10
-48.07713861882058
 20
35.21608791793813
 30
0.0
 11
-27.85656736418497
 21
35.21608791793813
 31
0.0
  0
LINE
  5
14E
  8
0
  6
CONTINUOUS
 62
     9
 10
-78.64613543976867
 20
86.71608028854362
 30
0.0
 11
-9.762271421392882
 21
86.71608028854362
 31
0.0
  0
LINE
  5
14F
  8
0
  6
CONTINUOUS
 62
     9
 10
-78.64613689217214
 20
157.7160947524566
 30
0.0
 11
-27.85656736418497
 21
157.7160947524566
 31
0.0
  0
TEXT
  5
150
  8
0
 62
     7
 10
-30.35656736418497
 20
51.36608410324089
 30
0.0
 40
4.0
  1
MAX 54
 50
90.0
 41
0.8000000000000002
  7
FDASTYLE1
 72
     5
 11
-30.35656736418497
 21
70.5660841032409
 31
0.0
  0
TEXT
  5
151
  8
0
 62
     7
 10
-30.35656736418497
 20
119.0160875205001
 30
0.0
 40
4.0
  1
71
 50
90.0
 41
0.8000000000000007
  7
FDASTYLE1
 72
     5
 11
-30.35656736418497
 21
125.4160875205001
 31
0.0
  0
ENDBLK
  5
84
  8
0
  0
BLOCK
  8
0
  2
DA_IMAGEDIMGROUP_19
 70
     0
 10
0.0
 20
0.0
 30
0.0
  3
DA_IMAGEDIMGROUP_19
  1

  0
LINE
  5
152
  8
0
  6
CONTINUOUS
 62
     9
 10
-12.498763457287
 20
76.71608028854362
 30
0.0
 11
-12.498763457287
 21
96.71608028854362
 31
0.0
  0
INSERT
  5
153
  8
0
 62
     9
  2
_OPEN30
 10
-12.498763457287
 20
76.71608028854362
 30
0.0
 41
1.50000139391263
 42
1.499998500689492
 50
270.0
  0
INSERT
  5
154
  8
0
 62
     9
  2
_OPEN30
 10
-12.498763457287
 20
96.71608028854362
 30
0.0
 41
1.50000139391263
 42
1.499998500689492
 50
90.0
  0
ENDBLK
  5
87
  8
0
  0
BLOCK
  8
0
  2
DC_GROUP_2
 70
     0
 10
0.0
 20
0.0
 30
0.0
  3
DC_GROUP_2
  1

  0
CIRCLE
  5
155
  8
0
  6
CONTINUOUS
 62
     3
 10
135.1367193490405
 20
-50.48389689349742
 30
0.0
 40
12.0
  0
LINE
  5
156
  8
0
  6
CONTINUOUS
 62
     3
 10
135.1367193490405
 20
-42.40099312484264
 30
0.0
 11
128.1367193490405
 21
-46.44244500917003
 31
0.0
  0
LINE
  5
157
  8
0
  6
CONTINUOUS
 62
     3
 10
128.1367193490405
 20
-46.44244500917003
 30
0.0
 11
128.1367193490405
 21
-54.52534877782481
 31
0.0
  0
LINE
  5
158
  8
0
  6
CONTINUOUS
 62
     3
 10
128.1367193490405
 20
-54.52534877782481
 30
0.0
 11
135.1367193490405
 21
-58.56680066215218
 31
0.0
  0
LINE
  5
159
  8
0
  6
CONTINUOUS
 62
     3
 10
135.1367193490405
 20
-58.56680066215218
 30
0.0
 11
142.1367193490405
 21
-54.5253487778248
 31
0.0
  0
LINE
  5
15A
  8
0
  6
CONTINUOUS
 62
     3
 10
142.1367193490405
 20
-54.5253487778248
 30
0.0
 11
142.1367193490405
 21
-46.44244500917003
 31
0.0
  0
LINE
  5
15B
  8
0
  6
CONTINUOUS
 62
     3
 10
142.1367193490405
 20
-46.44244500917003
 30
0.0
 11
135.1367193490405
 21
-42.40099312484264
 31
0.0
  0
ENDBLK
  5
8A
  8
0
  0
BLOCK
  8
0
  2
DA_IMAGEDIMGROUP_20
 70
     0
 10
0.0
 20
0.0
 30
0.0
  3
DA_IMAGEDIMGROUP_20
  1

  0
LINE
  5
15C
  8
0
  6
CONTINUOUS
 62
     9
 10
-203.1461354397687
 20
-71.2839120820619
 30
0.0
 11
-203.1461354397687
 21
-79.49644321860757
 31
0.0
  0
LINE
  5
15D
  8
0
  6
CONTINUOUS
 62
     9
 10
-228.1461354397687
 20
-59.98390903030406
 30
0.0
 11
-228.1461354397687
 21
-79.49644321860757
 31
0.0
  0
LINE
  5
15E
  8
0
  6
CONTINUOUS
 62
     9
 10
-203.1461354397687
 20
-77.99644321860757
 30
0.0
 11
-202.6461354397687
 21
-77.99644321860757
 31
0.0
  0
LINE
  5
15F
  8
0
  6
CONTINUOUS
 62
     9
 10
-228.1461354397687
 20
-77.99644321860757
 30
0.0
 11
-203.1461354397687
 21
-77.99644321860757
 31
0.0
  0
INSERT
  5
160
  8
0
 62
     9
  2
_OPEN30
 10
-228.1461354397687
 20
-77.99644321860757
 30
0.0
 41
1.50000139391263
 42
1.499998500689492
 50
180.0
  0
INSERT
  5
161
  8
0
 62
     9
  2
_OPEN30
 10
-203.1461354397687
 20
-77.99644321860757
 30
0.0
 41
1.50000139391263
 42
1.499998500689492
 50
360.0
  0
LINE
  5
162
  8
0
  6
CONTINUOUS
 62
     9
 10
-182.3483604397687
 20
-77.99644321860757
 30
0.0
 11
-202.6461354397687
 21
-77.99644321860757
 31
0.0
  0
INSERT
  5
163
  8
0
 62
     9
  2
_OPEN30
 10
-202.6461354397687
 20
-77.99644321860757
 30
0.0
 41
1.50000139391263
 42
1.499998500689492
 50
180.0
  0
TEXT
  5
164
  8
0
 62
     7
 10
-218.8461354397687
 20
-76.49644321860757
 30
0.0
 40
4.0
  1
25
 41
0.7999999999999972
  7
FDASTYLE1
 72
     5
 11
-212.4461354397687
 21
-76.49644321860757
 31
0.0
  0
TEXT
  5
165
  8
0
 62
     7
 10
-198.2483604397685
 20
-76.49644321860757
 30
0.0
 40
4.0
  1
0.5
 41
0.7999999999999995
  7
FDASTYLE1
 72
     5
 11
-188.6483604397685
 21
-76.49644321860757
 31
0.0
  0
ENDBLK
  5
8D
  8
0
  0
BLOCK
  8
0
  2
DA_IMAGEDIMGROUP_21
 70
     0
 10
0.0
 20
0.0
 30
0.0
  3
DA_IMAGEDIMGROUP_21
  1

  0
LINE
  5
166
  8
0
  6
CONTINUOUS
 62
     9
 10
-237.3456388415273
 20
-58.48390903030406
 30
0.0
 11
-237.3456388415273
 21
-42.48390903030406
 31
0.0
  0
INSERT
  5
167
  8
0
 62
     9
  2
_OPEN30
 10
-237.3456388415273
 20
-58.48390903030406
 30
0.0
 41
1.50000139391263
 42
1.499998500689492
 50
270.0
  0
INSERT
  5
168
  8
0
 62
     9
  2
_OPEN30
 10
-237.3456388415273
 20
-42.48390903030406
 30
0.0
 41
1.50000139391263
 42
1.499998500689492
 50
90.0
  0
LINE
  5
169
  8
0
  6
CONTINUOUS
 62
     9
 10
-229.6461354397687
 20
-58.48390903030406
 30
0.0
 11
-238.3456388415273
 21
-58.48390903030406
 31
0.0
  0
LINE
  5
16A
  8
0
  6
CONTINUOUS
 62
     9
 10
-229.6461354397687
 20
-42.48390903030406
 30
0.0
 11
-238.3456388415273
 21
-42.48390903030406
 31
0.0
  0
TEXT
  5
16B
  8
0
 62
     7
 10
-238.8456388415273
 20
-56.39198403028249
 30
0.0
 40
4.0
  1
M16
 50
90.0
 41
0.8000000000000019
  7
FDASTYLE1
 72
     5
 11
-238.8456388415273
 21
-46.79198403028247
 31
0.0
  0
ENDBLK
  5
90
  8
0
  0
BLOCK
  8
0
  2
DA_IMAGEDIMGROUP_22
 70
     0
 10
0.0
 20
0.0
 30
0.0
  3
DA_IMAGEDIMGROUP_22
  1

  0
LINE
  5
16C
  8
0
  6
CONTINUOUS
 62
     9
 10
-258.990280172661
 20
-69.7839120820619
 30
0.0
 11
-258.990280172661
 21
140.2160879179382
 31
0.0
  0
INSERT
  5
16D
  8
0
 62
     9
  2
_OPEN30
 10
-258.990280172661
 20
-69.7839120820619
 30
0.0
 41
1.50000139391263
 42
1.499998500689492
 50
270.0
  0
INSERT
  5
16E
  8
0
 62
     9
  2
_OPEN30
 10
-258.990280172661
 20
140.2160879179382
 30
0.0
 41
1.50000139391263
 42
1.499998500689492
 50
90.0
  0
LINE
  5
16F
  8
0
  6
CONTINUOUS
 62
     9
 10
-204.6461354397687
 20
-69.7839120820619
 30
0.0
 11
-259.990280172661
 21
-69.7839120820619
 31
0.0
  0
LINE
  5
170
  8
0
  6
CONTINUOUS
 62
     9
 10
-204.6461354397687
 20
140.2160879179382
 30
0.0
 11
-259.990280172661
 21
140.2160879179382
 31
0.0
  0
TEXT
  5
171
  8
0
 62
     7
 10
-260.490280172661
 20
28.81608791793815
 30
0.0
 40
4.0
  1
φ210
 50
90.0
 41
0.7619047619047609
  7
FDASTYLE1
 72
     5
 11
-260.490280172661
 21
41.61608791793813
 31
0.0
  0
ENDBLK
  5
93
  8
0
  0
BLOCK
  8
0
  2
DA_IMAGEDIMGROUP_23
 70
     0
 10
0.0
 20
0.0
 30
0.0
  3
DA_IMAGEDIMGROUP_23
  1

  0
LINE
  5
172
  8
0
  6
CONTINUOUS
 62
     9
 10
-246.5851571908184
 20
-34.64340711176476
 30
0.0
 11
-246.5851571908184
 21
105.0755836997312
 31
0.0
  0
INSERT
  5
173
  8
0
 62
     9
  2
_OPEN30
 10
-246.5851571908184
 20
-34.64340711176476
 30
0.0
 41
1.50000139391263
 42
1.499998500689492
 50
270.0
  0
INSERT
  5
174
  8
0
 62
     9
  2
_OPEN30
 10
-246.5851571908184
 20
105.0755836997312
 30
0.0
 41
1.50000139391263
 42
1.499998500689492
 50
90.0
  0
LINE
  5
175
  8
0
  6
CONTINUOUS
 62
     9
 10
-204.6461354397687
 20
-34.64340711176477
 30
0.0
 11
-247.5851571908184
 21
-34.64340711176476
 31
0.0
  0
LINE
  5
176
  8
0
  6
CONTINUOUS
 62
     9
 10
-204.6461354397687
 20
105.0755836997312
 30
0.0
 11
-247.5851571908184
 21
105.0755836997312
 31
0.0
  0
TEXT
  5
177
  8
0
 62
     7
 10
-248.0851571908184
 20
6.416088293983194
 30
0.0
 40
4.0
  1
φ139.719（A2-8ﾃｰﾊﾟ）
 50
90.0
 41
0.774193548387097
  7
FDASTYLE1
 72
     5
 11
-248.0851571908184
 21
64.01608829398322
 31
0.0
  0
ENDBLK
  5
96
  8
0
  0
BLOCK
  8
0
  2
DA_IMAGEDIMGROUP_24
 70
     0
 10
0.0
 20
0.0
 30
0.0
  3
DA_IMAGEDIMGROUP_24
  1

  0
LINE
  5
178
  8
LAYER0014
  6
CONTINUOUS
 62
     7
 10
-204.6230585648557
 20
-34.82802254356092
 30
0.0
 11
-249.575748167702
 21
-40.44709558024392
 31
0.0
  0
ENDBLK
  5
99
  8
0
  0
BLOCK
  8
0
  2
DA_IMAGEDIMGROUP_25
 70
     0
 10
0.0
 20
0.0
 30
0.0
  3
DA_IMAGEDIMGROUP_25
  1

  0
ARC
  5
179
  8
0
  6
CONTINUOUS
 62
     9
 10
-159.2952141264175
 20
-34.64340711176477
 30
0.0
 40
87.28994306440092
 50
180.0
 51
187.1249998288782
  0
ARC
  5
17A
  8
0
  6
CONTINUOUS
 62
     9
 10
-159.2952141264175
 20
-34.64340711176477
 30
0.0
 40
87.28994306440092
 50
187.1249998288782
 51
194.3969513581378
  0
INSERT
  5
17B
  8
0
 62
     9
  2
_OPEN30
 10
-245.9110966105462
 20
-45.47036705821144
 30
0.0
 41
1.50000139391263
 42
1.499998500689492
 50
97.6172887169983
  0
ENDBLK
  5
9C
  8
0
  0
BLOCK
  8
0
  2
DA_IMAGEDIMGROUP_26
 70
     0
 10
0.0
 20
0.0
 30
0.0
  3
DA_IMAGEDIMGROUP_26
  1

  0
LINE
  5
17C
  8
0
  6
CONTINUOUS
 62
     9
 10
-236.3456388415273
 20
108.8160848661803
 30
0.0
 11
-236.3456388415273
 21
133.0160848661803
 31
0.0
  0
INSERT
  5
17D
  8
0
 62
     9
  2
_OPEN30
 10
-236.3456388415273
 20
108.8160848661803
 30
0.0
 41
1.50000139391263
 42
1.499998500689492
 50
270.0
  0
INSERT
  5
17E
  8
0
 62
     9
  2
_OPEN30
 10
-236.3456388415273
 20
133.0160848661803
 30
0.0
 41
1.50000139391263
 42
1.499998500689492
 50
90.0
  0
LINE
  5
17F
  8
0
  6
CONTINUOUS
 62
     9
 10
-204.6461354397687
 20
108.8160848661803
 30
0.0
 11
-237.3456388415273
 21
108.8160848661803
 31
0.0
  0
LINE
  5
180
  8
0
  6
CONTINUOUS
 62
     9
 10
-204.6461354397687
 20
133.0160848661803
 30
0.0
 11
-237.3456388415273
 21
133.0160848661803
 31
0.0
  0
TEXT
  5
181
  8
0
 62
     7
 10
-237.3456388415273
 20
110.3705241115698
 30
0.0
 40
4.0
  1
φ24.2
 50
90.0
 41
0.7692307692307692
  7
FDASTYLE1
 72
     5
 11
-237.3456388415273
 21
126.3705241115698
 31
0.0
  0
TEXT
  5
182
  8
0
 62
     7
 10
-239.5456388415274
 20
127.3705241115698
 30
0.0
 40
2.2
  1
+0.1
 50
90.0
 41
0.7999999999999991
  7
FDASTYLE1
 72
     5
 11
-239.5456388415274
 21
134.4105241115698
 31
0.0
  0
TEXT
  5
183
  8
0
 62
     7
 10
-237.1456388415273
 20
127.3705241115698
 30
0.0
 40
2.2
  1
 0
 50
90.0
 41
0.8000000000000023
  7
FDASTYLE1
 72
     5
 11
-237.1456388415273
 21
130.8905241115698
 31
0.0
  0
ENDBLK
  5
9F
  8
0
  0
BLOCK
  8
0
  2
DC_GROUP_3
 70
     0
 10
0.0
 20
0.0
 30
0.0
  3
DC_GROUP_3
  1

  0
LINE
  5
184
  8
0
  6
CONTINUOUS
 62
     9
 10
-182.3603263097348
 20
120.9160848661803
 30
0.0
 11
-228.6935009000713
 21
120.9160848661803
 31
0.0
  0
LINE
  5
185
  8
0
  6
CONTINUOUS
 62
     9
 10
-225.0600315911834
 20
35.21608791793813
 30
0.0
 11
-228.6935009000713
 21
35.21608791793813
 31
0.0
  0
LINE
  5
186
  8
0
  6
CONTINUOUS
 62
     9
 10
-227.1935009000713
 20
35.21608791793813
 30
0.0
 11
-227.1935009000713
 21
120.9160848661803
 31
0.0
  0
INSERT
  5
187
  8
0
 62
     9
  2
_OPEN30
 10
-227.1935009000713
 20
35.21608791793813
 30
0.0
 41
1.50000139391263
 42
1.499998500689492
 50
270.0
  0
INSERT
  5
188
  8
0
 62
     9
  2
_OPEN30
 10
-227.1935009000713
 20
120.9160848661803
 30
0.0
 41
1.50000139391263
 42
1.499998500689492
 50
90.0
  0
TEXT
  5
189
  8
0
 62
     7
 10
-228.6935009000713
 20
70.06608639205925
 30
0.0
 40
4.0
  1
R85.7
 50
90.0
 41
0.8
  7
FDASTYLE1
 72
     5
 11
-228.6935009000713
 21
86.06608639205925
 31
0.0
  0
ENDBLK
  5
A2
  8
0
  0
BLOCK
  8
0
  2
DA_IMAGEDIMGROUP_27
 70
     0
 10
0.0
 20
0.0
 30
0.0
  3
DA_IMAGEDIMGROUP_27
  1

  0
LINE
  5
18A
  8
0
  6
CONTINUOUS
 62
     9
 10
-195.1461354397687
 20
134.5160848661803
 30
0.0
 11
-195.1461354397687
 21
174.4364376922515
 31
0.0
  0
LINE
  5
18B
  8
0
  6
CONTINUOUS
 62
     9
 10
-203.1461354397687
 20
141.7160879179382
 30
0.0
 11
-203.1461354397687
 21
174.4364376922515
 31
0.0
  0
LINE
  5
18C
  8
0
  6
CONTINUOUS
 62
     9
 10
-203.1461354397687
 20
172.9364376922515
 30
0.0
 11
-195.1461354397687
 21
172.9364376922515
 31
0.0
  0
LINE
  5
18D
  8
0
  6
CONTINUOUS
 62
     9
 10
-213.8439104397688
 20
172.9364376922515
 30
0.0
 11
-203.1461354397687
 21
172.9364376922515
 31
0.0
  0
INSERT
  5
18E
  8
0
 62
     9
  2
_OPEN30
 10
-203.1461354397687
 20
172.9364376922515
 30
0.0
 41
1.50000139391263
 42
1.499998500689492
 50
360.0
  0
LINE
  5
18F
  8
0
  6
CONTINUOUS
 62
     9
 10
-187.6461354397687
 20
172.9364376922515
 30
0.0
 11
-195.1461354397687
 21
172.9364376922515
 31
0.0
  0
INSERT
  5
190
  8
0
 62
     9
  2
_OPEN30
 10
-195.1461354397687
 20
172.9364376922515
 30
0.0
 41
1.50000139391263
 42
1.499998500689492
 50
180.0
  0
TEXT
  5
191
  8
0
 62
     7
 10
-210.7439104397686
 20
174.4364376922515
 30
0.0
 40
4.0
  1
8
 41
0.7999999999999972
  7
FDASTYLE1
 72
     5
 11
-207.5439104397686
 21
174.4364376922515
 31
0.0
  0
ENDBLK
  5
A5
  8
0
  0
BLOCK
  8
0
  2
DC_GROUP_4
 70
     0
 10
0.0
 20
0.0
 30
0.0
  3
DC_GROUP_4
  1

  0
LINE
  5
192
  8
0
  6
CONTINUOUS
 62
     3
 10
-149.3494748990138
 20
-39.4391560771025
 30
0.0
 11
-148.4317116405373
 21
-40.7270104530107
 31
0.0
  0
LINE
  5
193
  8
0
  6
CONTINUOUS
 62
     3
 10
-148.4317116405373
 20
-40.7270104530107
 30
0.0
 11
-147.571159650262
 21
-42.02991608276654
 31
0.0
  0
LINE
  5
194
  8
0
  6
CONTINUOUS
 62
     3
 10
-147.571159650262
 20
-42.02991608276654
 30
0.0
 11
-146.8250301963888
 21
-43.36292422021763
 31
0.0
  0
LINE
  5
195
  8
0
  6
CONTINUOUS
 62
     3
 10
-146.8250301963888
 20
-43.36292422021763
 30
0.0
 11
-146.2505345471187
 21
-44.7410861192116
 31
0.0
  0
LINE
  5
196
  8
0
  6
CONTINUOUS
 62
     3
 10
-146.2505345471187
 20
-44.7410861192116
 30
0.0
 11
-145.9044448760886
 21
-46.1793369478811
 31
0.0
  0
LINE
  5
197
  8
0
  6
CONTINUOUS
 62
     3
 10
-145.9044448760886
 20
-46.1793369478811
 30
0.0
 11
-145.7940321571799
 21
-47.67952498458741
 31
0.0
  0
LINE
  5
198
  8
0
  6
CONTINUOUS
 62
     3
 10
-145.7940321571799
 20
-47.67952498458741
 30
0.0
 11
-145.8323213588879
 21
-49.21858220081432
 31
0.0
  0
LINE
  5
199
  8
0
  6
CONTINUOUS
 62
     3
 10
-145.8323213588879
 20
-49.21858220081432
 30
0.0
 11
-145.9217687395627
 21
-50.77064646314752
 31
0.0
  0
LINE
  5
19A
  8
0
  6
CONTINUOUS
 62
     3
 10
-145.9217687395627
 20
-50.77064646314752
 30
0.0
 11
-145.9648305575536
 21
-52.30985563817274
 31
0.0
  0
LINE
  5
19B
  8
0
  6
CONTINUOUS
 62
     3
 10
-145.9648305575536
 20
-52.30985563817274
 30
0.0
 11
-145.8639630712112
 21
-53.81034759247569
 31
0.0
  0
LINE
  5
19C
  8
0
  6
CONTINUOUS
 62
     3
 10
-145.8639630712112
 20
-53.81034759247569
 30
0.0
 11
-145.5281136952233
 21
-55.24798617271903
 31
0.0
  0
LINE
  5
19D
  8
0
  6
CONTINUOUS
 62
     3
 10
-145.5281136952233
 20
-55.24798617271903
 30
0.0
 11
-144.9534937394417
 21
-56.62183844801788
 31
0.0
  0
LINE
  5
19E
  8
0
  6
CONTINUOUS
 62
     3
 10
-144.9534937394417
 20
-56.62183844801788
 30
0.0
 11
-144.1987783444486
 21
-57.94758044308053
 31
0.0
  0
LINE
  5
19F
  8
0
  6
CONTINUOUS
 62
     3
 10
-144.1987783444486
 20
-57.94758044308053
 30
0.0
 11
-143.3239993233145
 21
-59.24124891798574
 31
0.0
  0
LINE
  5
1A0
  8
0
  6
CONTINUOUS
 62
     3
 10
-143.3239993233145
 20
-59.24124891798574
 30
0.0
 11
-142.3891884891096
 21
-60.51888063281222
 31
0.0
  0
ENDBLK
  5
A8
  8
0
  0
BLOCK
  8
0
  2
DC_GROUP_5
 70
     0
 10
0.0
 20
0.0
 30
0.0
  3
DC_GROUP_5
  1

  0
LINE
  5
1A1
  8
0
  6
CONTINUOUS
 62
     7
 10
-79.14613543976867
 20
153.2616478210108
 30
0.0
 11
-49.1644881536634
 21
172.2709871827805
 31
0.0
  0
INSERT
  5
1A2
  8
0
 62
     7
  2
_OPEN30
 10
-79.14613543976867
 20
153.2616478210108
 30
0.0
 41
1.50000139391263
 42
1.499998500689492
 50
212.3760263468166
  0
LINE
  5
1A3
  8
0
  6
CONTINUOUS
 62
     7
 10
-49.1644881536634
 20
172.2709871827805
 30
0.0
 11
-2.959928491777703
 21
172.2709871827805
 31
0.0
  0
TEXT
  5
1A4
  8
0
 62
     7
 10
-49.1644881536634
 20
172.2709871827805
 30
0.0
 40
4.0
  1
セレーションP1.5 山60゜
 41
0.7228915662650601
  7
FDASTYLE1
 72
     5
 11
-1.164488153663399
 21
172.2709871827805
 31
0.0
  0
ENDBLK
  5
AB
  8
0
  0
BLOCK
  8
0
  2
DC_GROUP_6
 70
     0
 10
0.0
 20
0.0
 30
0.0
  3
DC_GROUP_6
  1

  0
LINE
  5
1A5
  8
0
  6
CONTINUOUS
 62
     7
 10
-54.70065413239337
 20
145.0314286376107
 30
0.0
 11
-34.39633122081551
 21
161.1851441031753
 31
0.0
  0
INSERT
  5
1A6
  8
0
 62
     7
  2
_OPEN30
 10
-54.70065413239337
 20
145.0314286376107
 30
0.0
 41
1.50000139391263
 42
1.499998500689492
 50
218.5050597322954
  0
LINE
  5
1A7
  8
0
  6
CONTINUOUS
 62
     7
 10
-34.39633122081551
 20
161.1851441031753
 30
0.0
 11
-24.54841684209652
 21
161.1851441031753
 31
0.0
  0
TEXT
  5
1A8
  8
0
 62
     7
 10
-34.39633122081551
 20
161.1851441031753
 30
0.0
 40
4.0
  1
M16
 41
0.8000000000000002
  7
FDASTYLE1
 72
     5
 11
-24.79633122081551
 21
161.1851441031753
 31
0.0
  0
ENDBLK
  5
AE
  8
0
  0
BLOCK
  8
0
  2
DC_GROUP_7
 70
     0
 10
0.0
 20
0.0
 30
0.0
  3
DC_GROUP_7
  1

  0
LINE
  5
1A9
  8
0
  6
CONTINUOUS
 62
     7
 10
98.50219102898919
 20
73.24729631697989
 30
0.0
 11
66.5914014136695
 21
153.3055833815343
 31
0.0
  0
INSERT
  5
1AA
  8
0
 62
     7
  2
_OPEN30
 10
98.50219102898919
 20
73.24729631697989
 30
0.0
 41
1.50000139391263
 42
1.499998500689492
 50
291.7319520881514
  0
LINE
  5
1AB
  8
0
  6
CONTINUOUS
 62
     7
 10
66.5914014136695
 20
153.3055833815343
 30
0.0
 11
21.79140141366955
 21
153.3055833815343
 31
0.0
  0
TEXT
  5
1AC
  8
0
 62
     7
 10
21.79140141366955
 20
153.3055833815343
 30
0.0
 40
4.0
  1
3-M5タップ　PCD101
 41
0.7567567567567569
  7
FDASTYLE1
 72
     5
 11
66.59140141366956
 21
153.3055833815343
 31
0.0
  0
ENDBLK
  5
B1
  8
0
  0
BLOCK
  8
0
  2
DA_IMAGEDIMGROUP_28
 70
     0
 10
0.0
 20
0.0
 30
0.0
  3
DA_IMAGEDIMGROUP_28
  1

  0
LINE
  5
1AD
  8
0
  6
CONTINUOUS
 62
     9
 10
11.03418695029947
 20
-24.31017161181363
 30
0.0
 11
21.53418695029946
 21
-42.49670509128681
 31
0.0
  0
LINE
  5
1AE
  8
0
  6
CONTINUOUS
 62
     9
 10
22.93260321781601
 20
-17.44061777683272
 30
0.0
 11
10.16816154651503
 21
-24.81017161181363
 31
0.0
  0
LINE
  5
1AF
  8
0
  6
CONTINUOUS
 62
     9
 10
33.432603217816
 20
-35.62715125630591
 30
0.0
 11
20.66816154651502
 21
-42.99670509128681
 31
0.0
  0
LINE
  5
1B0
  8
0
  6
CONTINUOUS
 62
     9
 10
24.03418695029946
 20
-46.82683211020901
 30
0.0
 11
21.53418695029946
 21
-42.49670509128681
 31
0.0
  0
INSERT
  5
1B1
  8
0
 62
     9
  2
_OPEN30
 10
21.53418695029946
 20
-42.49670509128681
 30
0.0
 41
1.50000139391263
 42
1.499998500689492
 50
120.0
  0
LINE
  5
1B2
  8
0
  6
CONTINUOUS
 62
     9
 10
8.534186950299461
 20
-19.98004459289144
 30
0.0
 11
11.03418695029947
 21
-24.31017161181363
 31
0.0
  0
INSERT
  5
1B3
  8
0
 62
     9
  2
_OPEN30
 10
11.03418695029947
 20
-24.31017161181363
 30
0.0
 41
1.50000139391263
 42
1.499998500689492
 50
300.0000000000001
  0
TEXT
  5
1B4
  8
0
 62
     7
 10
13.95021235408389
 20
-27.36087576732982
 30
0.0
 40
4.0
  1
21H8
 50
-59.99999999999999
 41
0.7999999999999998
  7
FDASTYLE1
 72
     5
 11
20.35021235408389
 21
-38.44600093577063
 31
0.0
  0
ENDBLK
  5
B4
  8
0
  0
BLOCK
  8
0
  2
DA_IMAGEDIMGROUP_29
 70
     0
 10
0.0
 20
0.0
 30
0.0
  3
DA_IMAGEDIMGROUP_29
  1

  0
LINE
  5
1B5
  8
0
  6
CONTINUOUS
 62
     9
 10
40.03161090547134
 20
-47.40570434547914
 30
0.0
 11
20.29332857992428
 21
-58.80160288326413
 31
0.0
  0
LINE
  5
1B6
  8
0
  6
CONTINUOUS
 62
     9
 10
16.03160224703174
 20
-5.836455098027464
 30
0.0
 11
-3.706680078515305
 21
-17.23235363581244
 31
0.0
  0
LINE
  5
1B7
  8
0
  6
CONTINUOUS
 62
     9
 10
21.15935406115106
 20
-58.30160301739823
 30
0.0
 11
-2.84065459728852
 21
-16.73235376994654
 31
0.0
  0
INSERT
  5
1B8
  8
0
 62
     9
  2
_OPEN30
 10
21.15935406115106
 20
-58.30160301739823
 30
0.0
 41
1.50000139391263
 42
1.499998500689492
 50
299.9999911257599
  0
INSERT
  5
1B9
  8
0
 62
     9
  2
_OPEN30
 10
-2.84065459728852
 20
-16.73235376994654
 30
0.0
 41
1.50000139391263
 42
1.499998500689492
 50
119.9999911257599
  0
TEXT
  5
1BA
  8
0
 62
     7
 10
8.425375642387168
 20
-34.24569698788078
 30
0.0
 40
4.0
  1
48
 50
-60.00000887424011
 41
0.7999999999999996
  7
FDASTYLE1
 72
     5
 11
11.62537478392894
 21
-39.78826006773218
 31
0.0
  0
ENDBLK
  5
B7
  8
0
  0
BLOCK
  8
0
  2
DA_IMAGEDIMGROUP_30
 70
     0
 10
0.0
 20
0.0
 30
0.0
  3
DA_IMAGEDIMGROUP_30
  1

  0
LINE
  5
1BB
  8
0
  6
CONTINUOUS
 62
     9
 10
209.7845654910864
 20
-65.78391208206188
 30
0.0
 11
270.8596890405736
 21
-65.78391208206188
 31
0.0
  0
LINE
  5
1BC
  8
0
  6
CONTINUOUS
 62
     9
 10
269.5571027225317
 20
35.21608791793813
 30
0.0
 11
270.8596890405736
 21
35.21608791793813
 31
0.0
  0
LINE
  5
1BD
  8
0
  6
CONTINUOUS
 62
     9
 10
269.8596890405736
 20
-65.78391208206188
 30
0.0
 11
269.8596890405736
 21
35.21608791793813
 31
0.0
  0
INSERT
  5
1BE
  8
0
 62
     9
  2
_OPEN30
 10
269.8596890405736
 20
-65.78391208206188
 30
0.0
 41
1.50000139391263
 42
1.499998500689492
 50
270.0
  0
INSERT
  5
1BF
  8
0
 62
     9
  2
_OPEN30
 10
269.8596890405736
 20
35.21608791793813
 30
0.0
 41
1.50000139391263
 42
1.499998500689492
 50
90.0
  0
TEXT
  5
1C0
  8
0
 62
     7
 10
268.8596890405736
 20
-20.08391208206188
 30
0.0
 40
4.0
  1
101
 50
90.0
 41
0.8000000000000019
  7
FDASTYLE1
 72
     5
 11
268.8596890405736
 21
-10.48391208206186
 31
0.0
  0
ENDBLK
  5
BA
  8
0
  0
BLOCK
  8
0
  2
DA_IMAGEDIMGROUP_31
 70
     0
 10
0.0
 20
0.0
 30
0.0
  3
DA_IMAGEDIMGROUP_31
  1

  0
LINE
  5
1C1
  8
0
  6
CONTINUOUS
 62
     9
 10
-19.73413061754268
 20
6.423124253760276
 30
0.0
 11
-6.25749380673132
 21
14.20386414425301
 31
0.0
  0
LINE
  5
1C2
  8
0
  6
CONTINUOUS
 62
     9
 10
-10.62766389349346
 20
-9.103873714014394
 30
0.0
 11
2.742510216582074
 21
-1.384600092450114
 31
0.0
  0
LINE
  5
1C3
  8
0
  6
CONTINUOUS
 62
     9
 10
-7.556531912407978
 20
13.45386414425301
 30
0.0
 11
1.443472110905416
 21
-2.134600092450114
 31
0.0
  0
INSERT
  5
1C4
  8
0
 62
     9
  2
_OPEN30
 10
-7.556531912407978
 20
13.45386414425301
 30
0.0
 41
1.50000139391263
 42
1.499998500689492
 50
120.0
  0
INSERT
  5
1C5
  8
0
 62
     9
  2
_OPEN30
 10
1.443472110905416
 20
-2.134600092450114
 30
0.0
 41
1.50000139391263
 42
1.499998500689492
 50
299.9999999999999
  0
TEXT
  5
1C6
  8
0
 62
     7
 10
-4.15749179507463
 20
10.56655396406676
 30
0.0
 40
4.0
  1
φ18
 50
-59.99999999999999
 41
0.7500000000000001
  7
FDASTYLE1
 72
     5
 11
0.6425082049253708
 21
2.252710087736146
 31
0.0
  0
ENDBLK
  5
BD
  8
0
  0
BLOCK
  8
0
  2
DA_IMAGEDIMGROUP_32
 70
     0
 10
0.0
 20
0.0
 30
0.0
  3
DA_IMAGEDIMGROUP_32
  1

  0
LINE
  5
1C7
  8
0
  6
CONTINUOUS
 62
     9
 10
-152.1461354397687
 20
13.62863026107777
 30
0.0
 11
-92.14613543976867
 21
13.62863026107777
 31
0.0
  0
INSERT
  5
1C8
  8
0
 62
     9
  2
_OPEN30
 10
-152.1461354397687
 20
13.62863026107777
 30
0.0
 41
1.50000139391263
 42
1.499998500689492
 50
180.0
  0
INSERT
  5
1C9
  8
0
 62
     9
  2
_OPEN30
 10
-92.14613543976867
 20
13.62863026107777
 30
0.0
 41
1.50000139391263
 42
1.499998500689492
 50
360.0
  0
LINE
  5
1CA
  8
0
  6
CONTINUOUS
 62
     9
 10
-92.14613543976867
 20
13.62863026107777
 30
0.0
 11
-81.64613543976867
 21
13.62863026107777
 31
0.0
  0
LINE
  5
1CB
  8
0
  6
CONTINUOUS
 62
     9
 10
-95.6516243205662
 20
25.38617115408922
 30
0.0
 11
-86.89613543976867
 21
13.62863026107777
 31
0.0
  0
LINE
  5
1CC
  8
0
  6
CONTINUOUS
 62
     9
 10
-110.4516243205662
 20
25.38617115408923
 30
0.0
 11
-95.6516243205662
 21
25.38617115408922
 31
0.0
  0
LINE
  5
1CD
  8
0
  6
CONTINUOUS
 62
     9
 10
-76.64613543976867
 20
13.62863026107777
 30
0.0
 11
-81.64613543976867
 21
13.62863026107777
 31
0.0
  0
INSERT
  5
1CE
  8
0
 62
     9
  2
_OPEN30
 10
-81.64613543976867
 20
13.62863026107777
 30
0.0
 41
1.50000139391263
 42
1.499998500689492
 50
180.0
  0
TEXT
  5
1CF
  8
0
 62
     7
 10
-125.3461354397687
 20
14.62863026107777
 30
0.0
 40
4.0
  1
60
 41
0.8000000000000007
  7
FDASTYLE1
 72
     5
 11
-118.9461354397687
 21
14.62863026107777
 31
0.0
  0
TEXT
  5
1D0
  8
0
 62
     7
 10
-109.4516243205662
 20
26.38617115408922
 30
0.0
 40
4.0
  1
10.5
 41
0.7999999999999998
  7
FDASTYLE1
 72
     5
 11
-96.6516243205662
 21
26.38617115408922
 31
0.0
  0
ENDBLK
  5
C0
  8
0
  0
BLOCK
  8
0
  2
DA_IMAGEDIMGROUP_33
 70
     0
 10
0.0
 20
0.0
 30
0.0
  3
DA_IMAGEDIMGROUP_33
  1

  0
LINE
  5
1D1
  8
0
  6
CONTINUOUS
 62
     9
 10
-102.6461354397687
 20
95.21608028854362
 30
0.0
 11
-112.8298322103317
 21
95.21608028854362
 31
0.0
  0
LINE
  5
1D2
  8
0
  6
CONTINUOUS
 62
     9
 10
-102.6461354397687
 20
150.2160879179381
 30
0.0
 11
-112.8298322103317
 21
150.2160879179381
 31
0.0
  0
LINE
  5
1D3
  8
0
  6
CONTINUOUS
 62
     9
 10
-111.8298322103317
 20
95.21608028854362
 30
0.0
 11
-111.8298322103317
 21
150.2160879179381
 31
0.0
  0
INSERT
  5
1D4
  8
0
 62
     9
  2
_OPEN30
 10
-111.8298322103317
 20
95.21608028854362
 30
0.0
 41
1.50000139391263
 42
1.499998500689492
 50
270.0
  0
INSERT
  5
1D5
  8
0
 62
     9
  2
_OPEN30
 10
-111.8298322103317
 20
150.2160879179381
 30
0.0
 41
1.50000139391263
 42
1.499998500689492
 50
90.0
  0
TEXT
  5
1D6
  8
0
 62
     7
 10
-112.8298322103317
 20
119.5160841032409
 30
0.0
 40
4.0
  1
55
 50
90.0
 41
0.8000000000000007
  7
FDASTYLE1
 72
     5
 11
-112.8298322103317
 21
125.9160841032409
 31
0.0
  0
ENDBLK
  5
C3
  8
0
  0
BLOCK
  8
0
  2
DA_IMAGEDIMGROUP_34
 70
     0
 10
0.0
 20
0.0
 30
0.0
  3
DA_IMAGEDIMGROUP_34
  1

  0
LINE
  5
1D7
  8
0
  6
CONTINUOUS
 62
     9
 10
269.8038049940547
 20
35.21608791793813
 30
0.0
 11
269.8038049940547
 21
121.716100832859
 31
0.0
  0
INSERT
  5
1D8
  8
0
 62
     9
  2
_OPEN30
 10
269.8038049940547
 20
35.21608791793813
 30
0.0
 41
1.50000139391263
 42
1.499998500689492
 50
270.0
  0
INSERT
  5
1D9
  8
0
 62
     9
  2
_OPEN30
 10
269.8038049940547
 20
121.716100832859
 30
0.0
 41
1.50000139391263
 42
1.499998500689492
 50
90.0
  0
LINE
  5
1DA
  8
0
  6
CONTINUOUS
 62
     9
 10
269.5571027225317
 20
35.21608791793813
 30
0.0
 11
270.8038049940547
 21
35.21608791793813
 31
0.0
  0
LINE
  5
1DB
  8
0
  6
CONTINUOUS
 62
     9
 10
191.7170262551798
 20
121.716100832859
 30
0.0
 11
270.8038049940547
 21
121.716100832859
 31
0.0
  0
TEXT
  5
1DC
  8
0
 62
     7
 10
268.8038049940547
 20
72.06609437539862
 30
0.0
 40
4.0
  1
86.5
 50
90.0
 41
0.7999999999999972
  7
FDASTYLE1
 72
     5
 11
268.8038049940547
 21
84.86609437539858
 31
0.0
  0
ENDBLK
  5
C6
  8
0
  0
BLOCK
  8
0
  2
DC_GROUP_8
 70
     0
 10
0.0
 20
0.0
 30
0.0
  3
DC_GROUP_8
  1

  0
LINE
  5
1DD
  8
0
  6
CONTINUOUS
 62
     7
 10
26.88357938319894
 20
97.71609009134282
 30
0.0
 11
12.07036053685333
 21
120.8610690679044
 31
0.0
  0
INSERT
  5
1DE
  8
0
 62
     7
  2
_OPEN30
 10
26.88357938319894
 20
97.71609009134282
 30
0.0
 41
1.50000139391263
 42
1.499998500689492
 50
302.6200022653476
  0
LINE
  5
1DF
  8
0
  6
CONTINUOUS
 62
     7
 10
12.07036053685333
 20
120.8610690679044
 30
0.0
 11
2.470360536853329
 21
120.8610690679044
 31
0.0
  0
TEXT
  5
1E0
  8
0
 62
     7
 10
2.470360536853329
 20
120.8610690679044
 30
0.0
 40
4.0
  1
Ｍ10
 41
0.7500000000000001
  7
FDASTYLE1
 72
     5
 11
12.07036053685333
 21
120.8610690679044
 31
0.0
  0
ENDBLK
  5
C9
  8
0
  0
BLOCK
  8
0
  2
DC_GROUP_9
 70
     0
 10
0.0
 20
0.0
 30
0.0
  3
DC_GROUP_9
  1

  0
LINE
  5
1E1
  8
0
  6
CONTINUOUS
 62
     7
 10
30.07762873021801
 20
-122.6525295864695
 30
0.0
 11
22.16296229025097
 21
-132.9977073106624
 31
0.0
  0
INSERT
  5
1E2
  8
0
 62
     7
  2
_OPEN30
 10
30.07762873021801
 20
-122.6525295864695
 30
0.0
 41
1.50000139391263
 42
1.499998500689492
 50
52.58189603262609
  0
LINE
  5
1E3
  8
0
  6
CONTINUOUS
 62
     7
 10
22.16296229025097
 20
-132.9977073106624
 30
0.0
 11
-41.83703770974903
 21
-132.9977073106624
 31
0.0
  0
TEXT
  5
1E4
  8
0
 62
     7
 10
-41.83703770974903
 20
-132.9977073106624
 30
0.0
 40
4.0
  1
52TS型シリンダ－（圧力3.5MPa）
 41
0.7272727272727273
  7
FDASTYLE1
 72
     5
 11
22.16296229025097
 21
-132.9977073106624
 31
0.0
  0
ENDBLK
  5
CC
  8
0
  0
BLOCK
  8
0
  2
DC_GROUP_10
 70
     0
 10
0.0
 20
0.0
 30
0.0
  3
DC_GROUP_10
  1

  0
LINE
  5
1E5
  8
0
  6
CONTINUOUS
 62
     3
 10
-46.22801751192975
 20
-99.44460468384186
 30
0.0
 11
-44.07050724351846
 21
-99.54096668390237
 31
0.0
  0
LINE
  5
1E6
  8
0
  6
CONTINUOUS
 62
     3
 10
-44.07050724351846
 20
-99.54096668390237
 30
0.0
 11
-41.91360348693301
 21
-99.64265846586777
 31
0.0
  0
LINE
  5
1E7
  8
0
  6
CONTINUOUS
 62
     3
 10
-41.91360348693301
 20
-99.64265846586777
 30
0.0
 11
-39.75791275399929
 21
-99.75500981164306
 31
0.0
  0
LINE
  5
1E8
  8
0
  6
CONTINUOUS
 62
     3
 10
-39.75791275399929
 20
-99.75500981164306
 30
0.0
 11
-37.6040415565431
 21
-99.88335050313306
 31
0.0
  0
LINE
  5
1E9
  8
0
  6
CONTINUOUS
 62
     3
 10
-37.6040415565431
 20
-99.88335050313306
 30
0.0
 11
-35.45259640639035
 21
-100.0330103222428
 31
0.0
  0
LINE
  5
1EA
  8
0
  6
CONTINUOUS
 62
     3
 10
-35.45259640639035
 20
-100.0330103222428
 30
0.0
 11
-33.30418381536686
 21
-100.2093190508771
 31
0.0
  0
LINE
  5
1EB
  8
0
  6
CONTINUOUS
 62
     3
 10
-33.30418381536686
 20
-100.2093190508771
 30
0.0
 11
-31.15941029529847
 21
-100.4176064709409
 31
0.0
  0
LINE
  5
1EC
  8
0
  6
CONTINUOUS
 62
     3
 10
-31.15941029529847
 20
-100.4176064709409
 30
0.0
 11
-29.01888235801108
 21
-100.6632023643392
 31
0.0
  0
LINE
  5
1ED
  8
0
  6
CONTINUOUS
 62
     3
 10
-29.01888235801108
 20
-100.6632023643392
 30
0.0
 11
-26.88320190938438
 21
-100.9511394095995
 31
0.0
  0
LINE
  5
1EE
  8
0
  6
CONTINUOUS
 62
     3
 10
-26.88320190938438
 20
-100.9511394095995
 30
0.0
 11
-24.75290949802204
 21
-101.2824924764864
 31
0.0
  0
LINE
  5
1EF
  8
0
  6
CONTINUOUS
 62
     3
 10
-24.75290949802204
 20
-101.2824924764864
 30
0.0
 11
-22.62850203073718
 21
-101.6555213511715
 31
0.0
  0
LINE
  5
1F0
  8
0
  6
CONTINUOUS
 62
     3
 10
-22.62850203073718
 20
-101.6555213511715
 30
0.0
 11
-20.51047548092176
 21
-102.068425610138
 31
0.0
  0
LINE
  5
1F1
  8
0
  6
CONTINUOUS
 62
     3
 10
-20.51047548092176
 20
-102.068425610138
 30
0.0
 11
-18.3993258219677
 21
-102.5194048298692
 31
0.0
  0
LINE
  5
1F2
  8
0
  6
CONTINUOUS
 62
     3
 10
-18.3993258219677
 20
-102.5194048298692
 30
0.0
 11
-16.29554902726694
 21
-103.0066585868482
 31
0.0
  0
LINE
  5
1F3
  8
0
  6
CONTINUOUS
 62
     3
 10
-16.29554902726694
 20
-103.0066585868482
 30
0.0
 11
-14.19964107021144
 21
-103.5283864575583
 31
0.0
  0
LINE
  5
1F4
  8
0
  6
CONTINUOUS
 62
     3
 10
-14.19964107021144
 20
-103.5283864575583
 30
0.0
 11
-12.11209792419314
 21
-104.0827880184828
 31
0.0
  0
LINE
  5
1F5
  8
0
  6
CONTINUOUS
 62
     3
 10
-12.11209792419314
 20
-104.0827880184828
 30
0.0
 11
-10.03341551367717
 21
-104.6680630407746
 31
0.0
  0
LINE
  5
1F6
  8
0
  6
CONTINUOUS
 62
     3
 10
-10.03341551367717
 20
-104.6680630407746
 30
0.0
 11
-7.96401239105146
 21
-105.2827191434098
 31
0.0
  0
LINE
  5
1F7
  8
0
  6
CONTINUOUS
 62
     3
 10
-7.96401239105146
 20
-105.2827191434098
 30
0.0
 11
-5.90407299714343
 21
-105.9261954278427
 31
0.0
  0
LINE
  5
1F8
  8
0
  6
CONTINUOUS
 62
     3
 10
-5.90407299714343
 20
-105.9261954278427
 30
0.0
 11
-3.853737663985043
 21
-106.59810649549
 31
0.0
  0
LINE
  5
1F9
  8
0
  6
CONTINUOUS
 62
     3
 10
-3.853737663985043
 20
-106.59810649549
 30
0.0
 11
-1.813146723608282
 21
-107.2980669477685
 31
0.0
  0
LINE
  5
1FA
  8
0
  6
CONTINUOUS
 62
     3
 10
-1.813146723608282
 20
-107.2980669477685
 30
0.0
 11
0.2175594919548609
 21
-108.0256913860949
 31
0.0
  0
LINE
  5
1FB
  8
0
  6
CONTINUOUS
 62
     3
 10
0.2175594919548609
 20
-108.0256913860949
 30
0.0
 11
2.23824065067241
 21
-108.7805944118859
 31
0.0
  0
LINE
  5
1FC
  8
0
  6
CONTINUOUS
 62
     3
 10
2.23824065067241
 20
-108.7805944118859
 30
0.0
 11
4.248756420512377
 21
-109.5623906265583
 31
0.0
  0
LINE
  5
1FD
  8
0
  6
CONTINUOUS
 62
     3
 10
4.248756420512377
 20
-109.5623906265583
 30
0.0
 11
6.248966469442792
 21
-110.3706946315288
 31
0.0
  0
LINE
  5
1FE
  8
0
  6
CONTINUOUS
 62
     3
 10
6.248966469442792
 20
-110.3706946315288
 30
0.0
 11
8.238729675856998
 21
-111.2051217142867
 31
0.0
  0
LINE
  5
1FF
  8
0
  6
CONTINUOUS
 62
     3
 10
8.238729675856998
 20
-111.2051217142867
 30
0.0
 11
10.21779353439084
 21
-112.0653839452461
 31
0.0
  0
LINE
  5
200
  8
0
  6
CONTINUOUS
 62
     3
 10
10.21779353439084
 20
-112.0653839452461
 30
0.0
 11
12.18568012178876
 21
-112.9513892636202
 31
0.0
  0
LINE
  5
201
  8
0
  6
CONTINUOUS
 62
     3
 10
12.18568012178876
 20
-112.9513892636202
 30
0.0
 11
14.14188429970147
 21
-113.8630692562026
 31
0.0
  0
LINE
  5
202
  8
0
  6
CONTINUOUS
 62
     3
 10
14.14188429970147
 20
-113.8630692562026
 30
0.0
 11
16.08590092977962
 21
-114.8003555097872
 31
0.0
  0
LINE
  5
203
  8
0
  6
CONTINUOUS
 62
     3
 10
16.08590092977962
 20
-114.8003555097872
 30
0.0
 11
18.01722487367392
 21
-115.7631796111674
 31
0.0
  0
LINE
  5
204
  8
0
  6
CONTINUOUS
 62
     3
 10
18.01722487367392
 20
-115.7631796111674
 30
0.0
 11
19.93535099303502
 21
-116.751473147137
 31
0.0
  0
LINE
  5
205
  8
0
  6
CONTINUOUS
 62
     3
 10
19.93535099303502
 20
-116.751473147137
 30
0.0
 11
21.83977414951362
 21
-117.7651677044898
 31
0.0
  0
LINE
  5
206
  8
0
  6
CONTINUOUS
 62
     3
 10
21.83977414951362
 20
-117.7651677044898
 30
0.0
 11
23.72998920476041
 21
-118.8041948700192
 31
0.0
  0
LINE
  5
207
  8
0
  6
CONTINUOUS
 62
     3
 10
23.72998920476041
 20
-118.8041948700192
 30
0.0
 11
25.60549102042605
 21
-119.8684862305192
 31
0.0
  0
LINE
  5
208
  8
0
  6
CONTINUOUS
 62
     3
 10
25.60549102042605
 20
-119.8684862305192
 30
0.0
 11
27.46603203738244
 21
-120.9576618895098
 31
0.0
  0
LINE
  5
209
  8
0
  6
CONTINUOUS
 62
     3
 10
27.46603203738244
 20
-120.9576618895098
 30
0.0
 11
29.3127126366967
 21
-122.0697119245236
 31
0.0
  0
LINE
  5
20A
  8
0
  6
CONTINUOUS
 62
     3
 10
29.3127126366967
 20
-122.0697119245236
 30
0.0
 11
31.14707265000545
 21
-123.2020949979378
 31
0.0
  0
LINE
  5
20B
  8
0
  6
CONTINUOUS
 62
     3
 10
31.14707265000545
 20
-123.2020949979378
 30
0.0
 11
32.97065215055938
 21
-124.3522694799522
 31
0.0
  0
LINE
  5
20C
  8
0
  6
CONTINUOUS
 62
     3
 10
32.97065215055938
 20
-124.3522694799522
 30
0.0
 11
34.78499121160917
 21
-125.5176937407668
 31
0.0
  0
LINE
  5
20D
  8
0
  6
CONTINUOUS
 62
     3
 10
34.78499121160917
 20
-125.5176937407668
 30
0.0
 11
36.59162990640552
 21
-126.6958261505816
 31
0.0
  0
LINE
  5
20E
  8
0
  6
CONTINUOUS
 62
     3
 10
36.59162990640552
 20
-126.6958261505816
 30
0.0
 11
38.39210830819912
 21
-127.8841250795965
 31
0.0
  0
LINE
  5
20F
  8
0
  6
CONTINUOUS
 62
     3
 10
38.39210830819912
 20
-127.8841250795965
 30
0.0
 11
40.18796649024066
 21
-129.0800488980116
 31
0.0
  0
LINE
  5
210
  8
0
  6
CONTINUOUS
 62
     3
 10
40.18796649024066
 20
-129.0800488980116
 30
0.0
 11
41.98074452578079
 21
-130.2810559760267
 31
0.0
  0
LINE
  5
211
  8
0
  6
CONTINUOUS
 62
     3
 10
41.98074452578079
 20
-130.2810559760267
 30
0.0
 11
43.77198248807025
 21
-131.4846046838419
 31
0.0
  0
ENDBLK
  5
CF
  8
0
  0
BLOCK
  8
0
  2
_OPEN30
 70
     0
 10
0.0
 20
0.0
 30
0.0
  3
_OPEN30
  1

  0
LINE
  5
D5
  8
0
  6
BYBLOCK
 62
     0
 10
-1.0
 20
0.267949
 30
0.0
 11
0.0
 21
0.0
 31
0.0
  0
LINE
  5
D6
  8
0
  6
BYBLOCK
 62
     0
 10
0.0
 20
0.0
 30
0.0
 11
-1.0
 21
-0.267949
 31
0.0
  0
LINE
  5
D7
  8
0
  6
BYBLOCK
 62
     0
 10
0.0
 20
0.0
 30
0.0
 11
-1.0
 21
0.0
 31
0.0
  0
ENDBLK
  5
D4
  8
0
  0
BLOCK
  8
0
  2
_DOT
 70
     0
 10
0.0
 20
0.0
 30
0.0
  3
_DOT
  1

  0
POLYLINE
  5
13C
  8
0
  6
BYBLOCK
 62
     0
 66
     1
 10
0.0
 20
0.0
 30
0.0
 70
     1
 40
0.5
 41
0.5
  0
VERTEX
  5
568
  8
0
  6
BYBLOCK
 62
     0
 10
-0.25
 20
0.0
 30
0.0
 42
1.0
  0
VERTEX
  5
569
  8
0
  6
BYBLOCK
 62
     0
 10
0.25
 20
0.0
 30
0.0
 42
1.0
  0
SEQEND
  5
567
  8
0
  6
BYBLOCK
 62
     0
  0
LINE
  5
13D
  8
0
  6
BYBLOCK
 62
     0
 10
-0.5
 20
0.0
 30
0.0
 11
-1.0
 21
0.0
 31
0.0
  0
ENDBLK
  5
13B
  8
0
  0
ENDSEC
  0
SECTION
  2
ENTITIES
  0
LINE
  5
212
  8
ZUWAKU
  6
CONTINUOUS
 62
     3
 10
-277.0
 20
-190.0
 30
0.0
 11
-277.0
 21
190.0
 31
0.0
  0
LINE
  5
213
  8
ZUWAKU
  6
CONTINUOUS
 62
     3
 10
277.0
 20
-190.0
 30
0.0
 11
277.0
 21
190.0
 31
0.0
  0
LINE
  5
214
  8
ZUWAKU
  6
CONTINUOUS
 62
     3
 10
-277.0
 20
-190.0
 30
0.0
 11
277.0
 21
-190.0
 31
0.0
  0
LINE
  5
215
  8
ZUWAKU
  6
CONTINUOUS
 62
     3
 10
-277.0
 20
189.9999999999999
 30
0.0
 11
277.0
 21
189.9999999999999
 31
0.0
  0
LINE
  5
216
  8
ZUWAKU
  6
CONTINUOUS
 62
     3
 10
97.00000000000001
 20
-190.0
 30
0.0
 11
97.00000000000001
 21
-130.0
 31
0.0
  0
LINE
  5
217
  8
ZUWAKU
  6
CONTINUOUS
 62
     3
 10
97.00000000000001
 20
-176.0
 30
0.0
 11
277.0
 21
-176.0
 31
0.0
  0
LINE
  5
218
  8
ZUWAKU
  6
CONTINUOUS
 62
     3
 10
146.0
 20
-162.0
 30
0.0
 11
277.0
 21
-162.0
 31
0.0
  0
LINE
  5
219
  8
ZUWAKU
  6
CONTINUOUS
 62
     3
 10
146.0
 20
-148.0
 30
0.0
 11
277.0
 21
-148.0
 31
0.0
  0
LINE
  5
21A
  8
ZUWAKU
  6
CONTINUOUS
 62
     3
 10
146.0
 20
-138.0
 30
0.0
 11
277.0
 21
-138.0
 31
0.0
  0
LINE
  5
21B
  8
ZUWAKU
  6
CONTINUOUS
 62
     3
 10
146.0
 20
-175.9999999999999
 30
0.0
 11
146.0
 21
-129.9999999999999
 31
0.0
  0
LINE
  5
21C
  8
ZUWAKU
  6
CONTINUOUS
 62
     3
 10
255.0
 20
-176.0
 30
0.0
 11
255.0
 21
-130.0
 31
0.0
  0
LINE
  5
21D
  8
ZUWAKU
  6
CONTINUOUS
 62
     3
 10
171.0
 20
-190.0
 30
0.0
 11
171.0
 21
-176.0
 31
0.0
  0
LINE
  5
21E
  8
ZUWAKU
  6
CONTINUOUS
 62
     3
 10
262.0
 20
-188.0
 30
0.0
 11
272.0
 21
-188.0
 31
0.0
  0
LINE
  5
21F
  8
ZUWAKU
  6
CONTINUOUS
 62
     3
 10
267.0
 20
-178.0
 30
0.0
 11
262.0
 21
-188.0
 31
0.0
  0
LINE
  5
220
  8
ZUWAKU
  6
CONTINUOUS
 62
     3
 10
267.0
 20
-178.0
 30
0.0
 11
272.0
 21
-188.0
 31
0.0
  0
LINE
  5
221
  8
ZUWAKU
  6
CONTINUOUS
 62
     3
 10
97.00000000000001
 20
-130.0
 30
0.0
 11
277.0
 21
-130.0
 31
0.0
  0
LINE
  5
222
  8
ZUWAKU
  6
CONTINUOUS
 62
     3
 10
226.0
 20
-176.0
 30
0.0
 11
226.0
 21
-148.0
 31
0.0
  0
LINE
  5
223
  8
ZUWAKU
  6
CONTINUOUS
 62
     4
 10
105.0
 20
-172.0
 30
0.0
 11
105.0
 21
-130.0
 31
0.0
  0
LINE
  5
224
  8
ZUWAKU
  6
CONTINUOUS
 62
     4
 10
109.0
 20
-172.0
 30
0.0
 11
109.0
 21
-130.0
 31
0.0
  0
LINE
  5
225
  8
ZUWAKU
  6
CONTINUOUS
 62
     4
 10
121.5
 20
-176.0
 30
0.0
 11
121.5
 21
-130.0
 31
0.0
  0
LINE
  5
226
  8
ZUWAKU
  6
CONTINUOUS
 62
     4
 10
97.00000000000001
 20
-137.0
 30
0.0
 11
146.0
 21
-137.0
 31
0.0
  0
LINE
  5
227
  8
ZUWAKU
  6
CONTINUOUS
 62
     4
 10
97.00000000000001
 20
-144.0
 30
0.0
 11
146.0
 21
-144.0
 31
0.0
  0
LINE
  5
228
  8
ZUWAKU
  6
CONTINUOUS
 62
     4
 10
97.00000000000001
 20
-165.0
 30
0.0
 11
146.0
 21
-165.0
 31
0.0
  0
LINE
  5
229
  8
ZUWAKU
  6
CONTINUOUS
 62
     4
 10
97.00000000000001
 20
-172.0
 30
0.0
 11
146.0
 21
-172.0
 31
0.0
  0
LINE
  5
22A
  8
ZUWAKU
  6
CONTINUOUS
 62
     4
 10
255.0
 20
-166.0
 30
0.0
 11
277.0
 21
-166.0
 31
0.0
  0
LINE
  5
22B
  8
ZUWAKU
  6
CONTINUOUS
 62
     4
 10
202.0
 20
-148.0
 30
0.0
 11
202.0
 21
-146.5
 31
0.0
  0
LINE
  5
22C
  8
ZUWAKU
  6
CONTINUOUS
 62
     4
 10
226.0
 20
-148.0
 30
0.0
 11
226.0
 21
-146.5
 31
0.0
  0
LINE
  5
22D
  8
ZUWAKU
  6
CONTINUOUS
 62
     4
 10
243.0
 20
-148.0
 30
0.0
 11
243.0
 21
-146.5
 31
0.0
  0
LINE
  5
22E
  8
ZUWAKU
  6
CONTINUOUS
 62
     4
 10
202.0
 20
-139.4999999999999
 30
0.0
 11
202.0
 21
-129.9999999999999
 31
0.0
  0
LINE
  5
22F
  8
ZUWAKU
  6
CONTINUOUS
 62
     4
 10
226.0
 20
-139.4999999999999
 30
0.0
 11
226.0
 21
-129.9999999999999
 31
0.0
  0
LINE
  5
230
  8
ZUWAKU
  6
CONTINUOUS
 62
     4
 10
243.0
 20
-139.4999999999999
 30
0.0
 11
243.0
 21
-129.9999999999999
 31
0.0
  0
LINE
  5
231
  8
ZUWAKU
  6
CONTINUOUS
 62
     4
 10
97.00000000000001
 20
-151.0
 30
0.0
 11
146.0
 21
-151.0
 31
0.0
  0
LINE
  5
232
  8
ZUWAKU
  6
CONTINUOUS
 62
     4
 10
97.00000000000001
 20
-158.0
 30
0.0
 11
146.0
 21
-158.0
 31
0.0
  0
LINE
  5
233
  8
ZUWAKU
  6
CONTINUOUS
 62
     4
 10
101.0
 20
-130.5
 30
0.0
 11
98.00000000000001
 21
-136.5
 31
0.0
  0
LINE
  5
234
  8
ZUWAKU
  6
CONTINUOUS
 62
     4
 10
101.0
 20
-130.5
 30
0.0
 11
104.0
 21
-136.5
 31
0.0
  0
LINE
  5
235
  8
ZUWAKU
  6
CONTINUOUS
 62
     4
 10
98.00000000000001
 20
-136.5
 30
0.0
 11
104.0
 21
-136.5
 31
0.0
  0
LINE
  5
236
  8
ZUWAKU
  6
CONTINUOUS
 62
     4
 10
101.0
 20
-158.5
 30
0.0
 11
98.00000000000001
 21
-164.5
 31
0.0
  0
LINE
  5
237
  8
ZUWAKU
  6
CONTINUOUS
 62
     4
 10
101.0
 20
-158.5
 30
0.0
 11
104.0
 21
-164.5
 31
0.0
  0
LINE
  5
238
  8
ZUWAKU
  6
CONTINUOUS
 62
     4
 10
98.00000000000001
 20
-164.5
 30
0.0
 11
104.0
 21
-164.5
 31
0.0
  0
LINE
  5
239
  8
ZUWAKU
  6
CONTINUOUS
 62
     4
 10
101.0
 20
-151.5
 30
0.0
 11
98.00000000000001
 21
-157.5
 31
0.0
  0
LINE
  5
23A
  8
ZUWAKU
  6
CONTINUOUS
 62
     4
 10
101.0
 20
-151.5
 30
0.0
 11
104.0
 21
-157.5
 31
0.0
  0
LINE
  5
23B
  8
ZUWAKU
  6
CONTINUOUS
 62
     4
 10
98.00000000000001
 20
-157.5
 30
0.0
 11
104.0
 21
-157.5
 31
0.0
  0
LINE
  5
23C
  8
ZUWAKU
  6
CONTINUOUS
 62
     4
 10
101.0
 20
-144.5
 30
0.0
 11
98.00000000000001
 21
-150.5
 31
0.0
  0
LINE
  5
23D
  8
ZUWAKU
  6
CONTINUOUS
 62
     4
 10
101.0
 20
-144.5
 30
0.0
 11
104.0
 21
-150.5
 31
0.0
  0
LINE
  5
23E
  8
ZUWAKU
  6
CONTINUOUS
 62
     4
 10
98.00000000000001
 20
-150.5
 30
0.0
 11
104.0
 21
-150.5
 31
0.0
  0
LINE
  5
23F
  8
ZUWAKU
  6
CONTINUOUS
 62
     4
 10
101.0
 20
-137.5
 30
0.0
 11
98.00000000000001
 21
-143.5
 31
0.0
  0
LINE
  5
240
  8
ZUWAKU
  6
CONTINUOUS
 62
     4
 10
101.0
 20
-137.5
 30
0.0
 11
104.0
 21
-143.5
 31
0.0
  0
LINE
  5
241
  8
ZUWAKU
  6
CONTINUOUS
 62
     4
 10
98.00000000000001
 20
-143.5
 30
0.0
 11
104.0
 21
-143.5
 31
0.0
  0
LINE
  5
242
  8
ZUWAKU
  6
CONTINUOUS
 62
     4
 10
172.6666666666666
 20
-176.0
 30
0.0
 11
172.6666666666666
 21
-162.0
 31
0.0
  0
LINE
  5
243
  8
ZUWAKU
  6
CONTINUOUS
 62
     4
 10
199.3333333333333
 20
-176.0
 30
0.0
 11
199.3333333333333
 21
-161.9509415757253
 31
0.0
  0
LINE
  5
244
  8
ZUWAKU
  6
CONTINUOUS
 62
     4
 10
212.6666666666666
 20
-167.5
 30
0.0
 11
212.6666666666666
 21
-161.9509415757253
 31
0.0
  0
LINE
  5
245
  8
ZUWAKU
  6
CONTINUOUS
 62
     4
 10
226.0
 20
-155.0
 30
0.0
 11
255.0
 21
-155.0
 31
0.0
  0
LINE
  5
246
  8
ZUWAKU
  6
CONTINUOUS
 62
     4
 10
146.0
 20
-166.0
 30
0.0
 11
226.0
 21
-166.0
 31
0.0
  0
TEXT
  5
248
  8
ZUWAKU
 62
     7
 10
148.3132301474747
 20
-130.821188728956
 30
0.0
 40
2.6656
  1
符号
 41
0.8
  7
FDASTYLE0
  0
TEXT
  5
249
  8
ZUWAKU
 62
     7
 10
162.4141311219058
 20
-135.8245525019963
 30
0.0
 40
4.0
  1
品       名
 41
0.765957446808511
  7
FDASTYLE1
 72
     5
 11
191.2141311219058
 21
-135.8245525019963
 31
0.0
  0
TEXT
  5
24A
  8
ZUWAKU
 62
     7
 10
207.2331564413096
 20
-135.8245525019963
 30
0.0
 40
4.0
  1
材  料
 41
0.7272727272727279
  7
FDASTYLE1
 72
     5
 11
220.0331564413096
 21
-135.8245525019963
 31
0.0
  0
TEXT
  5
24B
  8
ZUWAKU
 62
     7
 10
229.516061684855
 20
-135.8245525019963
 30
0.0
 40
4.0
  1
個 数
 41
0.7058823529411761
  7
FDASTYLE1
 72
     5
 11
239.116061684855
 21
-135.8245525019963
 31
0.0
  0
TEXT
  5
24C
  8
ZUWAKU
 62
     7
 10
245.721810952888
 20
-133.5649080050572
 30
0.0
 40
2.5
  1
単重量
 41
0.6666666666666666
  7
FDASTYLE1
 72
     5
 11
251.721810952888
 21
-133.5649080050572
 31
0.0
  0
TEXT
  5
24D
  8
ZUWAKU
 62
     7
 10
244.7089516236359
 20
-137.3631304897525
 30
0.0
 40
2.5
  1
(kg)
 41
0.8
  7
FDASTYLE1
 72
     5
 11
252.7089516236359
 21
-137.3631304897525
 31
0.0
  0
TEXT
  5
24E
  8
ZUWAKU
 62
     7
 10
259.1421970654778
 20
-135.8245525019963
 30
0.0
 40
4.0
  1
記  事
 41
0.7272727272727279
  7
FDASTYLE1
 72
     5
 11
271.9421970654778
 21
-135.8245525019963
 31
0.0
  0
TEXT
  5
24F
  8
ZUWAKU
 62
     7
 10
258.8450794551645
 20
-165.4873041997729
 30
0.0
 40
3.0
  1
コード番号
 41
0.6666666666666666
  7
FDASTYLE1
 72
     5
 11
270.8450794551645
 21
-165.4873041997729
 31
0.0
  0
TEXT
  5
250
  8
ZUWAKU
 62
     7
 10
101.9119920158317
 20
-175.1879010540338
 30
0.0
 40
2.5
  1
訂 正 来 歴
 41
0.717948717948718
  7
FDASTYLE1
 72
     5
 11
115.9119920158317
 21
-175.1879010540338
 31
0.0
  0
TEXT
  5
251
  8
ZUWAKU
 62
     7
 10
125.890334846765
 20
-175.2166697391651
 30
0.0
 40
2.5
  1
工 事 番 号
 41
0.717948717948718
  7
FDASTYLE1
 72
     5
 11
139.890334846765
 21
-175.2166697391651
 31
0.0
  0
TEXT
  5
252
  8
ZUWAKU
 62
     7
 10
99.96483784660289
 20
-165.9634530565915
 30
0.0
 40
2.0825
  1
記号
 41
0.8
  7
FDASTYLE0
  0
TEXT
  5
253
  8
ZUWAKU
 62
     7
 10
105.9042249067618
 20
-165.9634530565915
 30
0.0
 40
2.0825
  1
理由
 41
0.8
  7
FDASTYLE0
  0
TEXT
  5
254
  8
ZUWAKU
 62
     7
 10
111.6193667909843
 20
-169.8786046700178
 30
0.0
 40
3.0
  1
日 付
 41
0.7058823529411754
  7
FDASTYLE1
 72
     5
 11
118.8193667909843
 21
-169.8786046700178
 31
0.0
  0
TEXT
  5
255
  8
ZUWAKU
 62
     7
 10
153.4481689819652
 20
-165.7187911464244
 30
0.0
 40
3.0
  1
承   認
 41
0.7407407407407408
  7
FDASTYLE1
 72
     5
 11
165.4481689819652
 21
-165.7187911464244
 31
0.0
  0
TEXT
  5
256
  8
ZUWAKU
 62
     7
 10
179.863228033234
 20
-165.4873041997729
 30
0.0
 40
3.0
  1
検   図
 41
0.7407407407407408
  7
FDASTYLE1
 72
     5
 11
191.863228033234
 21
-165.4873041997729
 31
0.0
  0
TEXT
  5
257
  8
ZUWAKU
 62
     7
 10
201.4771920983751
 20
-165.4873041997729
 30
0.0
 40
3.0
  1
担  当
 41
0.7272727272727269
  7
FDASTYLE1
 72
     5
 11
211.0771920983751
 21
-165.4873041997729
 31
0.0
  0
TEXT
  5
258
  8
ZUWAKU
 62
     7
 10
214.6770574841112
 20
-165.4873041997729
 30
0.0
 40
3.0
  1
製  図
 41
0.7272727272727269
  7
FDASTYLE1
 72
     5
 11
224.2770574841112
 21
-165.4873041997729
 31
0.0
  0
TEXT
  5
259
  8
ZUWAKU
 62
     7
 10
226.9462372304199
 20
-153.2184960272417
 30
0.0
 40
3.0
  1
作図
 41
0.6666666666666683
  7
FDASTYLE1
 72
     5
 11
231.7462372304199
 21
-153.2184960272417
 31
0.0
  0
TEXT
  5
25A
  8
ZUWAKU
 62
     7
 10
228.1036719636776
 20
-160.2371566401815
 30
0.0
 40
4.0
  1
第 三 角 法
 41
0.7179487179487182
  7
FDASTYLE1
 72
     5
 11
250.5036719636776
 21
-160.2371566401815
 31
0.0
  0
TEXT
  5
25B
  8
ZUWAKU
 62
     7
 10
227.409211123723
 20
-166.413251986379
 30
0.0
 40
3.0
  1
尺度
 41
0.6666666666666683
  7
FDASTYLE1
 72
     5
 11
232.209211123723
 21
-166.413251986379
 31
0.0
  0
TEXT
  5
25D
  8
ZUWAKU
 62
     3
 10
105.379154370034
 20
-185.9272077185017
 30
0.0
 40
7.0
  1
株式会社 野村製作所
 41
0.5763738641280831
  7
FDASTYLE2
 72
     5
 11
161.379154370034
 21
-185.9272077185017
 31
0.0
  0
TEXT
  5
25F
  8
ZUWAKU
 62
     3
 10
181.1406021025556
 20
-186.8175957527493
 30
0.0
 40
8.0
  1
２－
 41
0.8244023083264632
  7
FDASTYLE3
 72
     5
 11
197.1406021025556
 21
-186.8175957527493
 31
0.0
  0
TEXT
  5
260
  8
ZUWAKU
 62
     3
 10
198.0525597269624
 20
-186.2175957527492
 30
0.0
 40
6.800000000000001
  1
C710024
 41
1.554174067495559
  7
FDASTYLE3
 72
     5
 11
245.6525597269624
 21
-186.2175957527492
 31
0.0
  0
TEXT
  5
261
  8
ZUWAKU
 62
     6
 10
163.8686229207335
 20
-145.3589000228561
 30
0.0
 40
5.0
  1
外　形 図
 41
0.603448275862069
  7
FDASTYLE1
 72
     5
 11
181.3686229207335
 21
-145.3589000228561
 31
0.0
  0
TEXT
  5
262
  8
ZUWAKU
 62
     6
 10
158.4970384165943
 20
-158.0213464364299
 30
0.0
 40
5.0
  1
MAC3-250A8型ﾁｬｯｸ
 41
0.6907894736842105
  7
FDASTYLE1
 72
     5
 11
210.9970384165943
 21
-158.0213464364299
 31
0.0
  0
TEXT
  5
263
  8
ZUWAKU
 62
     4
 10
238.4249329588131
 20
-170.9853734291267
 30
0.0
 40
3.0
  1
1/1
 41
0.7000000000000013
  7
FDASTYLE1
 72
     5
 11
244.7249329588132
 21
-170.9853734291267
 31
0.0
  0
LINE
  5
264
  8
0
  6
CONTINUOUS
 62
     4
 10
152.9558138127541
 20
-129.9393249905192
 30
0.0
 11
152.9558138127541
 21
-141.9393249905192
 31
0.0
  0
TEXT
  5
265
  8
0
 62
     6
 10
-256.0233136107968
 20
-115.5124322866527
 30
0.0
 40
4.049999879300597
  1
1.主軸端番号
 41
0.7121213873835878
  7
FDASTYLE1
 72
     5
 11
-228.8304552245443
 21
-115.5124322866527
 31
0.0
  0
TEXT
  5
266
  8
0
 62
     6
 10
-256.0233136107968
 20
-122.7124320720759
 30
0.0
 40
4.049999879300597
  1
2.爪ﾉｽﾄﾛｰｸ
 41
0.7780614309254653
  7
FDASTYLE1
 72
     5
 11
-220.7304552513664
 21
-122.7124320720759
 31
0.0
  0
TEXT
  5
267
  8
0
 62
     6
 10
-256.0233136107968
 20
-129.9124249910444
 30
0.0
 40
4.049999879300597
  1
3.ピストンストローク
 41
0.6970261934681588
  7
FDASTYLE1
 72
     5
 11
-212.6304552781885
 21
-129.9124249910444
 31
0.0
  0
TEXT
  5
268
  8
0
 62
     6
 10
-256.0233136107968
 20
-137.1124247764677
 30
0.0
 40
4.049999879300597
  1
４．適用シリンダー
 41
0.6659390383928578
  7
FDASTYLE1
 72
     5
 11
-220.7304552513664
 21
-137.1124247764677
 31
0.0
  0
TEXT
  5
269
  8
0
 62
     6
 10
-256.0233136107968
 20
-144.312424561891
 30
0.0
 40
4.049999879300597
  1
５．許容シリンダー力
 41
0.6666668393773269
  7
FDASTYLE1
 72
     5
 11
-216.6804552647774
 21
-144.312424561891
 31
0.0
  0
TEXT
  5
26A
  8
0
 62
     6
 10
-256.0233136107968
 20
-151.5124243473142
 30
0.0
 40
4.049999879300597
  1
6.最大静的把握力
 41
0.7027651497434065
  7
FDASTYLE1
 72
     5
 11
-220.7304552513664
 21
-151.5124243473142
 31
0.0
  0
TEXT
  5
26B
  8
0
 62
     6
 10
-256.0233136107968
 20
-158.7124241327375
 30
0.0
 40
4.049999879300597
  1
7.最高使用回転速度
 41
0.6995886492631833
  7
FDASTYLE1
 72
     5
 11
-216.6804552647774
 21
-158.7124241327375
 31
0.0
  0
TEXT
  5
26C
  8
0
 62
     6
 10
-256.0233136107968
 20
-165.9124239181608
 30
0.0
 40
4.049999879300597
  1
8.質 量
 41
0.7534248463115213
  7
FDASTYLE1
 72
     5
 11
-236.9304551977222
 21
-165.9124239181608
 31
0.0
  0
TEXT
  5
26D
  8
0
 62
     6
 10
-256.0233136107968
 20
-173.1124237035841
 30
0.0
 40
4.049999879300597
  1
9.慣性モ－メント
 41
0.7027651497434065
  7
FDASTYLE1
 72
     5
 11
-220.7304552513664
 21
-173.1124237035841
 31
0.0
  0
TEXT
  5
26E
  8
0
 62
     6
 10
-139.836875270444
 20
-115.5002374627973
 30
0.0
 40
4.049999879300597
  1
A2-8
 41
0.7647061223298596
  7
FDASTYLE1
 72
     5
 11
-124.7940168439583
 21
-115.5002374627973
 31
0.0
  0
TEXT
  5
26F
  8
0
 62
     6
 10
-172.677144524882
 20
-122.6535590879906
 30
0.0
 40
4.049999879300597
  1
直径ﾆﾃ    10mm
 41
0.7677904659695434
  7
FDASTYLE1
 72
     5
 11
-125.2342862056847
 21
-122.6535590879906
 31
0.0
  0
TEXT
  5
270
  8
0
 62
     6
 10
-140.2937554448162
 20
-129.7724179761739
 30
0.0
 40
4.049999879300597
  1
20mm
 41
0.7647061223298596
  7
FDASTYLE1
 72
     5
 11
-125.2508970183305
 21
-129.7724179761739
 31
0.0
  0
TEXT
  5
271
  8
0
 62
     6
 10
-152.3733807867196
 20
-137.082555697768
 30
0.0
 40
4.049999879300597
  1
   52TS
 41
0.770492032121846
  7
FDASTYLE1
 72
     5
 11
-125.1805224004671
 21
-137.082555697768
 31
0.0
  0
TEXT
  5
272
  8
0
 62
     6
 10
-156.4232158711033
 20
-144.2186562541386
 30
0.0
 40
4.049999879300597
  1
  40.1kN
 41
0.771428798493936
  7
FDASTYLE1
 72
     5
 11
-125.1803574982617
 21
-144.2186562541386
 31
0.0
  0
TEXT
  5
273
  8
0
 62
     6
 10
-152.372872669059
 20
-151.5287939757326
 30
0.0
 40
4.049999879300597
  1
107.9ｋN
 41
0.7781458991831796
  7
FDASTYLE1
 72
     5
 11
-125.1800142828064
 21
-151.5287939757326
 31
0.0
  0
TEXT
  5
274
  8
0
 62
     6
 10
-188.7926179825918
 20
-158.6648945321032
 30
0.0
 40
4.049999879300597
  1
         5000min
 41
0.7746481083324329
  7
FDASTYLE1
 72
     5
 11
-125.1497597170386
 21
-158.6648945321032
 31
0.0
  0
TEXT
  5
275
  8
0
 62
     6
 10
-124.281903577136
 20
-156.1336445538962
 30
0.0
 40
2.024999939650299
  1
-1
 41
0.7500002694627028
  7
FDASTYLE1
 72
     5
 11
-120.8104743504821
 21
-156.1336445538962
 31
0.0
  0
TEXT
  5
276
  8
0
 62
     6
 10
-139.836875270444
 20
-165.800981355564
 30
0.0
 40
4.049999879300597
  1
34kg
 41
0.7647061223298596
  7
FDASTYLE1
 72
     5
 11
-124.7940168439583
 21
-165.800981355564
 31
0.0
  0
TEXT
  5
277
  8
0
 62
     6
 10
-160.3138590656999
 20
-172.9370681790249
 30
0.0
 40
4.049999879300597
  1
0.258kg・m
 41
0.778061430925466
  7
FDASTYLE1
 72
     5
 11
-125.0210007062695
 21
-172.9370681790249
 31
0.0
  0
TEXT
  5
278
  8
0
 62
     6
 10
-124.1531445663669
 20
-170.4058182008178
 30
0.0
 40
2.024999939650299
  1
2
 41
0.7142860624525308
  7
FDASTYLE1
 72
     5
 11
-122.7067153330074
 21
-170.4058182008178
 31
0.0
  0
TEXT
  5
279
  8
0
 62
     6
 10
-172.677144524882
 20
-180.3308255880683
 30
0.0
 40
4.049999879300597
  1
外周ﾆﾃ    2g以内
 41
0.7481753770425929
  7
FDASTYLE1
 72
     5
 11
-125.2342862056847
 21
-180.3308255880683
 31
0.0
  0
TEXT
  5
27A
  8
0
 62
     6
 10
-207.7189489863075
 20
-144.2398598667879
 30
0.0
 40
2.699999919533731
  1
(使用圧力 3.5MPa)
 41
0.7504217420060133
  7
FDASTYLE1
 72
     5
 11
-173.3903784275381
 21
-144.2398598667879
 31
0.0
  0
TEXT
  5
27B
  8
0
 62
     6
 10
-254.4647002886012
 20
-187.6583980611302
 30
0.0
 40
4.0
  1
※最高使用回転速度は、ﾁｬｯｸ及びシリンダーの低い方で制限されます
 41
0.6872524858534299
  7
FDASTYLE1
 72
     5
 11
-123.1504042886012
 21
-187.6583980611302
 31
0.0
  0
TEXT
  5
27C
  8
0
 62
     6
 10
-206.5693872815992
 20
-165.6177651349234
 30
0.0
 40
2.879999957084657
  1
（チャック単体）
 41
0.6650680951634853
  7
FDASTYLE1
 72
     5
 11
-184.3519904744471
 21
-165.6177651349234
 31
0.0
  0
TEXT
  5
27D
  8
0
 62
     6
 10
-256.0233135035085
 20
-108.3124325012294
 30
0.0
 40
4.049999879300597
  1
仕 様
 41
0.7364342385144518
  7
FDASTYLE1
 72
     5
 11
-245.0304557073419
 21
-108.3124325012294
 31
0.0
  0
TEXT
  5
27E
  8
0
 62
     6
 10
-260.0544444721051
 20
-180.3316495626531
 30
0.0
 40
4.049999879300597
  1
10.アンバランス量
 41
0.7098122848909029
  7
FDASTYLE1
 72
     5
 11
-220.7115861260857
 21
-180.3316495626531
 31
0.0
  0
LINE
  5
27F
  8
0
  6
CONTINUOUS
 62
     6
 10
-259.7976834772165
 20
-181.6817181869687
 30
0.0
 11
-122.2281845558669
 21
-181.6817181869687
 31
0.0
  0
LINE
  5
280
  8
0
  6
CONTINUOUS
 62
     6
 10
-259.7976834772165
 20
-174.4817184015454
 30
0.0
 11
-122.2281845558669
 21
-174.4817184015454
 31
0.0
  0
LINE
  5
281
  8
0
  6
CONTINUOUS
 62
     6
 10
-259.7976834772165
 20
-167.2817186161221
 30
0.0
 11
-122.2281845558669
 21
-167.2817186161221
 31
0.0
  0
LINE
  5
282
  8
0
  6
CONTINUOUS
 62
     6
 10
-259.7976834772165
 20
-160.0817188306989
 30
0.0
 11
-122.2281845558669
 21
-160.0817188306989
 31
0.0
  0
LINE
  5
283
  8
0
  6
CONTINUOUS
 62
     6
 10
-259.7976834772165
 20
-152.8817190452756
 30
0.0
 11
-122.2281845558669
 21
-152.8817190452756
 31
0.0
  0
LINE
  5
284
  8
0
  6
CONTINUOUS
 62
     6
 10
-259.7976834772165
 20
-145.6817192598523
 30
0.0
 11
-122.2281845558669
 21
-145.6817192598523
 31
0.0
  0
LINE
  5
285
  8
0
  6
CONTINUOUS
 62
     6
 10
-259.7976834772165
 20
-138.481719474429
 30
0.0
 11
-122.2281845558669
 21
-138.481719474429
 31
0.0
  0
LINE
  5
286
  8
0
  6
CONTINUOUS
 62
     6
 10
-259.7976834772165
 20
-131.2817196890057
 30
0.0
 11
-122.2281845558669
 21
-131.2817196890057
 31
0.0
  0
LINE
  5
287
  8
0
  6
CONTINUOUS
 62
     6
 10
-259.7976834772165
 20
-124.0817199035825
 30
0.0
 11
-122.2281845558669
 21
-124.0817199035825
 31
0.0
  0
LINE
  5
288
  8
0
  6
CONTINUOUS
 62
     6
 10
-259.7976834772165
 20
-116.8817201181592
 30
0.0
 11
-122.2281845558669
 21
-116.8817201181592
 31
0.0
  0
LINE
  5
289
  8
0
  6
CONTINUOUS
 62
     6
 10
-259.7976834772165
 20
-109.6817203327358
 30
0.0
 11
-240.7163684330911
 21
-109.6817203327358
 31
0.0
  0
LINE
  5
28A
  8
0
  6
CENTER
 62
     7
 10
135.136753601438
 20
167.3473592802428
 30
0.0
 11
135.136753601438
 21
-98.84880771194469
 31
0.0
  0
LINE
  5
28B
  8
0
  6
CENTER
 62
     7
 10
23.32511934410545
 20
-29.3383880909576
 30
0.0
 11
135.1367574915176
 21
35.21608415988079
 31
0.0
  0
LINE
  5
28C
  8
0
  6
CENTER
 62
     7
 10
22.89501594487791
 20
100.0188880117198
 30
0.0
 11
99.29950919294564
 21
55.9067381412466
 31
0.0
  0
LINE
  5
28D
  8
0
  6
CENTER
 62
     7
 10
135.1367630786495
 20
35.21609224926113
 30
0.0
 11
251.6751710382464
 21
-32.0673815235342
 31
0.0
  0
LINE
  5
28E
  8
0
  6
CENTER
 62
     7
 10
170.2107947365085
 20
55.46608676758377
 30
0.0
 11
225.0601678601296
 21
87.13338360672444
 31
0.0
  0
LINE
  5
28F
  8
0
  6
CENTER
 62
     7
 10
178.1204488714059
 20
46.73353462451735
 30
0.0
 11
189.7115438852027
 21
49.83935884126061
 31
0.0
  0
LINE
  5
290
  8
0
  6
CENTER
 62
     7
 10
120.5134919796931
 20
-19.35872167242035
 30
0.0
 11
123.6193204907131
 21
-7.767613301533281
 31
0.0
  0
LINE
  5
291
  8
0
  6
CENTER
 62
     7
 10
95.18522609334335
 20
75.16762881950339
 30
0.0
 11
103.6705073632686
 21
66.68234826483376
 31
0.0
  0
LINE
  5
292
  8
0
  6
CENTER
 62
     7
 10
117.136753601438
 20
107.7160879179382
 30
0.0
 11
153.136753601438
 21
107.7160879179382
 31
0.0
  0
LINE
  5
293
  8
0
  6
CENTER
 62
     7
 10
188.9235992857018
 20
-16.62236224987338
 30
0.0
 11
206.9236014314691
 21
14.55455172679592
 31
0.0
  0
LINE
  5
294
  8
0
  6
CENTER
 62
     7
 10
63.34991698032926
 20
14.55454906285138
 30
0.0
 11
81.34992103344533
 21
-16.62236821744261
 31
0.0
  0
LINE
  5
295
  8
0
  6
CENTER
 62
     7
 10
117.136753601438
 20
137.7160879179381
 30
0.0
 11
153.136753601438
 21
137.7160879179381
 31
0.0
  0
LINE
  5
296
  8
0
  6
CENTER
 62
     7
 10
214.904374147425
 20
-31.62237166740817
 30
0.0
 11
232.9043762931922
 21
-0.4454576907388628
 31
0.0
  0
LINE
  5
297
  8
0
  6
CENTER
 62
     7
 10
37.36915342575597
 20
-0.4454494216632838
 30
0.0
 11
55.36915557152318
 21
-31.62236339833259
 31
0.0
  0
LINE
  5
298
  8
0
  6
CENTER
 62
     7
 10
-104.6655293606671
 20
107.7160802885436
 30
0.0
 11
-45.66552936066711
 21
107.7160802885436
 31
0.0
  0
LINE
  5
299
  8
0
  6
CENTER
 62
     7
 10
-104.6655293606671
 20
137.7160879179381
 30
0.0
 11
-45.66552936066711
 21
137.7160879179381
 31
0.0
  0
LINE
  5
29A
  8
0
  6
CENTER
 62
     7
 10
-116.5700856350812
 20
-15.28391017471324
 30
0.0
 11
-77.38852130402648
 21
-15.28391017471324
 31
0.0
  0
LINE
  5
29B
  8
0
  6
CENTER
 62
     7
 10
-208.7898121975812
 20
35.21608791793813
 30
0.0
 11
-76.66759572146185
 21
35.21608791793813
 31
0.0
  0
LINE
  5
29C
  8
0
  6
CENTER
 62
     7
 10
-209.0494862698468
 20
120.9160848661803
 30
0.0
 11
-191.4922047757062
 21
120.9160848661803
 31
0.0
  0
ARC
  5
29D
  8
0
  6
CENTER
 62
     7
 10
135.136753601438
 20
35.21608791793813
 30
0.0
 40
50.5
 50
8.188568654408424
 51
41.36431887779798
  0
ARC
  5
29E
  8
0
  6
CENTER
 62
     7
 10
135.136753601438
 20
35.21608791793813
 30
0.0
 40
50.5
 50
248.1885533622732
 51
281.36430529321
  0
ARC
  5
29F
  8
0
  6
CENTER
 62
     7
 10
135.136753601438
 20
35.21608791793813
 30
0.0
 40
50.5
 50
128.1885941918275
 51
161.3643392925751
  0
LINE
  5
2A0
  8
0
  6
CENTER
 62
     7
 10
1.716396850949678
 20
35.21608791793813
 30
0.0
 11
268.5571027225317
 21
35.21608791793813
 31
0.0
  0
LINE
  5
2A1
  8
0
  6
CENTER
 62
     7
 10
166.2524629264189
 20
121.716100832859
 30
0.0
 11
190.7170262551798
 21
121.716100832859
 31
0.0
  0
LINE
  5
2A2
  8
0
  6
CENTER
 62
     7
 10
44.66769881658493
 20
18.91309089717308
 30
0.0
 11
32.43541715220445
 21
40.10002423237322
 31
0.0
  0
LINE
  5
2A3
  8
0
  6
CENTER
 62
     7
 10
194.49009906131
 20
-34.98089856723865
 30
0.0
 11
182.2578173969295
 21
-56.1678319024388
 31
0.0
  0
LINE
  5
2A4
  8
0
  6
CENTER
 62
     7
 10
166.2524629264189
 20
121.716100832859
 30
0.0
 11
190.7170262551798
 21
121.716100832859
 31
0.0
  0
ARC
  5
2A5
  8
0
  6
CENTER
 62
     7
 10
135.1367891815893
 20
35.21610092299424
 30
0.0
 40
85.70000011622905
 50
136.2226998257033
 51
163.7772812018006
  0
ARC
  5
2A6
  8
0
  6
CENTER
 62
     7
 10
135.1367193490405
 20
35.21610322273163
 30
0.0
 40
85.70000011622902
 50
16.2226998257033
 51
43.77728120180051
  0
ARC
  5
2A7
  8
0
  6
CENTER
 62
     7
 10
135.1367193490405
 20
35.21610322273163
 30
0.0
 40
85.70000011622904
 50
256.2226998257033
 51
283.7772812018005
  0
LINE
  5
2A8
  8
0
  6
CENTER
 62
     7
 10
-231.6816579007062
 20
-50.48390903030407
 30
0.0
 11
-139.0084779471561
 21
-50.48390903030407
 31
0.0
  0
LINE
  5
2A9
  8
0
  6
CENTER
 62
     7
 10
-46.49653723682692
 20
-19.42046955499351
 30
0.0
 11
-12.77196345636658
 21
0.0504221954606621
 31
0.0
  0
LINE
  5
2AA
  8
0
  6
CONTINUOUS
 62
     3
 10
185.7814139746941
 20
149.4969825117154
 30
0.0
 11
259.4292422732412
 21
21.93521952757817
 31
0.0
  0
LINE
  5
2AB
  8
0
  6
CONTINUOUS
 62
     3
 10
10.84428474668769
 20
21.93521612040718
 30
0.0
 11
84.49210017063004
 21
149.4969568050778
 31
0.0
  0
LINE
  5
2AC
  8
0
  6
CONTINUOUS
 62
     3
 10
111.136753601438
 20
86.71608791793815
 30
0.0
 11
159.136753601438
 21
86.71608791793815
 31
0.0
  0
LINE
  5
2AD
  8
0
  6
CONTINUOUS
 62
     3
 10
78.53646254765582
 20
30.25070341060337
 30
0.0
 11
102.5364682697021
 21
-11.31852018039273
 31
0.0
  0
LINE
  5
2AE
  8
0
  6
CONTINUOUS
 62
     3
 10
167.7370751748179
 20
-11.31852756426553
 30
0.0
 11
191.7370818505385
 21
30.25069767854291
 31
0.0
  0
LINE
  5
2AF
  8
0
  6
CONTINUOUS
 62
     3
 10
111.136753601438
 20
83.71608791793815
 30
0.0
 11
159.136753601438
 21
83.71608791793815
 31
0.0
  0
LINE
  5
2B0
  8
0
  6
CONTINUOUS
 62
     3
 10
165.1389990100954
 20
-9.818527385451596
 30
0.0
 11
189.1390056858161
 21
31.75069785735685
 31
0.0
  0
LINE
  5
2B1
  8
0
  6
CONTINUOUS
 62
     3
 10
81.13453019778004
 20
31.75070307834427
 30
0.0
 11
105.1345378271751
 21
-9.818523816276517
 31
0.0
  0
LINE
  5
2B2
  8
0
  6
CONTINUOUS
 62
     3
 10
111.136753601438
 20
77.65409145797722
 30
0.0
 11
159.136753601438
 21
77.65409145797722
 31
0.0
  0
LINE
  5
2B3
  8
0
  6
CONTINUOUS
 62
     3
 10
159.889159987041
 20
-6.78752218689862
 30
0.0
 11
183.8891666627617
 21
34.78170305590982
 31
0.0
  0
LINE
  5
2B4
  8
0
  6
CONTINUOUS
 62
     3
 10
86.38437398920658
 20
34.78170001783554
 30
0.0
 11
110.3843806649273
 21
-6.787525224972903
 31
0.0
  0
LINE
  5
2B5
  8
0
  6
CONTINUOUS
 62
     3
 10
174.487070140918
 20
0.3728199744535914
 30
0.0
 11
187.6424481009979
 21
-7.222440192950778
 31
0.0
  0
LINE
  5
2B6
  8
0
  6
CONTINUOUS
 62
     3
 10
184.9870695150692
 20
18.55935437920823
 30
0.0
 11
198.1424474751491
 21
10.96409421180385
 31
0.0
  0
LINE
  5
2B7
  8
0
  6
CONTINUOUS
 62
     3
 10
208.2047603644985
 20
5.154615798310147
 30
0.0
 11
224.1232241250125
 21
-4.035912523520544
 31
0.0
  0
LINE
  5
2B8
  8
0
  6
CONTINUOUS
 62
     3
 10
197.7047477758477
 20
-13.03191097705041
 30
0.0
 11
213.6232115363617
 21
-22.22243929888111
 31
0.0
  0
LINE
  5
2B9
  8
0
  6
CONTINUOUS
 62
     3
 10
56.6503101745457
 20
-22.22243791998886
 30
0.0
 11
72.56876567599741
 21
-13.03191436652946
 31
0.0
  0
LINE
  5
2BA
  8
0
  6
CONTINUOUS
 62
     3
 10
82.63108517259664
 20
-7.222432138338711
 30
0.0
 11
95.78645322180185
 21
0.3728223070201011
 31
0.0
  0
LINE
  5
2BB
  8
0
  6
CONTINUOUS
 62
     3
 10
72.13107398022217
 20
10.96409984799527
 30
0.0
 11
85.2864519403021
 21
18.55936001539965
 31
0.0
  0
LINE
  5
2BC
  8
0
  6
CONTINUOUS
 62
     3
 10
46.15030228579613
 20
-4.035904026306348
 30
0.0
 11
62.06877430537239
 21
5.154629063895641
 31
0.0
  0
LINE
  5
2BD
  8
0
  6
CONTINUOUS
 62
     3
 10
124.636753601438
 20
101.9066167875671
 30
0.0
 11
124.636753601438
 21
86.71608791793815
 31
0.0
  0
LINE
  5
2BE
  8
0
  6
CONTINUOUS
 62
     3
 10
124.636753601438
 20
131.9066167875671
 30
0.0
 11
124.636753601438
 21
113.5255590483093
 31
0.0
  0
LINE
  5
2BF
  8
0
  6
CONTINUOUS
 62
     3
 10
145.636753601438
 20
131.9066167875671
 30
0.0
 11
145.636753601438
 21
113.5255590483093
 31
0.0
  0
LINE
  5
2C0
  8
0
  6
CONTINUOUS
 62
     3
 10
145.636753601438
 20
101.9066167875671
 30
0.0
 11
145.636753601438
 21
86.71608791793815
 31
0.0
  0
LINE
  5
2C1
  8
0
  6
CONTINUOUS
 62
     3
 10
181.8482823797265
 20
-3.877171093009217
 30
0.0
 11
192.348283631424
 21
14.30936206004787
 31
0.0
  0
LINE
  5
2C2
  8
0
  6
CONTINUOUS
 62
     3
 10
229.47969194747
 20
-31.37718200066012
 30
0.0
 11
239.9796970138653
 21
-13.19064224035366
 31
0.0
  0
LINE
  5
2C3
  8
0
  6
CONTINUOUS
 62
     3
 10
30.29383378652554
 20
-13.19063775173998
 30
0.0
 11
40.79383694557194
 21
-31.37717420842176
 31
0.0
  0
LINE
  5
2C4
  8
0
  6
CONTINUOUS
 62
     3
 10
124.636753601438
 20
150.2160879179381
 30
0.0
 11
145.636753601438
 21
150.2160879179381
 31
0.0
  0
LINE
  5
2C5
  8
0
  6
CONTINUOUS
 62
     3
 10
124.636753601438
 20
95.21608791793815
 30
0.0
 11
145.636753601438
 21
95.21608791793815
 31
0.0
  0
LINE
  5
2C6
  8
0
  6
CONTINUOUS
 62
     3
 10
61.48894171178952
 20
-65.78391208206188
 30
0.0
 11
208.7845654910864
 21
-65.78391208206188
 31
0.0
  0
LINE
  5
2C7
  8
0
  6
CONTINUOUS
 62
     3
 10
-203.1461354397687
 20
140.2160879179382
 30
0.0
 11
-203.1461354397687
 21
-37.48390903030406
 31
0.0
  0
LINE
  5
2C8
  8
0
  6
CONTINUOUS
 62
     3
 10
-200.6461354397687
 20
-89.78391208206188
 30
0.0
 11
-155.1461354397687
 21
-89.78391208206188
 31
0.0
  0
LINE
  5
2C9
  8
0
  6
CONTINUOUS
 62
     3
 10
-200.6461354397687
 20
160.2160879179381
 30
0.0
 11
-121.6461354397687
 21
160.2160879179381
 31
0.0
  0
LINE
  5
2CA
  8
0
  6
CONTINUOUS
 62
     3
 10
-153.1461354397687
 20
-65.78391208206188
 30
0.0
 11
-83.14613543976867
 21
-65.78391208206188
 31
0.0
  0
LINE
  5
2CB
  8
0
  6
CONTINUOUS
 62
     3
 10
-202.6461354397687
 20
158.2160879179381
 30
0.0
 11
-202.6461354397687
 21
140.2160879179382
 31
0.0
  0
LINE
  5
2CC
  8
0
  6
CONTINUOUS
 62
     3
 10
-202.6461354397687
 20
-69.7839120820619
 30
0.0
 11
-202.6461354397687
 21
-87.78391208206188
 31
0.0
  0
LINE
  5
2CD
  8
0
  6
CONTINUOUS
 62
     3
 10
-202.6461010752053
 20
-87.7838716067655
 30
0.0
 11
-200.6460989520263
 21
-89.7838737299445
 31
0.0
  0
LINE
  5
2CE
  8
0
  6
CONTINUOUS
 62
     3
 10
-202.6461078187008
 20
158.216059112965
 30
0.0
 11
-200.6461083929201
 21
160.2160585387458
 31
0.0
  0
LINE
  5
2CF
  8
0
  6
CONTINUOUS
 62
     3
 10
-153.1461354397687
 20
-65.78391208206188
 30
0.0
 11
-153.1461354397687
 21
-87.78391208206188
 31
0.0
  0
LINE
  5
2D0
  8
0
  6
CONTINUOUS
 62
     3
 10
-83.14612619679298
 20
-65.78390127253101
 30
0.0
 11
-81.14613486320701
 21
-63.78390993894504
 31
0.0
  0
LINE
  5
2D1
  8
0
  6
CONTINUOUS
 62
     3
 10
-121.6461354397687
 20
160.2160879179381
 30
0.0
 11
-121.6461354397687
 21
141.7160879179381
 31
0.0
  0
LINE
  5
2D2
  8
0
  6
CONTINUOUS
 62
     3
 10
-181.6461354397687
 20
152.2160879179381
 30
0.0
 11
-121.6461354397687
 21
152.2160879179381
 31
0.0
  0
LINE
  5
2D3
  8
0
  6
CONTINUOUS
 62
     3
 10
-185.1461354397687
 20
81.71608791793815
 30
0.0
 11
-117.6461354397687
 21
81.71608791793815
 31
0.0
  0
LINE
  5
2D4
  8
0
  6
CONTINUOUS
 62
     3
 10
-185.1461354397687
 20
-11.28391208206187
 30
0.0
 11
-148.1461354397687
 21
-11.28391208206187
 31
0.0
  0
LINE
  5
2D5
  8
0
  6
CONTINUOUS
 62
     3
 10
-93.64613543976867
 20
-24.88390864883433
 30
0.0
 11
-81.14613543976867
 21
-24.88390864883433
 31
0.0
  0
LINE
  5
2D6
  8
0
  6
CONTINUOUS
 62
     3
 10
-106.1461354397687
 20
158.3904501005553
 30
0.0
 11
-106.1461354397687
 21
157.7160879179381
 31
0.0
  0
LINE
  5
2D7
  8
0
  6
CONTINUOUS
 62
     3
 10
-93.64613543976867
 20
158.3904501005553
 30
0.0
 11
-93.64613543976867
 21
157.7160879179381
 31
0.0
  0
LINE
  5
2D8
  8
0
  6
CONTINUOUS
 62
     3
 10
-121.6461354397687
 20
157.7160879179381
 30
0.0
 11
-80.14613543976867
 21
157.7160879179381
 31
0.0
  0
LINE
  5
2D9
  8
0
  6
CONTINUOUS
 62
     3
 10
-106.6461354397687
 20
80.21608028854362
 30
0.0
 11
-93.64613543976867
 21
80.21608028854362
 31
0.0
  0
LINE
  5
2DA
  8
0
  6
CONTINUOUS
 62
     3
 10
-93.64613543976867
 20
158.3904501005553
 30
0.0
 11
-83.14613543976867
 21
158.3904501005553
 31
0.0
  0
LINE
  5
2DB
  8
0
  6
CONTINUOUS
 62
     3
 10
-121.6461354397687
 20
158.3904501005553
 30
0.0
 11
-106.1461354397687
 21
158.3904501005553
 31
0.0
  0
LINE
  5
2DC
  8
0
  6
CONTINUOUS
 62
     3
 10
-79.14613543976867
 20
157.1387411161803
 30
0.0
 11
-79.14613543976867
 21
150.2160879179381
 31
0.0
  0
LINE
  5
2DD
  8
0
  6
CONTINUOUS
 62
     3
 10
-121.6461327876403
 20
90.71919321150224
 30
0.0
 11
-106.6461419479031
 21
80.21608646130724
 31
0.0
  0
LINE
  5
2DE
  8
0
  6
CONTINUOUS
 62
     3
 10
-93.64613543976867
 20
86.71608028854362
 30
0.0
 11
-80.14613543976867
 21
86.71608028854362
 31
0.0
  0
LINE
  5
2DF
  8
0
  6
CONTINUOUS
 62
     3
 10
-93.64613543976867
 20
87.71608028854362
 30
0.0
 11
-93.64613543976867
 21
76.71608791793815
 31
0.0
  0
LINE
  5
2E0
  8
0
  6
CONTINUOUS
 62
     3
 10
-91.14613543976867
 20
157.7160879179381
 30
0.0
 11
-91.14613543976867
 21
150.2160879179381
 31
0.0
  0
LINE
  5
2E1
  8
0
  6
CONTINUOUS
 62
     3
 10
-102.6461354397687
 20
157.7160879179381
 30
0.0
 11
-102.6461354397687
 21
87.71608028854362
 31
0.0
  0
LINE
  5
2E2
  8
0
  6
CONTINUOUS
 62
     3
 10
-102.6461354397687
 20
87.71608028854362
 30
0.0
 11
-93.64613543976867
 21
87.71608028854362
 31
0.0
  0
LINE
  5
2E3
  8
0
  6
CONTINUOUS
 62
     3
 10
-101.6461354397687
 20
95.21608028854362
 30
0.0
 11
-76.64613543976867
 21
95.21608028854362
 31
0.0
  0
LINE
  5
2E4
  8
0
  6
CONTINUOUS
 62
     3
 10
-101.6461354397687
 20
150.2160879179381
 30
0.0
 11
-76.64613543976867
 21
150.2160879179381
 31
0.0
  0
LINE
  5
2E5
  8
0
  6
CONTINUOUS
 62
     3
 10
-101.6461354397687
 20
150.2160879179381
 30
0.0
 11
-101.6461354397687
 21
120.2160802885436
 31
0.0
  0
LINE
  5
2E6
  8
0
  6
CONTINUOUS
 62
     3
 10
-101.6461354397687
 20
120.2160802885436
 30
0.0
 11
-101.6461354397687
 21
95.21608028854362
 31
0.0
  0
LINE
  5
2E7
  8
0
  6
CONTINUOUS
 62
     3
 10
-91.14613543976867
 20
95.21608028854362
 30
0.0
 11
-91.14613543976867
 21
86.71608028854362
 31
0.0
  0
LINE
  5
2E8
  8
0
  6
CONTINUOUS
 62
     3
 10
-76.64613543976867
 20
120.2160802885436
 30
0.0
 11
-76.64613543976867
 21
114.8160787626647
 31
0.0
  0
LINE
  5
2E9
  8
0
  6
CONTINUOUS
 62
     3
 10
-76.64613543976867
 20
150.2160879179381
 30
0.0
 11
-76.64613543976867
 21
144.8160787626647
 31
0.0
  0
LINE
  5
2EA
  8
0
  6
CONTINUOUS
 62
     3
 10
-101.6461354397687
 20
99.71608028854362
 30
0.0
 11
-66.14613543976867
 21
99.71608028854362
 31
0.0
  0
LINE
  5
2EB
  8
0
  6
CONTINUOUS
 62
     3
 10
-101.6461354397687
 20
115.7160802885436
 30
0.0
 11
-66.14613543976867
 21
115.7160802885436
 31
0.0
  0
LINE
  5
2EC
  8
0
  6
CONTINUOUS
 62
     3
 10
-101.6461354397687
 20
129.7160802885436
 30
0.0
 11
-66.14613543976867
 21
129.7160802885436
 31
0.0
  0
LINE
  5
2ED
  8
0
  6
CONTINUOUS
 62
     3
 10
-101.6461354397687
 20
145.7160879179381
 30
0.0
 11
-66.14613543976867
 21
145.7160879179381
 31
0.0
  0
LINE
  5
2EE
  8
0
  6
CONTINUOUS
 62
     3
 10
-66.14613543976867
 20
95.71608028854362
 30
0.0
 11
-50.14613543976867
 21
95.71608028854362
 31
0.0
  0
LINE
  5
2EF
  8
0
  6
CONTINUOUS
 62
     3
 10
-66.14613543976867
 20
119.7160802885436
 30
0.0
 11
-50.14613543976867
 21
119.7160802885436
 31
0.0
  0
LINE
  5
2F0
  8
0
  6
CONTINUOUS
 62
     3
 10
-66.14613543976867
 20
125.7160802885436
 30
0.0
 11
-50.14613543976867
 21
125.7160802885436
 31
0.0
  0
LINE
  5
2F1
  8
0
  6
CONTINUOUS
 62
     3
 10
-66.14613543976867
 20
149.7160879179381
 30
0.0
 11
-50.14613543976867
 21
149.7160879179381
 31
0.0
  0
LINE
  5
2F2
  8
0
  6
CONTINUOUS
 62
     3
 10
-66.14613543976867
 20
119.7160802885436
 30
0.0
 11
-66.14613543976867
 21
95.71608028854362
 31
0.0
  0
LINE
  5
2F3
  8
0
  6
CONTINUOUS
 62
     3
 10
-66.14613543976867
 20
149.7160879179381
 30
0.0
 11
-66.14613543976867
 21
125.7160802885436
 31
0.0
  0
LINE
  5
2F4
  8
0
  6
CONTINUOUS
 62
     3
 10
-101.1461354397687
 20
145.7160879179381
 30
0.0
 11
-101.1461354397687
 21
129.7160802885436
 31
0.0
  0
LINE
  5
2F5
  8
0
  6
CONTINUOUS
 62
     3
 10
-101.1461354397687
 20
115.7160802885436
 30
0.0
 11
-101.1461354397687
 21
99.71608028854362
 31
0.0
  0
LINE
  5
2F6
  8
0
  6
CONTINUOUS
 62
     3
 10
-50.14613543976867
 20
119.7160802885436
 30
0.0
 11
-50.14613543976867
 21
95.71608028854362
 31
0.0
  0
LINE
  5
2F7
  8
0
  6
CONTINUOUS
 62
     3
 10
-50.14613543976867
 20
149.7160879179381
 30
0.0
 11
-50.14613543976867
 21
125.7160802885436
 31
0.0
  0
LINE
  5
2F8
  8
0
  6
CONTINUOUS
 62
     3
 10
-76.64613543976867
 20
130.6160818144225
 30
0.0
 11
-76.64613543976867
 21
120.2160802885436
 31
0.0
  0
LINE
  5
2F9
  8
0
  6
CONTINUOUS
 62
     3
 10
-76.64613543976867
 20
100.6160818144225
 30
0.0
 11
-76.64613543976867
 21
95.21608028854362
 31
0.0
  0
LINE
  5
2FA
  8
0
  6
CONTINUOUS
 62
     3
 10
-80.14613689217214
 20
157.7160947524566
 30
0.0
 11
-79.14614284706323
 21
157.1387479851113
 31
0.0
  0
LINE
  5
2FB
  8
0
  6
CONTINUOUS
 62
     3
 10
-81.64613543976867
 20
81.15893612350456
 30
0.0
 11
-81.64613543976867
 21
-24.88390864883433
 31
0.0
  0
LINE
  5
2FC
  8
0
  6
CONTINUOUS
 62
     3
 10
-105.1461354397687
 20
76.71608791793815
 30
0.0
 11
-105.1461354397687
 21
72.71608791793815
 31
0.0
  0
LINE
  5
2FD
  8
0
  6
CONTINUOUS
 62
     3
 10
-105.1461354397687
 20
-6.283912082061868
 30
0.0
 11
-93.64613543976867
 21
-6.283912082061868
 31
0.0
  0
LINE
  5
2FE
  8
0
  6
CONTINUOUS
 62
     3
 10
-105.1461354397687
 20
76.71608791793815
 30
0.0
 11
-93.64613543976867
 21
76.71608791793815
 31
0.0
  0
LINE
  5
2FF
  8
0
  6
CONTINUOUS
 62
     3
 10
-114.6461354397687
 20
-2.283912082061868
 30
0.0
 11
-81.64613543976867
 21
-2.283912082061868
 31
0.0
  0
LINE
  5
300
  8
0
  6
CONTINUOUS
 62
     3
 10
-114.6461354397687
 20
72.71608791793815
 30
0.0
 11
-81.64613543976867
 21
72.71608791793815
 31
0.0
  0
LINE
  5
301
  8
0
  6
CONTINUOUS
 62
     3
 10
-93.64613543976867
 20
-6.283912082061868
 30
0.0
 11
-93.64613543976867
 21
-12.53391017471324
 31
0.0
  0
LINE
  5
302
  8
0
  6
CONTINUOUS
 62
     3
 10
-93.64613543976867
 20
83.71608791793815
 30
0.0
 11
-92.14613543976867
 21
83.71608791793815
 31
0.0
  0
LINE
  5
303
  8
0
  6
CONTINUOUS
 62
     3
 10
-92.14614019784136
 20
83.71609358497804
 30
0.0
 11
-81.64614325894951
 21
77.65391819557945
 31
0.0
  0
LINE
  5
304
  8
0
  6
CONTINUOUS
 62
     3
 10
-108.6461354397687
 20
-12.78391017471324
 30
0.0
 11
-87.14613543976867
 21
-12.78391017471324
 31
0.0
  0
LINE
  5
305
  8
0
  6
CONTINUOUS
 62
     3
 10
-108.6461354397687
 20
-17.78391017471324
 30
0.0
 11
-87.14613543976867
 21
-17.78391017471324
 31
0.0
  0
LINE
  5
306
  8
0
  6
CONTINUOUS
 62
     3
 10
-113.6461354397687
 20
-17.33390941177378
 30
0.0
 11
-108.6461354397687
 21
-17.33390941177378
 31
0.0
  0
LINE
  5
307
  8
0
  6
CONTINUOUS
 62
     3
 10
-113.6461354397687
 20
-13.23391093765269
 30
0.0
 11
-108.6461354397687
 21
-13.23391093765269
 31
0.0
  0
LINE
  5
308
  8
0
  6
CONTINUOUS
 62
     3
 10
-108.6461354397687
 20
-12.78391017471324
 30
0.0
 11
-108.6461354397687
 21
-17.78391017471324
 31
0.0
  0
LINE
  5
309
  8
0
  6
CONTINUOUS
 62
     3
 10
-87.14613543976867
 20
-10.53391017471324
 30
0.0
 11
-87.14613543976867
 21
-20.03391017471324
 31
0.0
  0
LINE
  5
30A
  8
0
  6
CONTINUOUS
 62
     3
 10
-87.14613543976867
 20
-20.03391017471324
 30
0.0
 11
-81.64613543976867
 21
-20.03391017471324
 31
0.0
  0
LINE
  5
30B
  8
0
  6
CONTINUOUS
 62
     3
 10
-87.14613543976867
 20
-10.53391017471324
 30
0.0
 11
-81.64613543976867
 21
-10.53391017471324
 31
0.0
  0
LINE
  5
30C
  8
0
  6
CONTINUOUS
 62
     3
 10
-87.14613543976867
 20
-11.03391017471324
 30
0.0
 11
-82.14613543976867
 21
-11.03391017471324
 31
0.0
  0
LINE
  5
30D
  8
0
  6
CONTINUOUS
 62
     3
 10
-87.14613543976867
 20
-19.53391017471324
 30
0.0
 11
-82.14613543976867
 21
-19.53391017471324
 31
0.0
  0
LINE
  5
30E
  8
0
  6
CONTINUOUS
 62
     3
 10
-93.64613543976867
 20
-18.03391017471324
 30
0.0
 11
-93.64613543976867
 21
-24.88390864883433
 31
0.0
  0
LINE
  5
30F
  8
0
  6
CONTINUOUS
 62
     3
 10
-82.14613543976867
 20
-11.03391017471324
 30
0.0
 11
-82.14613543976867
 21
-19.53391017471324
 31
0.0
  0
LINE
  5
310
  8
0
  6
CONTINUOUS
 62
     3
 10
-114.8297048286525
 20
-15.28391198324936
 30
0.0
 11
-113.6461376404412
 21
-13.23391376026859
 31
0.0
  0
LINE
  5
311
  8
0
  6
CONTINUOUS
 62
     3
 10
-114.8297213876963
 20
-15.28392555547622
 30
0.0
 11
-113.6461570605082
 21
-17.33391882301998
 31
0.0
  0
LINE
  5
312
  8
0
  6
CONTINUOUS
 62
     3
 10
-93.64613543976867
 20
-12.28391017471324
 30
0.0
 11
-87.14613543976867
 21
-12.28391017471324
 31
0.0
  0
LINE
  5
313
  8
0
  6
CONTINUOUS
 62
     3
 10
-93.64613543976867
 20
-18.28391017471324
 30
0.0
 11
-87.14613543976867
 21
-18.28391017471324
 31
0.0
  0
LINE
  5
314
  8
0
  6
CONTINUOUS
 62
     3
 10
-177.1461354397687
 20
80.71608791793815
 30
0.0
 11
-177.1461354397687
 21
-10.2839197114564
 31
0.0
  0
LINE
  5
315
  8
0
  6
CONTINUOUS
 62
     3
 10
-155.1461354397687
 20
76.46608791793815
 30
0.0
 11
-155.1461354397687
 21
-6.033912082061868
 31
0.0
  0
LINE
  5
316
  8
0
  6
CONTINUOUS
 62
     3
 10
-152.1461354397687
 20
76.46608791793815
 30
0.0
 11
-152.1461354397687
 21
-6.033912082061868
 31
0.0
  0
LINE
  5
317
  8
0
  6
CONTINUOUS
 62
     3
 10
-116.6461354397687
 20
80.71608791793815
 30
0.0
 11
-116.6461354397687
 21
72.46608791793815
 31
0.0
  0
LINE
  5
318
  8
0
  6
CONTINUOUS
 62
     3
 10
-152.1461354397687
 20
68.71608791793813
 30
0.0
 11
-91.14613543976867
 21
68.71608791793813
 31
0.0
  0
LINE
  5
319
  8
0
  6
CONTINUOUS
 62
     3
 10
-152.1461354397687
 20
1.716087917938125
 30
0.0
 11
-91.14613543976867
 21
1.716087917938125
 31
0.0
  0
LINE
  5
31A
  8
0
  6
CONTINUOUS
 62
     3
 10
-155.1461354397687
 20
-6.033912082061868
 30
0.0
 11
-152.1461354397687
 21
-6.033912082061868
 31
0.0
  0
LINE
  5
31B
  8
0
  6
CONTINUOUS
 62
     3
 10
-155.1461354397687
 20
76.46608791793815
 30
0.0
 11
-152.1461354397687
 21
76.46608791793815
 31
0.0
  0
LINE
  5
31C
  8
0
  6
CONTINUOUS
 62
     3
 10
-116.6461354397687
 20
-2.033912082061868
 30
0.0
 11
-116.6461354397687
 21
-10.28391208206187
 31
0.0
  0
LINE
  5
31D
  8
0
  6
CONTINUOUS
 62
     3
 10
-105.1461354397687
 20
-2.283912082061868
 30
0.0
 11
-105.1461354397687
 21
-6.283912082061868
 31
0.0
  0
LINE
  5
31E
  8
0
  6
CONTINUOUS
 62
     3
 10
-176.1461354397687
 20
-4.983912845001321
 30
0.0
 11
-155.1461354397687
 21
-4.983912845001321
 31
0.0
  0
LINE
  5
31F
  8
0
  6
CONTINUOUS
 62
     3
 10
-176.1461354397687
 20
75.41608486618034
 30
0.0
 11
-155.1461354397687
 21
75.41608486618034
 31
0.0
  0
LINE
  5
320
  8
0
  6
CONTINUOUS
 62
     3
 10
-177.1461306500365
 20
80.71607799221343
 30
0.0
 11
-176.146129588447
 21
81.71607905380293
 31
0.0
  0
LINE
  5
321
  8
0
  6
CONTINUOUS
 62
     3
 10
-177.1461114862794
 20
-10.28388881830471
 30
0.0
 11
-176.1460919642794
 21
-11.28389308296448
 31
0.0
  0
LINE
  5
322
  8
0
  6
CONTINUOUS
 62
     3
 10
-176.1461174915765
 20
-4.983932069592463
 30
0.0
 11
-177.1461176259343
 21
-5.983934142707419
 31
0.0
  0
LINE
  5
323
  8
0
  6
CONTINUOUS
 62
     3
 10
-176.1461107066592
 20
75.41607614214664
 30
0.0
 11
-177.1461117682487
 21
76.41607720373614
 31
0.0
  0
LINE
  5
324
  8
0
  6
CONTINUOUS
 62
     3
 10
-176.1461354397687
 20
75.41608486618034
 30
0.0
 11
-176.1461354397687
 21
68.71608791793813
 31
0.0
  0
LINE
  5
325
  8
0
  6
CONTINUOUS
 62
     3
 10
-148.1461354397687
 20
-11.28391208206187
 30
0.0
 11
-105.6461354397686
 21
-11.28391208206187
 31
0.0
  0
LINE
  5
326
  8
0
  6
CONTINUOUS
 62
     3
 10
-176.1461354397687
 20
1.716087917938125
 30
0.0
 11
-176.1461354397687
 21
-4.983912845001321
 31
0.0
  0
LINE
  5
327
  8
0
  6
CONTINUOUS
 62
     3
 10
-114.6461354397687
 20
-2.033912082061868
 30
0.0
 11
-114.6461354397687
 21
-2.283912082061868
 31
0.0
  0
LINE
  5
328
  8
0
  6
CONTINUOUS
 62
     3
 10
-114.6461354397687
 20
72.71608791793815
 30
0.0
 11
-114.6461354397687
 21
72.46608791793815
 31
0.0
  0
LINE
  5
329
  8
0
  6
CONTINUOUS
 62
     3
 10
-116.6461354397687
 20
-2.033912082061868
 30
0.0
 11
-114.6461354397687
 21
-2.033912082061868
 31
0.0
  0
LINE
  5
32A
  8
0
  6
CONTINUOUS
 62
     3
 10
-116.6461354397687
 20
72.46608791793815
 30
0.0
 11
-114.6461354397687
 21
72.46608791793815
 31
0.0
  0
LINE
  5
32B
  8
0
  6
CONTINUOUS
 62
     3
 10
-81.14613543976867
 20
84.30970821823112
 30
0.0
 11
-81.14613543976867
 21
-63.78391208206187
 31
0.0
  0
LINE
  5
32C
  8
0
  6
CONTINUOUS
 62
     3
 10
-153.146132145871
 20
-87.78390667294286
 30
0.0
 11
-155.146123479457
 21
-89.78389800652883
 31
0.0
  0
LINE
  5
32D
  8
0
  6
CONTINUOUS
 62
     3
 10
-203.1461354397687
 20
140.2160879179382
 30
0.0
 11
-202.6461354397687
 21
140.2160879179382
 31
0.0
  0
ARC
  5
32E
  8
0
  6
CONTINUOUS
 62
     3
 10
135.136753601438
 20
35.21608791793813
 30
0.0
 40
60.09999847412109
 50
0.0
 51
29.99999256737682
  0
ARC
  5
32F
  8
0
  6
CONTINUOUS
 62
     3
 10
135.136753601438
 20
35.21608791793813
 30
0.0
 40
60.09999847412109
 50
233.536561328356
 51
270.0
  0
ARC
  5
330
  8
0
  6
CONTINUOUS
 62
     3
 10
135.136753601438
 20
35.21608791793813
 30
0.0
 40
60.09999847412109
 50
353.5365800355859
 51
360.0
  0
CIRCLE
  5
331
  8
0
  6
CONTINUOUS
 62
     3
 10
135.136753601438
 20
35.21608791793813
 30
0.0
 40
37.5
  0
ARC
  5
332
  8
0
  6
CONTINUOUS
 62
     3
 10
76.24702886999265
 20
1.216093639984024
 30
0.0
 40
15.5
 50
347.3576895302952
 51
432.6423198233197
  0
ARC
  5
333
  8
0
  6
CONTINUOUS
 62
     3
 10
194.0264935916723
 20
1.216086010589493
 30
0.0
 40
15.5
 50
107.3577534875283
 51
192.6422890116781
  0
ARC
  5
334
  8
0
  6
CONTINUOUS
 62
     3
 10
135.136753601438
 20
103.2160879179382
 30
0.0
 40
15.5
 50
227.357671676839
 51
312.6423062387318
  0
CIRCLE
  5
335
  8
0
  6
CONTINUOUS
 62
     3
 10
178.8710370487036
 20
60.46608791793813
 30
0.0
 40
5.0
  0
CIRCLE
  5
336
  8
0
  6
CONTINUOUS
 62
     3
 10
91.40247015417234
 20
60.46608791793813
 30
0.0
 40
5.0
  0
CIRCLE
  5
337
  8
0
  6
CONTINUOUS
 62
     3
 10
135.136753601438
 20
-15.28391017471324
 30
0.0
 40
5.0
  0
CIRCLE
  5
338
  8
0
  6
CONTINUOUS
 62
     3
 10
135.136753601438
 20
35.21608791793813
 30
0.0
 40
33.5
  0
ARC
  5
339
  8
0
  6
CONTINUOUS
 62
     3
 10
135.136753601438
 20
35.21608791793813
 30
0.0
 40
60.09999847412109
 50
149.9999950808672
 51
186.4633856997827
  0
LINE
  5
33A
  8
0
  6
CONTINUOUS
 62
     3
 10
181.4867672494111
 20
126.6524410177759
 30
0.0
 11
175.7867628416477
 21
126.6524410177759
 31
0.0
  0
LINE
  5
33B
  8
0
  6
CONTINUOUS
 62
     3
 10
175.7867578259009
 20
126.6524470722165
 30
0.0
 11
172.9367613440649
 21
121.7161084528826
 31
0.0
  0
CIRCLE
  5
33C
  8
0
  6
CONTINUOUS
 62
     3
 10
178.636753601438
 20
121.716100832859
 30
0.0
 40
8.999999731779106
  0
CIRCLE
  5
33D
  8
0
  6
CONTINUOUS
 62
     3
 10
178.636753601438
 20
121.716100832859
 30
0.0
 40
2.400000143051143
  0
CIRCLE
  5
33E
  8
0
  6
CONTINUOUS
 62
     3
 10
178.636753601438
 20
121.716100832859
 30
0.0
 40
3.299999973177911
  0
LINE
  5
33F
  8
0
  6
CONTINUOUS
 62
     3
 10
172.9367703120627
 20
121.7161105371252
 30
0.0
 11
175.7867667938987
 21
116.7797719177913
 31
0.0
  0
LINE
  5
340
  8
0
  6
CONTINUOUS
 62
     3
 10
175.7867628416477
 20
116.7797492038507
 30
0.0
 11
181.4867672494111
 21
116.7797492038507
 31
0.0
  0
CIRCLE
  5
341
  8
0
  6
CONTINUOUS
 62
     3
 10
178.636753601438
 20
121.716100832859
 30
0.0
 40
0.7499999776482589
  0
LINE
  5
342
  8
0
  6
CONTINUOUS
 62
     3
 10
181.4866851460165
 20
116.7797877339295
 30
0.0
 11
184.3366844888754
 21
121.7161313087002
 31
0.0
  0
LINE
  5
343
  8
0
  6
CONTINUOUS
 62
     3
 10
184.3367700882529
 20
121.7160922809606
 30
0.0
 11
181.4867621623254
 21
126.652450722042
 31
0.0
  0
CIRCLE
  5
344
  8
0
  6
CONTINUOUS
 62
     3
 10
38.47555347907533
 20
29.63820122959036
 30
0.0
 40
0.7499999776482588
  0
LINE
  5
345
  8
0
  6
CONTINUOUS
 62
     3
 10
41.32556025149293
 20
34.57447089570676
 30
0.0
 11
35.62556164250398
 21
34.57447094000609
 31
0.0
  0
LINE
  5
346
  8
0
  6
CONTINUOUS
 62
     3
 10
35.62555264182916
 20
34.57456458511135
 30
0.0
 11
32.77554479263065
 21
29.63820609973053
 31
0.0
  0
LINE
  5
347
  8
0
  6
CONTINUOUS
 62
     3
 10
35.6255501216846
 20
24.70185936761814
 30
0.0
 11
41.32554300862788
 21
24.70185932331887
 31
0.0
  0
LINE
  5
348
  8
0
  6
CONTINUOUS
 62
     3
 10
41.32553671962197
 20
24.70186604771149
 30
0.0
 11
44.17553312472936
 21
29.63820471134464
 31
0.0
  0
LINE
  5
349
  8
0
  6
CONTINUOUS
 62
     3
 10
32.77555065322886
 20
29.638215357409
 30
0.0
 11
35.62555285711053
 21
24.70186673860266
 31
0.0
  0
CIRCLE
  5
34A
  8
0
  6
CONTINUOUS
 62
     3
 10
38.47555347907533
 20
29.63820122959036
 30
0.0
 40
8.999999731779104
  0
CIRCLE
  5
34B
  8
0
  6
CONTINUOUS
 62
     3
 10
38.47555347907533
 20
29.63820122959036
 30
0.0
 40
2.400000143051143
  0
CIRCLE
  5
34C
  8
0
  6
CONTINUOUS
 62
     3
 10
38.47555347907533
 20
29.63820122959036
 30
0.0
 40
3.29999997317791
  0
LINE
  5
34D
  8
0
  6
CONTINUOUS
 62
     3
 10
44.17555477170438
 20
29.63821264556524
 30
0.0
 11
41.32555256782271
 21
34.57456126437158
 31
0.0
  0
CIRCLE
  5
34E
  8
0
  6
CONTINUOUS
 62
     3
 10
188.2979537238005
 20
-45.70600889965596
 30
0.0
 40
0.7499999776482587
  0
LINE
  5
34F
  8
0
  6
CONTINUOUS
 62
     3
 10
193.9979528567283
 20
-45.70601327704117
 30
0.0
 11
191.1479564516209
 21
-40.76967461340806
 31
0.0
  0
LINE
  5
350
  8
0
  6
CONTINUOUS
 62
     3
 10
191.1479537726291
 20
-40.76968342204325
 30
0.0
 11
185.4479608856857
 21
-40.76968346634249
 31
0.0
  0
LINE
  5
351
  8
0
  6
CONTINUOUS
 62
     3
 10
191.1479429016738
 20
-50.6423632123914
 30
0.0
 11
193.9979451055555
 21
-45.70601459358509
 31
0.0
  0
LINE
  5
352
  8
0
  6
CONTINUOUS
 62
     3
 10
185.4479380742318
 20
-50.64236370327857
 30
0.0
 11
191.1479538493576
 21
-50.6423636589791
 31
0.0
  0
CIRCLE
  5
353
  8
0
  6
CONTINUOUS
 62
     3
 10
188.2979537238005
 20
-45.70600889965596
 30
0.0
 40
8.999999731779102
  0
CIRCLE
  5
354
  8
0
  6
CONTINUOUS
 62
     3
 10
188.2979537238005
 20
-45.70600889965596
 30
0.0
 40
2.400000143051142
  0
CIRCLE
  5
355
  8
0
  6
CONTINUOUS
 62
     3
 10
188.2979537238005
 20
-45.70600889965596
 30
0.0
 40
3.29999997317791
  0
LINE
  5
356
  8
0
  6
CONTINUOUS
 62
     3
 10
185.4479431909616
 20
-40.76966868662249
 30
0.0
 11
182.59794098708
 21
-45.70601730542882
 31
0.0
  0
CIRCLE
  5
357
  8
0
  6
CONTINUOUS
 62
     3
 10
178.6367536014381
 20
121.716100832859
 30
0.0
 40
0.7499999776482585
  0
LINE
  5
358
  8
0
  6
CONTINUOUS
 62
     3
 10
175.7867578259009
 20
126.6524470722164
 30
0.0
 11
172.936761344065
 21
121.7161084528826
 31
0.0
  0
LINE
  5
359
  8
0
  6
CONTINUOUS
 62
     3
 10
172.9367703120628
 20
121.7161105371252
 30
0.0
 11
175.7867667938987
 21
116.7797719177913
 31
0.0
  0
LINE
  5
35A
  8
0
  6
CONTINUOUS
 62
     3
 10
181.4867672494111
 20
126.6524410177758
 30
0.0
 11
175.7867628416477
 21
126.6524410177758
 31
0.0
  0
LINE
  5
35B
  8
0
  6
CONTINUOUS
 62
     3
 10
184.336770088253
 20
121.7160922809606
 30
0.0
 11
181.4867621623255
 21
126.652450722042
 31
0.0
  0
CIRCLE
  5
35C
  8
0
  6
CONTINUOUS
 62
     3
 10
178.6367536014381
 20
121.716100832859
 30
0.0
 40
8.9999997317791
  0
CIRCLE
  5
35D
  8
0
  6
CONTINUOUS
 62
     3
 10
178.6367536014381
 20
121.716100832859
 30
0.0
 40
2.400000143051142
  0
CIRCLE
  5
35E
  8
0
  6
CONTINUOUS
 62
     3
 10
178.6367536014381
 20
121.716100832859
 30
0.0
 40
3.29999997317791
  0
LINE
  5
35F
  8
0
  6
CONTINUOUS
 62
     3
 10
175.7867628416477
 20
116.7797492038507
 30
0.0
 11
181.4867672494111
 21
116.7797492038507
 31
0.0
  0
LINE
  5
360
  8
0
  6
CONTINUOUS
 62
     3
 10
185.4479704832538
 20
-50.64234408153479
 30
0.0
 11
182.5979740781463
 21
-45.70600541790166
 31
0.0
  0
LINE
  5
361
  8
0
  6
CONTINUOUS
 62
     3
 10
-83.14613875655374
 20
158.3904445616801
 30
0.0
 11
-82.47178211281181
 21
157.7160879179381
 31
0.0
  0
ARC
  5
362
  8
0
  6
CONTINUOUS
 62
     3
 10
135.136753601438
 20
35.21608791793813
 30
0.0
 40
125.0
 50
78.93047502662684
 51
221.0695248861371
  0
ARC
  5
363
  8
0
  6
CONTINUOUS
 62
     3
 10
135.136753601438
 20
35.21608791793813
 30
0.0
 40
125.0
 50
221.0695248861371
 51
318.9304779087511
  0
ARC
  5
364
  8
0
  6
CONTINUOUS
 62
     3
 10
135.136753601438
 20
35.21608791793813
 30
0.0
 40
125.0
 50
318.9304779087511
 51
438.9304750266268
  0
CIRCLE
  5
365
  8
0
  6
CONTINUOUS
 62
     3
 10
60.91841141910405
 20
78.06609812008585
 30
0.0
 40
12.50000058114527
  0
CIRCLE
  5
366
  8
0
  6
CONTINUOUS
 62
     3
 10
60.91841141910405
 20
78.06609812008585
 30
0.0
 40
8.500000223517411
  0
CIRCLE
  5
367
  8
0
  6
CONTINUOUS
 62
     3
 10
209.3550943550565
 20
78.06610519416799
 30
0.0
 40
12.50000058114527
  0
CIRCLE
  5
368
  8
0
  6
CONTINUOUS
 62
     3
 10
209.3550943550565
 20
78.06610519416799
 30
0.0
 40
8.500000223517407
  0
CIRCLE
  5
369
  8
0
  6
CONTINUOUS
 62
     3
 10
135.1367221055098
 20
-50.48389594579644
 30
0.0
 40
12.50000058114527
  0
LINE
  5
36A
  8
0
  6
CONTINUOUS
 62
     3
 10
-228.1461354397687
 20
-58.48390903030406
 30
0.0
 11
-144.1987783444486
 21
-58.48390903030406
 31
0.0
  0
LINE
  5
36B
  8
0
  6
CONTINUOUS
 62
     3
 10
-228.1461354397687
 20
-42.48390903030406
 30
0.0
 11
-147.3170445398649
 21
-42.48390903030406
 31
0.0
  0
LINE
  5
36C
  8
0
  6
CONTINUOUS
 62
     3
 10
-203.1461354397687
 20
-41.98390903030406
 30
0.0
 11
-147.571159650262
 21
-41.98390903030406
 31
0.0
  0
LINE
  5
36D
  8
0
  6
CONTINUOUS
 62
     3
 10
-184.1461354397687
 20
-42.48390903030406
 30
0.0
 11
-184.1461354397687
 21
-58.48390903030406
 31
0.0
  0
LINE
  5
36E
  8
0
  6
CONTINUOUS
 62
     3
 10
-203.1461354397687
 20
-58.98390903030406
 30
0.0
 11
-175.2461415432843
 21
-58.98390903030406
 31
0.0
  0
LINE
  5
36F
  8
0
  6
CONTINUOUS
 62
     3
 10
-175.2461415432843
 20
-58.98390903030406
 30
0.0
 11
-143.3239993233145
 21
-58.98390903030406
 31
0.0
  0
LINE
  5
370
  8
0
  6
CONTINUOUS
 62
     3
 10
-203.1461354397687
 20
-69.7839120820619
 30
0.0
 11
-202.6461354397687
 21
-69.7839120820619
 31
0.0
  0
LINE
  5
371
  8
0
  6
CONTINUOUS
 62
     3
 10
-203.1461354397687
 20
-37.48390903030406
 30
0.0
 11
-203.1461354397687
 21
-42.48390903030406
 31
0.0
  0
LINE
  5
372
  8
0
  6
CONTINUOUS
 62
     3
 10
-203.1461354397687
 20
-58.48390903030406
 30
0.0
 11
-203.1461354397687
 21
-69.7839120820619
 31
0.0
  0
LINE
  5
373
  8
0
  6
CONTINUOUS
 62
     3
 10
-185.1461359762105
 20
102.825589037797
 30
0.0
 11
-185.1461359762105
 21
-32.39341244983058
 31
0.0
  0
LINE
  5
374
  8
0
  6
CONTINUOUS
 62
     3
 10
-203.1461360589668
 20
105.0755837771308
 30
0.0
 11
-185.1461359762105
 21
102.825589037797
 31
0.0
  0
LINE
  5
375
  8
0
  6
CONTINUOUS
 62
     3
 10
-203.1461332884408
 20
-34.64340684284941
 30
0.0
 11
-185.1461359762105
 21
-32.39341244983058
 31
0.0
  0
ARC
  5
376
  8
0
  6
CONTINUOUS
 62
     3
 10
77.11301482023194
 20
68.71611657417205
 30
0.0
 40
10.0
 50
286.8110970901707
 51
373.1888918727844
  0
ARC
  5
377
  8
0
  6
CONTINUOUS
 62
     3
 10
135.1367193490405
 20
-31.78388724052523
 30
0.0
 40
10.0
 50
46.81054379066451
 51
133.1893976266928
  0
ARC
  5
378
  8
0
  6
CONTINUOUS
 62
     3
 10
193.1604238778491
 20
68.71611657417205
 30
0.0
 40
10.0
 50
166.8106948059472
 51
253.1893748137402
  0
ARC
  5
379
  8
0
  6
CONTINUOUS
 62
     3
 10
135.136753601438
 20
35.21608791793813
 30
0.0
 40
60.09999847412109
 50
113.5365953277212
 51
149.9999950808672
  0
ARC
  5
37A
  8
0
  6
CONTINUOUS
 62
     3
 10
135.136753601438
 20
35.21608791793813
 30
0.0
 40
60.09999847412109
 50
263.1974364407018
 51
263.5430588105287
  0
ARC
  5
37B
  8
0
  6
CONTINUOUS
 62
     3
 10
135.136753601438
 20
35.21608791793813
 30
0.0
 40
60.09999847412109
 50
270.0
 51
306.4634234174039
  0
ARC
  5
37C
  8
0
  6
CONTINUOUS
 62
     3
 10
135.136753601438
 20
35.21608791793813
 30
0.0
 40
60.09999847412109
 50
23.19745514793166
 51
23.46107561074202
  0
ARC
  5
37D
  8
0
  6
CONTINUOUS
 62
     3
 10
135.136753601438
 20
35.21608791793813
 30
0.0
 40
60.09999847412109
 50
29.99999256737682
 51
66.46342334161352
  0
LINE
  5
37E
  8
0
  6
CONTINUOUS
 62
     3
 10
36.54862862160044
 20
-39.0242655733359
 30
0.0
 11
21.54862862160044
 21
-13.04350345980273
 31
0.0
  0
LINE
  5
37F
  8
0
  6
CONTINUOUS
 62
     3
 10
36.5486354757135
 20
-39.02426027534143
 30
0.0
 11
43.13709361135207
 21
-45.61271838336962
 31
0.0
  0
LINE
  5
380
  8
0
  6
CONTINUOUS
 62
     3
 10
34.29862862160044
 20
-35.1271512563059
 30
0.0
 11
46.5879847413552
 21
-28.03188819239826
 31
0.0
  0
LINE
  5
381
  8
0
  6
CONTINUOUS
 62
     3
 10
23.79862862160044
 20
-16.94061777683273
 30
0.0
 11
36.0879847413552
 21
-9.845354712925079
 31
0.0
  0
LINE
  5
382
  8
0
  6
CONTINUOUS
 62
     3
 10
21.54863010626846
 20
-13.04350210011196
 30
0.0
 11
19.13708750850233
 21
-4.043502525198555
 31
0.0
  0
LINE
  5
383
  8
0
  6
CONTINUOUS
 62
     3
 10
16.89762772825853
 20
-5.336455232161562
 30
0.0
 11
86.38435566639558
 21
34.7817258480281
 31
0.0
  0
LINE
  5
384
  8
0
  6
CONTINUOUS
 62
     3
 10
40.89762784056498
 20
-46.90567454897451
 30
0.0
 11
110.3843556663956
 21
-6.787493533624961
 31
0.0
  0
LINE
  5
385
  8
0
  6
CONTINUOUS
 62
     3
 10
233.7248421151836
 20
-39.02426496742111
 30
0.0
 11
227.1363851481425
 21
-45.61272190685165
 31
0.0
  0
LINE
  5
386
  8
0
  6
CONTINUOUS
 62
     3
 10
229.3758449283862
 20
-46.9056746138147
 30
0.0
 11
159.8891169902493
 21
-6.787493533624989
 31
0.0
  0
LINE
  5
387
  8
0
  6
CONTINUOUS
 62
     3
 10
248.7248440350444
 20
-13.04350345980284
 30
0.0
 11
233.7248440350444
 21
-39.024265573336
 31
0.0
  0
LINE
  5
388
  8
0
  6
CONTINUOUS
 62
     3
 10
235.9748440350444
 20
-35.12715125630603
 30
0.0
 11
223.6854879152895
 21
-28.03188819239838
 31
0.0
  0
LINE
  5
389
  8
0
  6
CONTINUOUS
 62
     3
 10
246.4748440350444
 20
-16.94061777683285
 30
0.0
 11
234.1854879152895
 21
-9.845354712925165
 31
0.0
  0
LINE
  5
38A
  8
0
  6
CONTINUOUS
 62
     3
 10
248.7248360197902
 20
-13.04350017296408
 30
0.0
 11
251.1363790452928
 21
-4.043499001716661
 31
0.0
  0
LINE
  5
38B
  8
0
  6
CONTINUOUS
 62
     3
 10
253.3758448160799
 20
-5.336455167321525
 30
0.0
 11
183.8891169902493
 21
34.78172584802804
 31
0.0
  0
LINE
  5
38C
  8
0
  6
CONTINUOUS
 62
     3
 10
159.1367363283225
 20
157.8904689231501
 30
0.0
 11
159.1367363283224
 21
77.65410676277071
 31
0.0
  0
LINE
  5
38D
  8
0
  6
CONTINUOUS
 62
     3
 10
145.6367363283225
 20
157.7161081103126
 30
0.0
 11
145.6367363283225
 21
143.5255819824973
 31
0.0
  0
LINE
  5
38E
  8
0
  6
CONTINUOUS
 62
     3
 10
120.1367363283225
 20
157.7161081103125
 30
0.0
 11
150.1367363283225
 21
157.7161081103125
 31
0.0
  0
LINE
  5
38F
  8
0
  6
CONTINUOUS
 62
     3
 10
150.1367367635152
 20
157.7161061447069
 30
0.0
 11
159.1367363283225
 21
155.304563509224
 31
0.0
  0
LINE
  5
390
  8
0
  6
CONTINUOUS
 62
     3
 10
120.1367374894639
 20
157.7160995254793
 30
0.0
 11
111.1367363283225
 21
155.3045564622601
 31
0.0
  0
LINE
  5
391
  8
0
  6
CONTINUOUS
 62
     3
 10
111.1367363283224
 20
157.8904687934698
 30
0.0
 11
111.1367363283224
 21
77.65410676277074
 31
0.0
  0
LINE
  5
392
  8
0
  6
CONTINUOUS
 62
     3
 10
124.6367363283225
 20
157.7161081103126
 30
0.0
 11
124.6367363283225
 21
143.5255819824972
 31
0.0
  0
ARC
  5
393
  8
0
  6
CONTINUOUS
 62
     3
 10
135.1367281325123
 20
35.21609661843368
 30
0.0
 40
123.0
 50
101.2518462285258
 51
113.5984871516801
  0
ARC
  5
394
  8
0
  6
CONTINUOUS
 62
     3
 10
135.1367281325123
 20
35.21609661843368
 30
0.0
 40
123.0
 50
66.40151284831993
 51
78.74815377147426
  0
ARC
  5
395
  8
0
  6
CONTINUOUS
 62
     3
 10
135.136753601438
 20
35.21608191394254
 30
0.0
 40
123.0
 50
186.4015128483199
 51
198.7481537714742
  0
ARC
  5
396
  8
0
  6
CONTINUOUS
 62
     3
 10
135.136753601438
 20
35.21608191394254
 30
0.0
 40
123.0
 50
221.2518462285257
 51
233.5984871516801
  0
ARC
  5
397
  8
0
  6
CONTINUOUS
 62
     3
 10
135.1367281325123
 20
35.21609661843368
 30
0.0
 40
123.0
 50
306.4014714158427
 51
318.7481572623592
  0
ARC
  5
398
  8
0
  6
CONTINUOUS
 62
     3
 10
135.1367281325123
 20
35.21609661843368
 30
0.0
 40
125.0
 50
221.0695248861371
 51
318.9304779087511
  0
ARC
  5
399
  8
0
  6
CONTINUOUS
 62
     3
 10
135.1367281325123
 20
35.21609661843368
 30
0.0
 40
123.0
 50
341.2518513132724
 51
353.5984939573814
  0
LINE
  5
39A
  8
0
  6
CONTINUOUS
 62
     3
 10
-105.6461354397686
 20
-7.283912082061868
 30
0.0
 11
-93.64613543976861
 21
-7.283912082061868
 31
0.0
  0
LINE
  5
39B
  8
0
  6
CONTINUOUS
 62
     3
 10
-105.6461354397686
 20
-7.283912082061868
 30
0.0
 11
-105.6461354397686
 21
-11.28391208206187
 31
0.0
  0
LINE
  5
39C
  8
0
  6
CONTINUOUS
 62
     3
 10
-117.6461354397687
 20
81.71608791793815
 30
0.0
 11
-116.6461354397687
 21
80.71608791793815
 31
0.0
  0
LINE
  5
39D
  8
0
  6
CONTINUOUS
 62
     3
 10
-116.6461354397687
 20
-10.28391208206187
 30
0.0
 11
-117.6461354397687
 21
-11.28391208206187
 31
0.0
  0
LINE
  5
39E
  8
0
  6
CONTINUOUS
 62
     3
 10
-92.14613543976867
 20
72.71608791793815
 30
0.0
 11
-92.14613543976867
 21
-2.283912082061868
 31
0.0
  0
LINE
  5
39F
  8
0
  6
CONTINUOUS
 62
     3
 10
77.92523791945563
 20
14.30936158844954
 30
0.0
 11
88.42523742834763
 21
-3.877168545980219
 31
0.0
  0
LINE
  5
3A0
  8
0
  6
CONTINUOUS
 62
     3
 10
-172.2461413316877
 20
-58.98391233240139
 30
0.0
 11
-172.2461413316877
 21
-88.78391020451562
 31
0.0
  0
LINE
  5
3A1
  8
0
  6
CONTINUOUS
 62
     3
 10
-173.1461504601387
 20
-69.78389884983113
 30
0.0
 11
-163.1461433075816
 21
-69.78389884983113
 31
0.0
  0
LINE
  5
3A2
  8
0
  6
CONTINUOUS
 62
     3
 10
-173.6461657040262
 20
-88.78391020451562
 30
0.0
 11
-173.6461657040262
 21
-89.78391208206188
 31
0.0
  0
LINE
  5
3A3
  8
0
  6
CONTINUOUS
 62
     3
 10
-162.646150951877
 20
-88.78391020451562
 30
0.0
 11
-173.6461657040262
 21
-88.78391020451562
 31
0.0
  0
LINE
  5
3A4
  8
0
  6
CONTINUOUS
 62
     3
 10
-164.0461295478497
 20
-58.98391233240139
 30
0.0
 11
-164.0461295478497
 21
-88.78391020451562
 31
0.0
  0
LINE
  5
3A5
  8
0
  6
CONTINUOUS
 62
     3
 10
-162.646150951877
 20
-88.78391020451562
 30
0.0
 11
-162.646150951877
 21
-89.78391208206188
 31
0.0
  0
LINE
  5
3A6
  8
0
  6
CONTINUOUS
 62
     2
 10
89.36730033868074
 20
61.64108204107709
 30
0.0
 11
91.40246654748765
 21
62.81608292173008
 31
0.0
  0
LINE
  5
3A7
  8
0
  6
CONTINUOUS
 62
     2
 10
91.40247439299154
 20
62.81608393754676
 30
0.0
 11
93.43763119312851
 21
61.64108189906973
 31
0.0
  0
LINE
  5
3A8
  8
0
  6
CONTINUOUS
 62
     2
 10
93.43762640417234
 20
61.64108334030141
 30
0.0
 11
93.43762640417234
 21
59.29108486618032
 31
0.0
  0
LINE
  5
3A9
  8
0
  6
CONTINUOUS
 62
     2
 10
93.43763838145699
 20
59.29108671184111
 30
0.0
 11
91.40247217265008
 21
58.11608576115248
 31
0.0
  0
LINE
  5
3AA
  8
0
  6
CONTINUOUS
 62
     2
 10
91.40246413275534
 20
58.11608500487262
 30
0.0
 11
89.36731007595816
 21
59.2910840154317
 31
0.0
  0
LINE
  5
3AB
  8
0
  6
CONTINUOUS
 62
     2
 10
89.36731390417234
 20
59.29108486618032
 30
0.0
 11
89.36731390417234
 21
61.64108334030141
 31
0.0
  0
LINE
  5
3AC
  8
0
  6
CONTINUOUS
 62
     2
 10
176.835883194249
 20
61.64109539407026
 30
0.0
 11
178.8710494030559
 21
62.81609627472324
 31
0.0
  0
LINE
  5
3AD
  8
0
  6
CONTINUOUS
 62
     2
 10
178.8710219607413
 20
62.81609071252468
 30
0.0
 11
180.9061853681226
 21
61.64108485934128
 31
0.0
  0
LINE
  5
3AE
  8
0
  6
CONTINUOUS
 62
     2
 10
180.9061932987036
 20
61.64108334030141
 30
0.0
 11
180.9061932987036
 21
59.29108486618032
 31
0.0
  0
LINE
  5
3AF
  8
0
  6
CONTINUOUS
 62
     2
 10
180.9062296929506
 20
59.29108993376202
 30
0.0
 11
178.8710634841437
 21
58.11608898307339
 31
0.0
  0
LINE
  5
3B0
  8
0
  6
CONTINUOUS
 62
     2
 10
178.8710256617754
 20
58.11607579562304
 30
0.0
 11
176.8358616941089
 21
59.2910805282362
 31
0.0
  0
LINE
  5
3B1
  8
0
  6
CONTINUOUS
 62
     2
 10
176.8358807987036
 20
59.29108486618032
 30
0.0
 11
176.8358807987036
 21
61.64108334030141
 31
0.0
  0
LINE
  5
3B2
  8
0
  6
CONTINUOUS
 62
     2
 10
133.1015957161535
 20
-14.108911491713
 30
0.0
 11
135.1367619249604
 21
-12.93391061106001
 31
0.0
  0
LINE
  5
3B3
  8
0
  6
CONTINUOUS
 62
     2
 10
135.1367437734346
 20
-12.93390597037534
 30
0.0
 11
137.1719071808159
 21
-14.10891182355874
 31
0.0
  0
LINE
  5
3B4
  8
0
  6
CONTINUOUS
 62
     2
 10
137.171909851438
 20
-14.10891475234995
 30
0.0
 11
137.171909851438
 21
-16.45891322647105
 31
0.0
  0
LINE
  5
3B5
  8
0
  6
CONTINUOUS
 62
     2
 10
137.1719350036422
 20
-16.45891972060974
 30
0.0
 11
135.1367687948353
 21
-17.63392067129836
 31
0.0
  0
LINE
  5
3B6
  8
0
  6
CONTINUOUS
 62
     2
 10
135.1367533539826
 20
-17.63391224588587
 30
0.0
 11
133.1015893863162
 21
-16.45890751327271
 31
0.0
  0
LINE
  5
3B7
  8
0
  6
CONTINUOUS
 62
     2
 10
133.101597351438
 20
-16.45890941177378
 30
0.0
 11
133.101597351438
 21
-14.10891093765269
 31
0.0
  0
LINE
  5
3B8
  8
0
  6
CONTINUOUS
 62
     2
 10
128.0786649894385
 20
141.7911026469663
 30
0.0
 11
135.1367709897991
 21
145.8660920656574
 31
0.0
  0
LINE
  5
3B9
  8
0
  6
CONTINUOUS
 62
     2
 10
135.1367856583084
 20
145.8661042823372
 30
0.0
 11
142.1948880645855
 21
141.7910928322829
 31
0.0
  0
LINE
  5
3BA
  8
0
  6
CONTINUOUS
 62
     2
 10
142.194859070188
 20
141.7910848661803
 30
0.0
 11
142.194859070188
 21
133.6410833403014
 31
0.0
  0
LINE
  5
3BB
  8
0
  6
CONTINUOUS
 62
     2
 10
142.194856570485
 20
133.6410720019866
 30
0.0
 11
135.1367505701244
 21
129.5660823404068
 31
0.0
  0
LINE
  5
3BC
  8
0
  6
CONTINUOUS
 62
     2
 10
135.1367322582239
 20
129.5660843082368
 30
0.0
 11
128.0786340303032
 21
133.6410870858089
 31
0.0
  0
LINE
  5
3BD
  8
0
  6
CONTINUOUS
 62
     2
 10
128.078648132688
 20
133.641090969696
 30
0.0
 11
128.078648132688
 21
141.7911001249694
 31
0.0
  0
LINE
  5
3BE
  8
0
  6
CONTINUOUS
 62
     2
 10
128.0786674155394
 20
111.7911046971357
 30
0.0
 11
135.1367734159
 21
115.8660941158268
 31
0.0
  0
LINE
  5
3BF
  8
0
  6
CONTINUOUS
 62
     2
 10
135.1367906460114
 20
115.8661139397576
 30
0.0
 11
142.1948831414227
 21
111.7911082117643
 31
0.0
  0
LINE
  5
3C0
  8
0
  6
CONTINUOUS
 62
     2
 10
142.194859070188
 20
111.7910772367858
 30
0.0
 11
142.194859070188
 21
103.6410833403014
 31
0.0
  0
LINE
  5
3C1
  8
0
  6
CONTINUOUS
 62
     2
 10
142.1948569098555
 20
103.6410785605621
 30
0.0
 11
135.136750909495
 21
99.56608889898226
 31
0.0
  0
LINE
  5
3C2
  8
0
  6
CONTINUOUS
 62
     2
 10
135.1367396617327
 20
99.56608767107801
 30
0.0
 11
128.0786381301889
 21
103.6410923560015
 31
0.0
  0
LINE
  5
3C3
  8
0
  6
CONTINUOUS
 62
     2
 10
128.078648132688
 20
103.641090969696
 30
0.0
 11
128.078648132688
 21
111.7910924955749
 31
0.0
  0
LINE
  5
3C4
  8
0
  6
CONTINUOUS
 62
     2
 10
190.8655013711207
 20
3.041096027028175
 30
0.0
 11
197.9236073714813
 21
7.11608544571925
 31
0.0
  0
LINE
  5
3C5
  8
0
  6
CONTINUOUS
 62
     2
 10
197.923638611994
 20
7.116086949397754
 30
0.0
 11
204.9817344110273
 21
3.041079314050762
 31
0.0
  0
LINE
  5
3C6
  8
0
  6
CONTINUOUS
 62
     2
 10
204.9817090457739
 20
3.041076283111465
 30
0.0
 11
204.9817090457739
 21
-5.108922381744485
 31
0.0
  0
LINE
  5
3C7
  8
0
  6
CONTINUOUS
 62
     2
 10
204.9816992392778
 20
-5.108907613840636
 30
0.0
 11
197.9235932389172
 21
-9.183897275420456
 31
0.0
  0
LINE
  5
3C8
  8
0
  6
CONTINUOUS
 62
     2
 10
197.9235916262453
 20
-9.183908058968079
 30
0.0
 11
190.8654933983246
 21
-5.108905281395998
 31
0.0
  0
LINE
  5
3C9
  8
0
  6
CONTINUOUS
 62
     2
 10
190.8654981082739
 20
-5.108909030304055
 30
0.0
 11
190.8654981082739
 21
3.041089634551895
 31
0.0
  0
LINE
  5
3CA
  8
0
  6
CONTINUOUS
 62
     2
 10
216.8462643715941
 20
-11.95889990632178
 30
0.0
 11
223.9043703719547
 21
-7.883910487630708
 31
0.0
  0
LINE
  5
3CB
  8
0
  6
CONTINUOUS
 62
     2
 10
223.9044016897899
 20
-7.883912746204366
 30
0.0
 11
230.9624974888232
 21
-11.95892038155136
 31
0.0
  0
LINE
  5
3CC
  8
0
  6
CONTINUOUS
 62
     2
 10
230.9624677127661
 20
-11.95892467056284
 30
0.0
 11
230.9624677127661
 21
-20.10892238174449
 31
0.0
  0
LINE
  5
3CD
  8
0
  6
CONTINUOUS
 62
     2
 10
230.9624591993473
 20
-20.1088964929014
 30
0.0
 11
223.9043531989867
 21
-24.18388615448122
 31
0.0
  0
LINE
  5
3CE
  8
0
  6
CONTINUOUS
 62
     2
 10
223.9043522006025
 20
-24.18390969490167
 30
0.0
 11
216.8462539726818
 21
-20.10890691732958
 31
0.0
  0
LINE
  5
3CF
  8
0
  6
CONTINUOUS
 62
     2
 10
216.8462567752661
 20
-20.10890712295542
 30
0.0
 11
216.8462567752661
 21
-11.95890941177378
 31
0.0
  0
LINE
  5
3D0
  8
0
  6
CONTINUOUS
 62
     2
 10
65.29181334724106
 20
3.041094350510775
 30
0.0
 11
72.34993256210854
 21
7.116091398582285
 31
0.0
  0
LINE
  5
3D1
  8
0
  6
CONTINUOUS
 62
     2
 10
72.3499392791023
 20
7.116092832714116
 30
0.0
 11
79.4080317745136
 21
3.041087104720759
 31
0.0
  0
LINE
  5
3D2
  8
0
  6
CONTINUOUS
 62
     2
 10
79.40802435339109
 20
3.041083912505997
 30
0.0
 11
79.40802435339109
 21
-5.108914752349953
 31
0.0
  0
LINE
  5
3D3
  8
0
  6
CONTINUOUS
 62
     2
 10
79.40800413323589
 20
-5.10891113508125
 30
0.0
 11
72.34989813287533
 21
-9.183900796661071
 31
0.0
  0
LINE
  5
3D4
  8
0
  6
CONTINUOUS
 62
     2
 10
72.34990476806777
 20
-9.183904120828736
 30
0.0
 11
65.29180323652398
 21
-5.108899435905293
 31
0.0
  0
LINE
  5
3D5
  8
0
  6
CONTINUOUS
 62
     2
 10
65.29181341589109
 20
-5.108901400909524
 30
0.0
 11
65.29181341589109
 21
3.041097263946426
 31
0.0
  0
LINE
  5
3D6
  8
0
  6
CONTINUOUS
 62
     2
 10
39.31104374720647
 20
-11.95889966243487
 30
0.0
 11
46.36915965844722
 21
-7.883904521708466
 31
0.0
  0
LINE
  5
3D7
  8
0
  6
CONTINUOUS
 62
     2
 10
46.36917097123049
 20
-7.883907882539312
 30
0.0
 11
53.42727007388569
 21
-11.95891742523994
 31
0.0
  0
LINE
  5
3D8
  8
0
  6
CONTINUOUS
 62
     2
 10
53.42725805700437
 20
-11.95891704116831
 30
0.0
 11
53.42725805700437
 21
-20.10891475234995
 31
0.0
  0
LINE
  5
3D9
  8
0
  6
CONTINUOUS
 62
     2
 10
53.42724469961402
 20
-20.10890457736036
 30
0.0
 11
46.36913539562673
 21
-24.1838961462854
 31
0.0
  0
LINE
  5
3DA
  8
0
  6
CONTINUOUS
 62
     2
 10
46.36914093685155
 20
-24.18390232755029
 30
0.0
 11
39.31103610168466
 21
-20.10889573527549
 31
0.0
  0
LINE
  5
3DB
  8
0
  6
CONTINUOUS
 62
     2
 10
39.31104711950437
 20
-20.10889949356089
 30
0.0
 11
39.31104711950437
 21
-11.95890178237925
 31
0.0
  0
CIRCLE
  5
3DC
  8
0
  6
CONTINUOUS
 62
     2
 10
91.40247015417234
 20
60.46608791793813
 30
0.0
 40
4.25
  0
CIRCLE
  5
3DD
  8
0
  6
CONTINUOUS
 62
     2
 10
178.8710370487036
 20
60.46608791793813
 30
0.0
 40
4.25
  0
CIRCLE
  5
3DE
  8
0
  6
CONTINUOUS
 62
     2
 10
135.136753601438
 20
-15.28391017471324
 30
0.0
 40
4.25
  0
CIRCLE
  5
3DF
  8
0
  6
CONTINUOUS
 62
     2
 10
135.136753601438
 20
137.7160879179381
 30
0.0
 40
12.0
  0
CIRCLE
  5
3E0
  8
0
  6
CONTINUOUS
 62
     2
 10
135.136753601438
 20
107.7160879179382
 30
0.0
 40
12.0
  0
CIRCLE
  5
3E1
  8
0
  6
CONTINUOUS
 62
     2
 10
197.9236035770239
 20
-1.033913989410507
 30
0.0
 40
12.0
  0
CIRCLE
  5
3E2
  8
0
  6
CONTINUOUS
 62
     2
 10
223.9043622440161
 20
-16.0339139894105
 30
0.0
 40
12.0
  0
CIRCLE
  5
3E3
  8
0
  6
CONTINUOUS
 62
     2
 10
72.34991888464109
 20
-1.033906360015976
 30
0.0
 40
12.0
  0
CIRCLE
  5
3E4
  8
0
  6
CONTINUOUS
 62
     2
 10
46.36915258825437
 20
-16.03390636001597
 30
0.0
 40
12.0
  0
LINE
  5
3E5
  8
0
  6
DASHED2
 62
     7
 10
-81.14613543976867
 20
156.390441244895
 30
0.0
 11
-81.14613543976867
 21
153.7977055189576
 31
0.0
  0
LINE
  5
3E6
  8
0
  6
DASHED2
 62
     7
 10
-82.47178211281181
 20
157.7160879179381
 30
0.0
 11
-81.14613543976867
 21
156.390441244895
 31
0.0
  0
LINE
  5
3E7
  8
0
  6
DASHED2
 62
     7
 10
-203.1461354397687
 20
133.0160848661803
 30
0.0
 11
-195.1461354397687
 21
133.0160848661803
 31
0.0
  0
LINE
  5
3E8
  8
0
  6
DASHED2
 62
     7
 10
-203.1461354397687
 20
108.8160848661803
 30
0.0
 11
-195.1461354397687
 21
108.8160848661803
 31
0.0
  0
LINE
  5
3E9
  8
0
  6
DASHED2
 62
     7
 10
-195.1461354397687
 20
133.0160848661803
 30
0.0
 11
-195.1461354397687
 21
108.8160848661803
 31
0.0
  0
LINE
  5
3EA
  8
0
  6
DASHED2
 62
     7
 10
46.85654583221563
 20
-53.28024621863967
 30
0.0
 11
73.33394562256879
 21
-37.99351232223797
 31
0.0
  0
LINE
  5
3EB
  8
0
  6
DASHED2
 62
     7
 10
43.13709361135207
 20
-45.61271838336962
 30
0.0
 11
49.35952464256562
 21
-51.83514938850656
 31
0.0
  0
LINE
  5
3EC
  8
0
  6
DASHED2
 62
     7
 10
19.13708750850233
 20
-4.043502525198555
 30
0.0
 11
16.85951927262809
 21
4.456497920031474
 31
0.0
  0
LINE
  5
3ED
  8
0
  6
DASHED2
 62
     7
 10
14.35654583221563
 20
3.01140502734885
 30
0.0
 11
39.7570828878917
 21
17.67641193400446
 31
0.0
  0
LINE
  5
3EE
  8
0
  6
DASHED2
 62
     7
 10
28.29377602876335
 20
-9.726529328194182
 30
0.0
 11
54.27453814229651
 21
5.273470671805804
 31
0.0
  0
LINE
  5
3EF
  8
0
  6
DASHED2
 62
     7
 10
21.41463812380736
 20
-12.543523560399
 30
0.0
 11
68.49698111453077
 21
14.63947683614297
 31
0.0
  0
LINE
  5
3F0
  8
0
  6
DASHED2
 62
     7
 10
54.27453814229651
 20
5.273470671805804
 30
0.0
 11
73.32709702555414
 21
16.27347067180579
 31
0.0
  0
LINE
  5
3F1
  8
0
  6
DASHED2
 62
     7
 10
73.32708313454828
 20
16.27348282234714
 30
0.0
 11
77.42516369637627
 21
15.17540544528765
 31
0.0
  0
ARC
  5
3F2
  8
0
  6
DASHED2
 62
     7
 10
76.24697000663196
 20
1.216102316931419
 30
0.0
 40
15.5
 50
72.64230623873172
 51
120.0
  0
LINE
  5
3F3
  8
0
  6
DASHED2
 62
     7
 10
88.92517192650115
 20
-4.743195372963534
 30
0.0
 11
87.82708936780617
 21
-8.841274546376496
 31
0.0
  0
ARC
  5
3F4
  8
0
  6
DASHED2
 62
     7
 10
76.24699222242963
 20
1.216063838036895
 30
0.0
 40
15.5
 50
299.999994517931
 51
347.3576882791992
  0
LINE
  5
3F5
  8
0
  6
DASHED2
 62
     7
 10
36.91463683945496
 20
-39.39031181923776
 30
0.0
 11
83.99697983017836
 21
-12.2073114226958
 31
0.0
  0
LINE
  5
3F6
  8
0
  6
DASHED2
 62
     7
 10
42.79377602876335
 20
-34.84126603794292
 30
0.0
 11
87.82708759798337
 21
-8.841271480953473
 31
0.0
  0
LINE
  5
3F7
  8
0
  6
DASHED2
 62
     7
 10
42.79377602876335
 20
-34.84126603794292
 30
0.0
 11
40.79377602876335
 21
-31.37716442280516
 31
0.0
  0
LINE
  5
3F8
  8
0
  6
DASHED2
 62
     7
 10
77.42521132184074
 20
15.17543294186614
 30
0.0
 11
77.92523791945563
 21
14.30936158844954
 31
0.0
  0
LINE
  5
3F9
  8
0
  6
DASHED2
 62
     7
 10
88.92526752017935
 20
-4.743250884208216
 30
0.0
 11
88.42524110830391
 21
-3.877179423554914
 31
0.0
  0
LINE
  5
3FA
  8
0
  6
DASHED2
 62
     7
 10
30.65276925442666
 20
101.8908352118029
 30
0.0
 11
29.73843596098354
 21
102.4187257849013
 31
0.0
  0
LINE
  5
3FB
  8
0
  6
DASHED2
 62
     7
 10
58.92109359676095
 20
83.95340737396376
 30
0.0
 11
29.95271624695077
 21
100.6783078348633
 31
0.0
  0
LINE
  5
3FC
  8
0
  6
DASHED2
 62
     7
 10
46.70406361558261
 20
92.0461539474635
 30
0.0
 11
30.40272081117632
 21
101.4577386037398
 31
0.0
  0
LINE
  5
3FD
  8
0
  6
DASHED2
 62
     7
 10
25.1527618783521
 20
92.36454299443818
 30
0.0
 11
24.23842593798037
 21
92.89243509574155
 31
0.0
  0
LINE
  5
3FE
  8
0
  6
DASHED2
 62
     7
 10
25.1527618783521
 20
92.36454299443818
 30
0.0
 11
30.65276925442666
 21
101.8908352118029
 31
0.0
  0
LINE
  5
3FF
  8
0
  6
DASHED2
 62
     7
 10
54.82117134372206
 20
76.85213294005564
 30
0.0
 11
25.85279205394529
 21
93.57703082539695
 31
0.0
  0
LINE
  5
400
  8
0
  6
DASHED2
 62
     7
 10
41.70413119462792
 20
83.38601695995908
 30
0.0
 11
25.40278748971976
 21
92.79760005652045
 31
0.0
  0
LINE
  5
401
  8
0
  6
DASHED2
 62
     7
 10
46.70406361558261
 20
92.0461539474635
 30
0.0
 11
41.70413119462792
 21
83.38601695995908
 31
0.0
  0
LINE
  5
402
  8
0
  6
CENTER
 62
     7
 10
178.636753601438
 20
134.9303740982481
 30
0.0
 11
178.636753601438
 21
109.4326052389439
 31
0.0
  0
LINE
  5
403
  8
0
  6
CENTER
 62
     7
 10
27.34990107510878
 20
23.21480281925002
 30
0.0
 11
48.13673662215584
 21
35.21608791793813
 31
0.0
  0
LINE
  5
404
  8
0
  6
CENTER
 62
     7
 10
178.636753601438
 20
134.9303740982481
 30
0.0
 11
178.6367536014381
 21
110.2512093367788
 31
0.0
  0
LINE
  5
405
  8
0
  6
CENTER
 62
     7
 10
-168.1461354397687
 20
-54.14839499649985
 30
0.0
 11
-168.1461354397687
 21
-92.92572068492535
 31
0.0
  0
LINE
  5
406
  8
0
  6
CONTINUOUS
 62
     4
 10
-79.14613543976867
 20
95.21608028854362
 30
0.0
 11
-79.14613543976867
 21
94.79342709030144
 31
0.0
  0
LINE
  5
407
  8
0
  6
CONTINUOUS
 62
     4
 10
-101.6461354397687
 20
130.6160818144225
 30
0.0
 11
-66.14613543976867
 21
130.6160818144225
 31
0.0
  0
LINE
  5
408
  8
0
  6
CONTINUOUS
 62
     4
 10
-101.6461354397687
 20
144.8160787626647
 30
0.0
 11
-66.14613543976867
 21
144.8160787626647
 31
0.0
  0
LINE
  5
409
  8
0
  6
CONTINUOUS
 62
     4
 10
-101.6461354397687
 20
100.6160818144225
 30
0.0
 11
-66.14613543976867
 21
100.6160818144225
 31
0.0
  0
LINE
  5
40A
  8
0
  6
CONTINUOUS
 62
     4
 10
-101.6461354397687
 20
114.8160787626647
 30
0.0
 11
-66.14613543976867
 21
114.8160787626647
 31
0.0
  0
LINE
  5
40B
  8
0
  6
CONTINUOUS
 62
     4
 10
-80.14613543976867
 20
157.7160879179381
 30
0.0
 11
-80.14613543976867
 21
150.2160879179381
 31
0.0
  0
LINE
  5
40C
  8
0
  6
CONTINUOUS
 62
     4
 10
-80.14614107076278
 20
86.71609386689917
 30
0.0
 11
-79.14614041840406
 21
87.29344444894147
 31
0.0
  0
LINE
  5
40D
  8
0
  6
CONTINUOUS
 62
     4
 10
-80.14613684260604
 20
88.21608288799578
 30
0.0
 11
-79.14614031977845
 21
88.7934310858524
 31
0.0
  0
LINE
  5
40E
  8
0
  6
CONTINUOUS
 62
     4
 10
-80.14614158082173
 20
89.7160931613532
 30
0.0
 11
-79.14614092846301
 21
90.2934437433955
 31
0.0
  0
LINE
  5
40F
  8
0
  6
CONTINUOUS
 62
     4
 10
-80.14614116736203
 20
91.21608878969963
 30
0.0
 11
-79.14614216681576
 21
91.79343841806767
 31
0.0
  0
LINE
  5
410
  8
0
  6
CONTINUOUS
 62
     4
 10
-80.14614126497446
 20
92.71609293264439
 30
0.0
 11
-79.14614061261574
 21
93.29344351468669
 31
0.0
  0
LINE
  5
411
  8
0
  6
CONTINUOUS
 62
     4
 10
-80.14614415513967
 20
94.21608665364229
 30
0.0
 11
-79.14614185096849
 21
94.79343818935885
 31
0.0
  0
LINE
  5
412
  8
0
  6
CONTINUOUS
 62
     4
 10
-80.14613186466528
 20
94.21608146305485
 30
0.0
 11
-79.14613121230656
 21
93.63873088101255
 31
0.0
  0
LINE
  5
413
  8
0
  6
CONTINUOUS
 62
     4
 10
-80.14613640664294
 20
92.7160886957312
 30
0.0
 11
-79.14614236153403
 21
92.13874192838594
 31
0.0
  0
LINE
  5
414
  8
0
  6
CONTINUOUS
 62
     4
 10
-80.14613624871919
 20
91.21608881008561
 30
0.0
 11
-79.14614220361028
 21
90.63874204274035
 31
0.0
  0
LINE
  5
415
  8
0
  6
CONTINUOUS
 62
     4
 10
-80.14613799814407
 20
89.71608562081511
 30
0.0
 11
-79.14614395303516
 21
89.13873885346985
 31
0.0
  0
LINE
  5
416
  8
0
  6
CONTINUOUS
 62
     4
 10
-80.14613593287191
 20
88.21608903879442
 30
0.0
 11
-79.14614188776301
 21
87.63874227144916
 31
0.0
  0
LINE
  5
417
  8
0
  6
CONTINUOUS
 62
     4
 10
-79.14613543976867
 20
93.63872585739128
 30
0.0
 11
-79.14613543976867
 21
93.29343471969597
 31
0.0
  0
LINE
  5
418
  8
0
  6
CONTINUOUS
 62
     4
 10
-79.14613543976867
 20
92.13873348678581
 30
0.0
 11
-79.14613543976867
 21
91.79342709030144
 31
0.0
  0
LINE
  5
419
  8
0
  6
CONTINUOUS
 62
     4
 10
-79.14613543976867
 20
90.63873348678581
 30
0.0
 11
-79.14613543976867
 21
90.29343471969597
 31
0.0
  0
LINE
  5
41A
  8
0
  6
CONTINUOUS
 62
     4
 10
-79.14613543976867
 20
89.13873348678581
 30
0.0
 11
-79.14613543976867
 21
88.79342709030144
 31
0.0
  0
LINE
  5
41B
  8
0
  6
CONTINUOUS
 62
     4
 10
-79.14613543976867
 20
87.63873348678581
 30
0.0
 11
-79.14613543976867
 21
87.29343471969597
 31
0.0
  0
LINE
  5
41C
  8
0
  6
CONTINUOUS
 62
     4
 10
-113.6461354397687
 20
-13.23391093765269
 30
0.0
 11
-113.6461354397687
 21
-17.33390941177378
 31
0.0
  0
LINE
  5
41D
  8
0
  6
CONTINUOUS
 62
     4
 10
-176.9461384915265
 20
-5.783912082061868
 30
0.0
 11
-155.1461354397687
 21
-5.783912082061868
 31
0.0
  0
LINE
  5
41E
  8
0
  6
CONTINUOUS
 62
     4
 10
-176.9461384915265
 20
76.21608791793815
 30
0.0
 11
-155.1461354397687
 21
76.21608791793815
 31
0.0
  0
LINE
  5
41F
  8
0
  6
CONTINUOUS
 62
     4
 10
-84.64613623806628
 20
-15.98391293416045
 30
0.0
 11
-82.84613638527054
 21
-17.02314321889718
 31
0.0
  0
LINE
  5
420
  8
0
  6
CONTINUOUS
 62
     4
 10
-86.44614282240292
 20
-17.02314372225271
 30
0.0
 11
-84.64614296960718
 21
-15.98391343751597
 31
0.0
  0
LINE
  5
421
  8
0
  6
CONTINUOUS
 62
     4
 10
-83.24614528406579
 20
-15.98391555437569
 30
0.0
 11
-82.84613577297256
 21
-16.21486112776847
 31
0.0
  0
LINE
  5
422
  8
0
  6
CONTINUOUS
 62
     4
 10
-86.4461363848489
 20
-16.21485095364107
 30
0.0
 11
-86.04614669550512
 21
-15.98391682433941
 31
0.0
  0
LINE
  5
423
  8
0
  6
CONTINUOUS
 62
     4
 10
-86.04613240304008
 20
-15.9839117102216
 30
0.0
 11
-82.84613560129202
 21
-17.83143052099933
 31
0.0
  0
LINE
  5
424
  8
0
  6
CONTINUOUS
 62
     4
 10
-86.44614164122692
 20
-16.5612619535293
 30
0.0
 11
-82.84613532838563
 21
-18.63972633769981
 31
0.0
  0
LINE
  5
425
  8
0
  6
CONTINUOUS
 62
     4
 10
-86.4461408572484
 20
-17.36954925563145
 30
0.0
 11
-83.90978944149043
 21
-18.83391226649314
 31
0.0
  0
LINE
  5
426
  8
0
  6
CONTINUOUS
 62
     4
 10
-86.446140584342
 20
-18.17784507233193
 30
0.0
 11
-85.30979933203599
 21
-18.83391192775854
 31
0.0
  0
LINE
  5
427
  8
0
  6
CONTINUOUS
 62
     4
 10
-86.44614830628285
 20
-17.8314381426768
 30
0.0
 11
-83.24613829003516
 21
-15.98391170250499
 31
0.0
  0
LINE
  5
428
  8
0
  6
CONTINUOUS
 62
     4
 10
-86.4461476597499
 20
-18.63972792249762
 30
0.0
 11
-82.84614134690861
 21
-16.56126353832712
 31
0.0
  0
LINE
  5
429
  8
0
  6
CONTINUOUS
 62
     4
 10
-85.38248550888403
 20
-18.83391251431259
 30
0.0
 11
-82.84614070037588
 21
-17.36955331814794
 31
0.0
  0
LINE
  5
42A
  8
0
  6
CONTINUOUS
 62
     4
 10
-83.98248791339876
 20
-18.83391376809242
 30
0.0
 11
-82.84614005384293
 21
-18.17784309796877
 31
0.0
  0
LINE
  5
42B
  8
0
  6
CONTINUOUS
 62
     4
 10
-64.64613982993188
 20
132.4633145225803
 30
0.0
 11
-58.14613228597528
 21
136.2160952132037
 31
0.0
  0
LINE
  5
42C
  8
0
  6
CONTINUOUS
 62
     4
 10
-64.6461385542778
 20
102.4633105600464
 30
0.0
 11
-58.14614071471948
 21
106.2160856478336
 31
0.0
  0
LINE
  5
42D
  8
0
  6
CONTINUOUS
 62
     4
 10
-58.14614200263833
 20
106.2160958295112
 30
0.0
 11
-51.64613445868173
 21
102.4633151388877
 31
0.0
  0
LINE
  5
42E
  8
0
  6
CONTINUOUS
 62
     4
 10
-58.14613855386125
 20
136.2160897277259
 30
0.0
 11
-51.64613761715447
 21
132.4633128517995
 31
0.0
  0
LINE
  5
42F
  8
0
  6
CONTINUOUS
 62
     4
 10
-55.34614306544091
 20
106.2160895669364
 30
0.0
 11
-51.64614263388859
 21
104.079893557789
 31
0.0
  0
LINE
  5
430
  8
0
  6
CONTINUOUS
 62
     4
 10
-52.54614692079628
 20
106.2160937263085
 30
0.0
 11
-51.64613377989878
 21
105.6964709545461
 31
0.0
  0
LINE
  5
431
  8
0
  6
CONTINUOUS
 62
     4
 10
-64.64613986675414
 20
104.0799011205639
 30
0.0
 11
-60.94614645540474
 21
106.2160930765957
 31
0.0
  0
LINE
  5
432
  8
0
  6
CONTINUOUS
 62
     4
 10
-64.64613664698464
 20
105.6964766784424
 30
0.0
 11
-63.74614745736773
 21
106.2160856219281
 31
0.0
  0
LINE
  5
433
  8
0
  6
CONTINUOUS
 62
     4
 10
-55.34613198726976
 20
136.2160966796508
 30
0.0
 11
-51.64613816296725
 21
134.0799044852005
 31
0.0
  0
LINE
  5
434
  8
0
  6
CONTINUOUS
 62
     4
 10
-52.54613305007234
 20
136.2160904170761
 30
0.0
 11
-51.64613973092429
 21
135.6964790894047
 31
0.0
  0
LINE
  5
435
  8
0
  6
CONTINUOUS
 62
     4
 10
-64.64614423955646
 20
134.0799032949585
 30
0.0
 11
-60.94613885256678
 21
136.2161021651286
 31
0.0
  0
LINE
  5
436
  8
0
  6
CONTINUOUS
 62
     4
 10
-64.64613771616206
 20
135.6964807601855
 30
0.0
 11
-63.74613613795174
 21
136.2160968562281
 31
0.0
  0
LINE
  5
437
  8
0
  6
CONTINUOUS
 62
     4
 10
-60.94614666188119
 20
106.2160921812112
 30
0.0
 11
-51.64613861277013
 21
100.8467306238087
 31
0.0
  0
LINE
  5
438
  8
0
  6
CONTINUOUS
 62
     4
 10
-63.74614089917742
 20
106.216091325464
 30
0.0
 11
-51.64613895216172
 21
99.23015271597947
 31
0.0
  0
LINE
  5
439
  8
0
  6
CONTINUOUS
 62
     4
 10
-64.64613646506547
 20
105.1191214416812
 30
0.0
 11
-51.6461345916519
 21
97.61356768982833
 31
0.0
  0
LINE
  5
43A
  8
0
  6
CONTINUOUS
 62
     4
 10
-64.64613210455565
 20
103.5025364155301
 30
0.0
 11
-53.75767512724843
 21
97.21608354316155
 31
0.0
  0
LINE
  5
43B
  8
0
  6
CONTINUOUS
 62
     4
 10
-64.64613435129564
 20
101.8859552040759
 30
0.0
 11
-56.5576844863927
 21
97.21608701318351
 31
0.0
  0
LINE
  5
43C
  8
0
  6
CONTINUOUS
 62
     4
 10
-64.64614320528546
 20
100.2693778073189
 30
0.0
 11
-59.35768723828716
 21
97.21608666850844
 31
0.0
  0
LINE
  5
43D
  8
0
  6
CONTINUOUS
 62
     4
 10
-64.64614354467682
 20
98.65279989948968
 30
0.0
 11
-62.15768147558316
 21
97.21608581276124
 31
0.0
  0
LINE
  5
43E
  8
0
  6
CONTINUOUS
 62
     4
 10
-64.64613847042239
 20
100.8467369095164
 30
0.0
 11
-55.34614012570961
 21
106.2160928640826
 31
0.0
  0
LINE
  5
43F
  8
0
  6
CONTINUOUS
 62
     4
 10
-64.6461369514696
 20
99.23014646820829
 30
0.0
 11
-52.54613273321189
 21
106.2160863889949
 31
0.0
  0
LINE
  5
440
  8
0
  6
CONTINUOUS
 62
     4
 10
-64.64613975828598
 20
97.61357114874832
 30
0.0
 11
-51.64613767839597
 21
105.1191250198105
 31
0.0
  0
LINE
  5
441
  8
0
  6
CONTINUOUS
 62
     4
 10
-62.53460592805828
 20
97.21609194040141
 30
0.0
 11
-51.6461417240717
 21
103.5025489850948
 31
0.0
  0
LINE
  5
442
  8
0
  6
CONTINUOUS
 62
     4
 10
-59.73459709022478
 20
97.2160862997786
 30
0.0
 11
-51.64613731444712
 21
101.8859602127166
 31
0.0
  0
LINE
  5
443
  8
0
  6
CONTINUOUS
 62
     4
 10
-56.9345960882618
 20
97.21609375444618
 30
0.0
 11
-51.64614053421661
 21
100.269384654838
 31
0.0
  0
LINE
  5
444
  8
0
  6
CONTINUOUS
 62
     4
 10
-54.13459076052965
 20
97.21608608726561
 30
0.0
 11
-51.64613942821694
 21
98.65279397511134
 31
0.0
  0
LINE
  5
445
  8
0
  6
CONTINUOUS
 62
     4
 10
-60.94613749105866
 20
136.2160959903007
 30
0.0
 11
-51.64613604919742
 21
130.8467382475953
 31
0.0
  0
LINE
  5
446
  8
0
  6
CONTINUOUS
 62
     4
 10
-63.74614405765016
 20
136.2160890383758
 30
0.0
 11
-51.64614211063446
 21
129.2301504288913
 31
0.0
  0
LINE
  5
447
  8
0
  6
CONTINUOUS
 62
     4
 10
-64.64614241609098
 20
135.1191295765399
 30
0.0
 11
-51.64614054267742
 21
127.6135758246871
 31
0.0
  0
LINE
  5
448
  8
0
  6
CONTINUOUS
 62
     4
 10
-64.64613805558116
 20
133.5025445503888
 30
0.0
 11
-53.75767447102413
 21
127.2160878633232
 31
0.0
  0
LINE
  5
449
  8
0
  6
CONTINUOUS
 62
     4
 10
-64.64614030232116
 20
131.8859633389347
 30
0.0
 11
-56.5576838301684
 21
127.2160913333452
 31
0.0
  0
LINE
  5
44A
  8
0
  6
CONTINUOUS
 62
     4
 10
-64.64614254906115
 20
130.2693821274806
 30
0.0
 11
-59.35768658206285
 21
127.2160909886701
 31
0.0
  0
LINE
  5
44B
  8
0
  6
CONTINUOUS
 62
     4
 10
-64.64613818855133
 20
128.6527971013294
 30
0.0
 11
-62.15768933395731
 21
127.2160906439951
 31
0.0
  0
LINE
  5
44C
  8
0
  6
CONTINUOUS
 62
     4
 10
-64.64613872393221
 20
130.8467238428536
 30
0.0
 11
-55.34612737119625
 21
136.2160873076046
 31
0.0
  0
LINE
  5
44D
  8
0
  6
CONTINUOUS
 62
     4
 10
-64.64614194370171
 20
129.2301482849751
 30
0.0
 11
-52.54612678218638
 21
136.2160945238536
 31
0.0
  0
LINE
  5
44E
  8
0
  6
CONTINUOUS
 62
     4
 10
-64.64614020803384
 20
127.6135755881193
 30
0.0
 11
-51.64614329005764
 21
135.1191264789493
 31
0.0
  0
LINE
  5
44F
  8
0
  6
CONTINUOUS
 62
     4
 10
-62.53459853169699
 20
127.2161009097251
 30
0.0
 11
-51.64614155438977
 21
133.5025537820936
 31
0.0
  0
LINE
  5
450
  8
0
  6
CONTINUOUS
 62
     4
 10
-59.73459196510549
 20
127.2160939578002
 30
0.0
 11
-51.64614210020255
 21
131.8859621486926
 31
0.0
  0
LINE
  5
451
  8
0
  6
CONTINUOUS
 62
     4
 10
-56.93458756139859
 20
127.2160945667994
 30
0.0
 11
-51.64613985346256
 21
130.2693809372385
 31
0.0
  0
LINE
  5
452
  8
0
  6
CONTINUOUS
 62
     4
 10
-54.13458480950413
 20
127.2160942221243
 30
0.0
 11
-51.64613925853502
 21
128.6527987721102
 31
0.0
  0
LINE
  5
453
  8
0
  6
CONTINUOUS
 62
     4
 10
-108.6461354397687
 20
-13.23391093765269
 30
0.0
 11
-87.14613543976867
 21
-13.23391093765269
 31
0.0
  0
LINE
  5
454
  8
0
  6
CONTINUOUS
 62
     4
 10
-108.6461354397687
 20
-17.33390941177378
 30
0.0
 11
-87.14613543976867
 21
-17.33390941177378
 31
0.0
  0
CIRCLE
  5
455
  8
0
  6
CONTINUOUS
 62
     4
 10
122.0663953250708
 20
-13.56316699539195
 30
0.0
 40
2.150000095367432
  0
CIRCLE
  5
456
  8
0
  6
CONTINUOUS
 62
     4
 10
99.4278531497778
 20
70.92498074020375
 30
0.0
 40
2.150000095367432
  0
CIRCLE
  5
457
  8
0
  6
CONTINUOUS
 62
     4
 10
122.0663953250708
 20
-13.56316699539195
 30
0.0
 40
2.5
  0
CIRCLE
  5
458
  8
0
  6
CONTINUOUS
 62
     4
 10
99.4278531497778
 20
70.92498074020375
 30
0.0
 40
2.5
  0
CIRCLE
  5
459
  8
0
  6
CONTINUOUS
 62
     4
 10
183.9160047000708
 20
48.28644619430532
 30
0.0
 40
2.150000095367432
  0
CIRCLE
  5
45A
  8
0
  6
CONTINUOUS
 62
     4
 10
183.9160047000708
 20
48.28644619430532
 30
0.0
 40
2.5
  0
LINE
  5
45B
  8
0
  6
CONTINUOUS
 62
     4
 10
146.1162177181658
 20
88.21608791793815
 30
0.0
 11
158.6583600768885
 21
88.21608791793815
 31
0.0
  0
LINE
  5
45C
  8
0
  6
CONTINUOUS
 62
     4
 10
146.1162177181658
 20
89.71608791793815
 30
0.0
 11
158.6583600768885
 21
89.71608791793815
 31
0.0
  0
LINE
  5
45D
  8
0
  6
CONTINUOUS
 62
     4
 10
146.1162177181658
 20
91.21608791793815
 30
0.0
 11
158.6583600768885
 21
91.21608791793815
 31
0.0
  0
LINE
  5
45E
  8
0
  6
CONTINUOUS
 62
     4
 10
146.1162177181658
 20
92.71608791793815
 30
0.0
 11
158.6583600768885
 21
92.71608791793815
 31
0.0
  0
LINE
  5
45F
  8
0
  6
CONTINUOUS
 62
     4
 10
124.1572894847101
 20
88.21608791793815
 30
0.0
 11
111.6151471259874
 21
88.21608791793815
 31
0.0
  0
LINE
  5
460
  8
0
  6
CONTINUOUS
 62
     4
 10
124.1572894847101
 20
89.71608791793815
 30
0.0
 11
111.6151471259874
 21
89.71608791793815
 31
0.0
  0
LINE
  5
461
  8
0
  6
CONTINUOUS
 62
     4
 10
124.1572894847101
 20
91.21608791793815
 30
0.0
 11
111.6151471259874
 21
91.21608791793815
 31
0.0
  0
LINE
  5
462
  8
0
  6
CONTINUOUS
 62
     4
 10
124.1572894847101
 20
92.71608791793815
 30
0.0
 11
111.6151471259874
 21
92.71608791793815
 31
0.0
  0
LINE
  5
463
  8
0
  6
CONTINUOUS
 62
     4
 10
94.72713405961386
 20
-0.7924159330812586
 30
0.0
 11
100.9982052389752
 21
-11.65422983361604
 31
0.0
  0
LINE
  5
464
  8
0
  6
CONTINUOUS
 62
     4
 10
93.42809595393717
 20
-1.542415933081259
 30
0.0
 11
99.69916713329863
 21
-12.40422983361604
 31
0.0
  0
LINE
  5
465
  8
0
  6
CONTINUOUS
 62
     4
 10
92.1290578482606
 20
-2.292415933081266
 30
0.0
 11
98.40012902762194
 21
-13.15422983361604
 31
0.0
  0
LINE
  5
466
  8
0
  6
CONTINUOUS
 62
     4
 10
90.83001974258391
 20
-3.042415933081266
 30
0.0
 11
97.10109092194526
 21
-13.90422983361604
 31
0.0
  0
LINE
  5
467
  8
0
  6
CONTINUOUS
 62
     4
 10
83.74766994288601
 20
18.2245737569707
 30
0.0
 11
77.47659876352466
 21
29.08638765750548
 31
0.0
  0
LINE
  5
468
  8
0
  6
CONTINUOUS
 62
     4
 10
82.44863183720943
 20
17.4745737569707
 30
0.0
 11
76.17756065784798
 21
28.33638765750548
 31
0.0
  0
LINE
  5
469
  8
0
  6
CONTINUOUS
 62
     4
 10
81.14959373153275
 20
16.7245737569707
 30
0.0
 11
74.8785225521714
 21
27.58638765750548
 31
0.0
  0
LINE
  5
46A
  8
0
  6
CONTINUOUS
 62
     4
 10
79.85055562585606
 20
15.9745737569707
 30
0.0
 11
73.57948444649472
 21
26.83638765750548
 31
0.0
  0
LINE
  5
46B
  8
0
  6
CONTINUOUS
 62
     4
 10
186.5258372599898
 20
18.22457375697067
 30
0.0
 11
192.7969084393513
 21
29.08638765750542
 31
0.0
  0
LINE
  5
46C
  8
0
  6
CONTINUOUS
 62
     4
 10
187.8248753656665
 20
17.47457375697064
 30
0.0
 11
194.0959465450278
 21
28.33638765750545
 31
0.0
  0
LINE
  5
46D
  8
0
  6
CONTINUOUS
 62
     4
 10
189.1239134713432
 20
16.72457375697067
 30
0.0
 11
195.3949846507045
 21
27.58638765750542
 31
0.0
  0
LINE
  5
46E
  8
0
  6
CONTINUOUS
 62
     4
 10
190.4229515770199
 20
15.97457375697064
 30
0.0
 11
196.6940227563812
 21
26.83638765750542
 31
0.0
  0
LINE
  5
46F
  8
0
  6
CONTINUOUS
 62
     4
 10
175.546373143262
 20
-0.792415933081287
 30
0.0
 11
169.2753019639006
 21
-11.65422983361604
 31
0.0
  0
LINE
  5
470
  8
0
  6
CONTINUOUS
 62
     4
 10
176.8454112489386
 20
-1.542415933081287
 30
0.0
 11
170.5743400695773
 21
-12.40422983361606
 31
0.0
  0
LINE
  5
471
  8
0
  6
CONTINUOUS
 62
     4
 10
178.1444493546153
 20
-2.292415933081294
 30
0.0
 11
171.873378175254
 21
-13.15422983361604
 31
0.0
  0
LINE
  5
472
  8
0
  6
CONTINUOUS
 62
     4
 10
179.443487460292
 20
-3.042415933081294
 30
0.0
 11
173.1724162809307
 21
-13.90422983361606
 31
0.0
  0
ARC
  5
473
  8
0
  6
CONTINUOUS
 62
     4
 10
135.136753601438
 20
35.21609141846839
 30
0.0
 40
75.49999584257616
 50
155.1485208367991
 51
191.0644879926484
  0
ARC
  5
474
  8
0
  6
CONTINUOUS
 62
     4
 10
135.136753601438
 20
35.21609141846839
 30
0.0
 40
69.49999602139008
 50
158.0853430569704
 51
189.3585662851677
  0
ARC
  5
475
  8
0
  6
CONTINUOUS
 62
     4
 10
135.136753601438
 20
35.21609141846839
 30
0.0
 40
63.49999620020401
 50
158.3483053400159
 51
187.3048923262849
  0
ARC
  5
476
  8
0
  6
CONTINUOUS
 62
     4
 10
135.136753601438
 20
35.21609141846839
 30
0.0
 40
75.49999584257616
 50
108.9354998650446
 51
144.8514480553037
  0
ARC
  5
477
  8
0
  6
CONTINUOUS
 62
     4
 10
135.136753601438
 20
35.21609141846839
 30
0.0
 40
69.49999602139008
 50
110.6414147423362
 51
158.0853430569704
  0
ARC
  5
478
  8
0
  6
CONTINUOUS
 62
     4
 10
135.136753601438
 20
35.21609141846839
 30
0.0
 40
63.49999620020401
 50
112.6950955314081
 51
158.3483053400159
  0
ARC
  5
479
  8
0
  6
CONTINUOUS
 62
     4
 10
135.136753601438
 20
35.21609141846839
 30
0.0
 40
75.49999584257616
 50
35.14855413428965
 51
71.06448465334422
  0
ARC
  5
47A
  8
0
  6
CONTINUOUS
 62
     4
 10
135.136753601438
 20
35.21609141846839
 30
0.0
 40
69.49999602139008
 50
38.08534313276078
 51
69.3585629458635
  0
ARC
  5
47B
  8
0
  6
CONTINUOUS
 62
     4
 10
135.136753601438
 20
35.21609141846839
 30
0.0
 40
63.49999620020401
 50
38.34830541580627
 51
67.30488898698074
  0
ARC
  5
47C
  8
0
  6
CONTINUOUS
 62
     4
 10
135.136753601438
 20
35.21609141846839
 30
0.0
 40
69.49999602139008
 50
350.6414148181265
 51
398.0853431327608
  0
ARC
  5
47D
  8
0
  6
CONTINUOUS
 62
     4
 10
135.136753601438
 20
35.21609141846839
 30
0.0
 40
63.49999620020401
 50
352.6950956071984
 51
398.3483054158063
  0
ARC
  5
47E
  8
0
  6
CONTINUOUS
 62
     4
 10
135.136753601438
 20
35.21609141846839
 30
0.0
 40
75.49999584257616
 50
348.935499940835
 51
384.851486120466
  0
ARC
  5
47F
  8
0
  6
CONTINUOUS
 62
     4
 10
135.136753601438
 20
35.21609141846839
 30
0.0
 40
75.49999584257616
 50
228.9355000166253
 51
264.8514573304169
  0
ARC
  5
480
  8
0
  6
CONTINUOUS
 62
     4
 10
135.136753601438
 20
35.21609141846839
 30
0.0
 40
69.49999602139008
 50
230.6414080637277
 51
278.0853432085511
  0
ARC
  5
481
  8
0
  6
CONTINUOUS
 62
     4
 10
135.136753601438
 20
35.21609141846839
 30
0.0
 40
63.49999620020401
 50
232.6950956829888
 51
278.3483054915967
  0
ARC
  5
482
  8
0
  6
CONTINUOUS
 62
     4
 10
135.136753601438
 20
35.21609141846839
 30
0.0
 40
63.49999620020401
 50
278.3483054915967
 51
307.3048924778657
  0
ARC
  5
483
  8
0
  6
CONTINUOUS
 62
     4
 10
135.136753601438
 20
35.21609141846839
 30
0.0
 40
69.49999602139008
 50
278.0853432085511
 51
309.3585664367485
  0
ARC
  5
484
  8
0
  6
CONTINUOUS
 62
     4
 10
135.136753601438
 20
35.21609141846839
 30
0.0
 40
75.49999584257616
 50
275.1485005556036
 51
311.0644881442292
  0
LINE
  5
485
  8
0
  6
CONTINUOUS
 62
     4
 10
-228.1461354397687
 20
-43.48390903030406
 30
0.0
 11
-184.1461354397687
 21
-43.48390903030406
 31
0.0
  0
LINE
  5
486
  8
0
  6
CONTINUOUS
 62
     4
 10
-228.1461354397687
 20
-57.48390903030406
 30
0.0
 11
-184.1461354397687
 21
-57.48390903030406
 31
0.0
  0
LINE
  5
487
  8
0
  6
CONTINUOUS
 62
     4
 10
35.83739878564089
 20
-34.79237936159527
 30
0.0
 11
40.05831207944189
 21
-42.10321564080136
 31
0.0
  0
LINE
  5
488
  8
0
  6
CONTINUOUS
 62
     4
 10
37.13643689131769
 20
-34.04237936159527
 30
0.0
 11
43.40750807067903
 21
-44.90419326213004
 31
0.0
  0
LINE
  5
489
  8
0
  6
CONTINUOUS
 62
     4
 10
38.43547499699426
 20
-33.29237936159527
 30
0.0
 11
44.7065461763556
 21
-44.15419326213004
 31
0.0
  0
LINE
  5
48A
  8
0
  6
CONTINUOUS
 62
     4
 10
24.85793466891315
 20
-15.77538967154336
 30
0.0
 11
20.63702137511226
 21
-8.464553392337301
 31
0.0
  0
LINE
  5
48B
  8
0
  6
CONTINUOUS
 62
     4
 10
26.15697277458972
 20
-15.02538967154336
 30
0.0
 11
19.88590159522838
 21
-4.163575771008617
 31
0.0
  0
LINE
  5
48C
  8
0
  6
CONTINUOUS
 62
     4
 10
27.45601088026652
 20
-14.27538967154336
 30
0.0
 11
21.18493970090518
 21
-3.413575771008617
 31
0.0
  0
LINE
  5
48D
  8
0
  6
CONTINUOUS
 62
     4
 10
28.75504898594309
 20
-13.52538967154336
 30
0.0
 11
22.48397780658175
 21
-2.663575771008617
 31
0.0
  0
LINE
  5
48E
  8
0
  6
CONTINUOUS
 62
     4
 10
39.73451310267095
 20
-32.54237936159527
 30
0.0
 11
46.0055842820324
 21
-43.40419326213004
 31
0.0
  0
LINE
  5
48F
  8
0
  6
CONTINUOUS
 62
     4
 10
234.4360738710039
 20
-34.79237936159537
 30
0.0
 11
230.215160577203
 21
-42.10321564080143
 31
0.0
  0
LINE
  5
490
  8
0
  6
CONTINUOUS
 62
     4
 10
233.1370357653272
 20
-34.0423793615954
 30
0.0
 11
226.8659645859658
 21
-44.90419326213014
 31
0.0
  0
LINE
  5
491
  8
0
  6
CONTINUOUS
 62
     4
 10
231.8379976596506
 20
-33.29237936159537
 30
0.0
 11
225.5669264802891
 21
-44.15419326213011
 31
0.0
  0
LINE
  5
492
  8
0
  6
CONTINUOUS
 62
     4
 10
230.5389595539738
 20
-32.54237936159534
 30
0.0
 11
224.2678883746125
 21
-43.40419326213009
 31
0.0
  0
LINE
  5
493
  8
0
  6
CONTINUOUS
 62
     4
 10
245.4155379877317
 20
-15.77538967154347
 30
0.0
 11
249.6364512815325
 21
-8.464553392337386
 31
0.0
  0
LINE
  5
494
  8
0
  6
CONTINUOUS
 62
     4
 10
244.116499882055
 20
-15.02538967154344
 30
0.0
 11
250.3875710614164
 21
-4.16357577100873
 31
0.0
  0
LINE
  5
495
  8
0
  6
CONTINUOUS
 62
     4
 10
242.8174617763783
 20
-14.27538967154342
 30
0.0
 11
249.0885329557397
 21
-3.413575771008702
 31
0.0
  0
LINE
  5
496
  8
0
  6
CONTINUOUS
 62
     4
 10
241.5184236707017
 20
-13.52538967154344
 30
0.0
 11
247.789494850063
 21
-2.663575771008674
 31
0.0
  0
LINE
  5
497
  8
0
  6
CONTINUOUS
 62
     4
 10
146.1162004450504
 20
153.2161081103125
 30
0.0
 11
158.6583428037731
 21
153.2161081103125
 31
0.0
  0
LINE
  5
498
  8
0
  6
CONTINUOUS
 62
     4
 10
146.1162004450503
 20
151.7161081103125
 30
0.0
 11
158.6583428037731
 21
151.7161081103126
 31
0.0
  0
LINE
  5
499
  8
0
  6
CONTINUOUS
 62
     4
 10
146.1162004450504
 20
156.2161081103125
 30
0.0
 11
154.5580270326522
 21
156.2161081103126
 31
0.0
  0
LINE
  5
49A
  8
0
  6
CONTINUOUS
 62
     4
 10
146.1162004450504
 20
154.7161081103126
 30
0.0
 11
158.6583428037731
 21
154.7161081103126
 31
0.0
  0
LINE
  5
49B
  8
0
  6
CONTINUOUS
 62
     4
 10
124.1572722115947
 20
156.2161081103125
 30
0.0
 11
115.7154456239929
 21
156.2161081103126
 31
0.0
  0
LINE
  5
49C
  8
0
  6
CONTINUOUS
 62
     4
 10
124.1572722115947
 20
154.7161081103126
 30
0.0
 11
111.615129852872
 21
154.7161081103126
 31
0.0
  0
LINE
  5
49D
  8
0
  6
CONTINUOUS
 62
     4
 10
124.1572722115947
 20
153.2161081103125
 30
0.0
 11
111.615129852872
 21
153.2161081103126
 31
0.0
  0
LINE
  5
49E
  8
0
  6
CONTINUOUS
 62
     4
 10
124.1572722115947
 20
151.7161081103125
 30
0.0
 11
111.615129852872
 21
151.7161081103125
 31
0.0
  0
LINE
  5
49F
  8
0
  6
CONTINUOUS
 62
     4
 10
-34.2430880563135
 20
-17.10959297815987
 30
0.0
 11
-25.49554311671122
 21
-12.2607498424471
 31
0.0
  0
LINE
  5
4A0
  8
0
  6
CONTINUOUS
 62
     4
 10
-38.36850599337956
 20
-9.964084949175192
 30
0.0
 11
-29.79554151512765
 21
-4.812928238486826
 31
0.0
  0
LINE
  5
4A1
  8
0
  6
CONTINUOUS
 62
     4
 10
-173.1461504601387
 20
-69.78389884983113
 30
0.0
 11
-173.1461504601387
 21
-88.78391020451562
 31
0.0
  0
LINE
  5
4A2
  8
0
  6
CONTINUOUS
 62
     4
 10
-163.1461433075816
 20
-69.78389884983113
 30
0.0
 11
-163.1461433075816
 21
-88.78391020451562
 31
0.0
  0
LINE
  5
4A3
  8
0
  6
CONTINUOUS
 62
     4
 10
61.77198248807025
 20
-164.1846046838419
 30
0.0
 11
-46.22801751192975
 21
-164.1846046838419
 31
0.0
  0
LINE
  5
4A4
  8
0
  6
CONTINUOUS
 62
     4
 10
61.77198248807025
 20
-158.1846046838419
 30
0.0
 11
-46.22801751192975
 21
-158.1846046838419
 31
0.0
  0
LINE
  5
4A5
  8
0
  6
CONTINUOUS
 62
     4
 10
61.77198248807025
 20
-152.1846046838419
 30
0.0
 11
-46.22801751192975
 21
-152.1846046838419
 31
0.0
  0
LINE
  5
4A6
  8
0
  6
CONTINUOUS
 62
     4
 10
61.77198248807025
 20
-146.1846046838419
 30
0.0
 11
-46.22801751192975
 21
-146.1846046838419
 31
0.0
  0
LINE
  5
4A7
  8
0
  6
CONTINUOUS
 62
     4
 10
61.77198248807025
 20
-140.1846046838419
 30
0.0
 11
-46.22801751192975
 21
-140.1846046838419
 31
0.0
  0
LINE
  5
4A8
  8
0
  6
CONTINUOUS
 62
     4
 10
61.77198248807025
 20
-134.1846046838419
 30
0.0
 11
-46.22801751192975
 21
-134.1846046838419
 31
0.0
  0
LINE
  5
4A9
  8
0
  6
CONTINUOUS
 62
     4
 10
61.77198248807025
 20
-128.1846046838419
 30
0.0
 11
-46.22801751192975
 21
-128.1846046838419
 31
0.0
  0
LINE
  5
4AA
  8
0
  6
CONTINUOUS
 62
     4
 10
61.77198248807025
 20
-122.1846046838419
 30
0.0
 11
-46.22801751192975
 21
-122.1846046838419
 31
0.0
  0
LINE
  5
4AB
  8
0
  6
CONTINUOUS
 62
     4
 10
61.77198248807025
 20
-116.1846046838419
 30
0.0
 11
-46.22801751192975
 21
-116.1846046838419
 31
0.0
  0
LINE
  5
4AC
  8
0
  6
CONTINUOUS
 62
     4
 10
61.77198248807025
 20
-110.1846046838419
 30
0.0
 11
-46.22801751192975
 21
-110.1846046838419
 31
0.0
  0
LINE
  5
4AD
  8
0
  6
CONTINUOUS
 62
     4
 10
61.77198248807025
 20
-104.1846046838419
 30
0.0
 11
-46.22801751192975
 21
-104.1846046838419
 31
0.0
  0
LINE
  5
4AE
  8
0
  6
CONTINUOUS
 62
     4
 10
61.77198248807025
 20
-98.18460468384185
 30
0.0
 11
-46.22801751192975
 21
-98.18460468384185
 31
0.0
  0
LINE
  5
4AF
  8
0
  6
CONTINUOUS
 62
     4
 10
-46.22801751192975
 20
-98.18460468384185
 30
0.0
 11
-46.22801751192975
 21
-164.1846046838419
 31
0.0
  0
LINE
  5
4B0
  8
0
  6
CONTINUOUS
 62
     4
 10
25.77198248807024
 20
-98.18460468384185
 30
0.0
 11
25.77198248807024
 21
-164.1846046838419
 31
0.0
  0
LINE
  5
4B1
  8
0
  6
CONTINUOUS
 62
     4
 10
43.77198248807025
 20
-98.18460468384185
 30
0.0
 11
43.77198248807025
 21
-164.1846046838419
 31
0.0
  0
LINE
  5
4B2
  8
0
  6
CONTINUOUS
 62
     4
 10
61.77198248807025
 20
-98.18460468384185
 30
0.0
 11
61.77198248807025
 21
-164.1846046838419
 31
0.0
  0
LINE
  5
4B3
  8
0
  6
CONTINUOUS
 62
     4
 10
-28.22801751192976
 20
-98.18460468384185
 30
0.0
 11
-28.22801751192976
 21
-128.1846046838419
 31
0.0
  0
LINE
  5
4B4
  8
0
  6
CONTINUOUS
 62
     4
 10
-28.22801751192976
 20
-134.1846046838419
 30
0.0
 11
-28.22801751192976
 21
-164.1846046838419
 31
0.0
  0
LINE
  5
4B5
  8
0
  6
CONTINUOUS
 62
     4
 10
-10.22801751192976
 20
-98.18460468384185
 30
0.0
 11
-10.22801751192976
 21
-128.1846046838419
 31
0.0
  0
LINE
  5
4B6
  8
0
  6
CONTINUOUS
 62
     4
 10
-10.22801751192976
 20
-134.1846046838419
 30
0.0
 11
-10.22801751192976
 21
-164.1846046838419
 31
0.0
  0
LINE
  5
4B7
  8
0
  6
CONTINUOUS
 62
     4
 10
7.771982488070243
 20
-98.18460468384185
 30
0.0
 11
7.771982488070243
 21
-128.1846046838419
 31
0.0
  0
LINE
  5
4B8
  8
0
  6
CONTINUOUS
 62
     4
 10
7.771982488070243
 20
-134.1846046838419
 30
0.0
 11
7.771982488070243
 21
-164.1846046838419
 31
0.0
  0
TEXT
  5
4B9
  8
0
 62
     7
 10
-250.1123301432143
 20
-61.63053719969343
 30
0.0
 40
4.0
  1
7ﾟ7′30″
 50
90.0
 41
0.7567567567567569
  7
FDASTYLE1
 72
     5
 11
-250.1123301432143
 21
-39.23053719969342
 31
0.0
  0
TEXT
  5
4BA
  8
0
 62
     7
 10
-223.5505071174976
 20
-102.400732582759
 30
0.0
 40
4.0
  1
MIN16
 41
0.8
  7
FDASTYLE1
 72
     5
 11
-207.5505071174976
 21
-102.400732582759
 31
0.0
  0
TEXT
  5
4BB
  8
0
 62
     7
 10
-22.94412040368076
 20
51.19941486932333
 30
0.0
 40
4.0
  1
MIN 49
 50
90.0
 41
0.7999999999999998
  7
FDASTYLE1
 72
     5
 11
-22.94412040368076
 21
70.39941486932332
 31
0.0
  0
TEXT
  5
4BC
  8
0
 62
     7
 10
-19.83822009782926
 20
98.65331871805151
 30
0.0
 40
4.0
  1
2.5
 41
0.8000000000000002
  7
FDASTYLE1
 72
     5
 11
-10.23822009782926
 21
98.65331871805151
 31
0.0
  0
TEXT
  5
4BD
  8
0
 62
     7
 10
-19.83822009782926
 20
70.14891734664209
 30
0.0
 40
4.0
  1
2.5
 41
0.8000000000000002
  7
FDASTYLE1
 72
     5
 11
-10.23822009782926
 21
70.14891734664209
 31
0.0
  0
TEXT
  5
4BE
  8
0
 62
     7
 10
-50.75596043701883
 20
-168.2041845490815
 30
0.0
 40
3.6
  1
0
 41
0.8000000000000008
  7
FDASTYLE1
 72
     5
 11
-47.87596043701883
 21
-168.2041845490815
 31
0.0
  0
TEXT
  5
4BF
  8
0
 62
     7
 10
-53.59702266452578
 20
-159.8191050581755
 30
0.0
 40
3.6
  1
10
 41
0.7999999999999998
  7
FDASTYLE1
 72
     5
 11
-47.83702266452578
 21
-159.8191050581755
 31
0.0
  0
TEXT
  5
4C0
  8
0
 62
     7
 10
-53.59702266452578
 20
-153.8191050581755
 30
0.0
 40
3.6
  1
20
 41
0.7999999999999998
  7
FDASTYLE1
 72
     5
 11
-47.83702266452578
 21
-153.8191050581755
 31
0.0
  0
TEXT
  5
4C1
  8
0
 62
     7
 10
-53.59702266452578
 20
-147.8191050581755
 30
0.0
 40
3.6
  1
30
 41
0.7999999999999998
  7
FDASTYLE1
 72
     5
 11
-47.83702266452578
 21
-147.8191050581755
 31
0.0
  0
TEXT
  5
4C2
  8
0
 62
     7
 10
-53.59702266452578
 20
-141.8191050581755
 30
0.0
 40
3.6
  1
40
 41
0.7999999999999998
  7
FDASTYLE1
 72
     5
 11
-47.83702266452578
 21
-141.8191050581755
 31
0.0
  0
TEXT
  5
4C3
  8
0
 62
     7
 10
-53.59702266452578
 20
-135.8191050581755
 30
0.0
 40
3.6
  1
50
 41
0.7999999999999998
  7
FDASTYLE1
 72
     5
 11
-47.83702266452578
 21
-135.8191050581755
 31
0.0
  0
TEXT
  5
4C4
  8
0
 62
     7
 10
-53.59702266452578
 20
-129.8191050581755
 30
0.0
 40
3.6
  1
60
 41
0.7999999999999998
  7
FDASTYLE1
 72
     5
 11
-47.83702266452578
 21
-129.8191050581755
 31
0.0
  0
TEXT
  5
4C5
  8
0
 62
     7
 10
-53.59702266452578
 20
-123.8191050581755
 30
0.0
 40
3.6
  1
70
 41
0.7999999999999998
  7
FDASTYLE1
 72
     5
 11
-47.83702266452578
 21
-123.8191050581755
 31
0.0
  0
TEXT
  5
4C6
  8
0
 62
     7
 10
-53.59702266452578
 20
-117.8191050581755
 30
0.0
 40
3.6
  1
80
 41
0.7999999999999998
  7
FDASTYLE1
 72
     5
 11
-47.83702266452578
 21
-117.8191050581755
 31
0.0
  0
TEXT
  5
4C7
  8
0
 62
     7
 10
-53.59702266452578
 20
-111.8191050581755
 30
0.0
 40
3.6
  1
90
 41
0.7999999999999998
  7
FDASTYLE1
 72
     5
 11
-47.83702266452578
 21
-111.8191050581755
 31
0.0
  0
TEXT
  5
4C8
  8
0
 62
     7
 10
-56.43808489203273
 20
-105.8191050581755
 30
0.0
 40
3.6
  1
100
 41
0.8000000000000002
  7
FDASTYLE1
 72
     5
 11
-47.79808489203273
 21
-105.8191050581755
 31
0.0
  0
TEXT
  5
4C9
  8
0
 62
     7
 10
-56.43808489203273
 20
-99.81910505817548
 30
0.0
 40
3.6
  1
110
 41
0.8000000000000002
  7
FDASTYLE1
 72
     5
 11
-47.79808489203273
 21
-99.81910505817548
 31
0.0
  0
TEXT
  5
4CA
  8
0
 62
     7
 10
-58.74562221532504
 20
-140.4005733278719
 30
0.0
 40
4.5
  1
把握力 kN
 50
90.0
 41
0.7272727272727271
  7
FDASTYLE1
 72
     5
 11
-58.74562221532504
 21
-118.8005733278719
 31
0.0
  0
TEXT
  5
4CB
  8
0
 62
     7
 10
-34.38814865112784
 20
-169.9272361778008
 30
0.0
 40
3.6
  1
1000
 41
0.8
  7
FDASTYLE1
 72
     5
 11
-22.86814865112784
 21
-169.9272361778008
 31
0.0
  0
TEXT
  5
4CC
  8
0
 62
     7
 10
-16.38814865112784
 20
-169.9272361778008
 30
0.0
 40
3.6
  1
2000
 41
0.8
  7
FDASTYLE1
 72
     5
 11
-4.868148651127839
 21
-169.9272361778008
 31
0.0
  0
TEXT
  5
4CD
  8
0
 62
     7
 10
1.611851348872163
 20
-169.9272361778008
 30
0.0
 40
3.6
  1
3000
 41
0.8
  7
FDASTYLE1
 72
     5
 11
13.13185134887216
 21
-169.9272361778008
 31
0.0
  0
TEXT
  5
4CE
  8
0
 62
     7
 10
19.61185134887216
 20
-169.9272361778008
 30
0.0
 40
3.6
  1
4000
 41
0.8
  7
FDASTYLE1
 72
     5
 11
31.13185134887216
 21
-169.9272361778008
 31
0.0
  0
TEXT
  5
4CF
  8
0
 62
     7
 10
37.61185134887215
 20
-169.9272361778008
 30
0.0
 40
3.6
  1
5000
 41
0.7999999999999998
  7
FDASTYLE1
 72
     5
 11
49.13185134887215
 21
-169.9272361778008
 31
0.0
  0
TEXT
  5
4D0
  8
0
 62
     7
 10
55.61185134887215
 20
-169.9272361778008
 30
0.0
 40
3.6
  1
6000
 41
0.7999999999999998
  7
FDASTYLE1
 72
     5
 11
67.13185134887215
 21
-169.9272361778008
 31
0.0
  0
TEXT
  5
4D1
  8
0
 62
     7
 10
-9.786352435570219
 20
-179.2160964411558
 30
0.0
 40
4.5
  1
回転速度 min
 41
0.7272727272727274
  7
FDASTYLE1
 72
     5
 11
19.01364756442978
 21
-179.2160964411558
 31
0.0
  0
TEXT
  5
4D2
  8
0
 62
     7
 10
18.43771258598481
 20
-175.8463065330022
 30
0.0
 40
2.25
  1
-1
 41
0.8000000000000003
  7
FDASTYLE1
 72
     5
 11
22.03771258598481
 21
-175.8463065330022
 31
0.0
  0
TEXT
  5
4D3
  8
0
 62
     7
 10
-33.68401166612239
 20
-94.2345167623416
 30
0.0
 40
4.5
  1
把握力特性表（爪の回転モーメント58.3N・ｃｍ）
 41
0.6896551724137932
  7
FDASTYLE1
 72
     5
 11
56.31598833387761
 21
-94.2345167623416
 31
0.0
  0
INSERT
  5
4D4
  8
LAYER0014
  6
CONTINUOUS
  2
DA_IMAGEDIMGROUP_1
 10
0.0
 20
0.0
 30
0.0
  0
INSERT
  5
4D5
  8
LAYER0014
  6
CONTINUOUS
  2
DC_GROUP_1
 10
0.0
 20
0.0
 30
0.0
  0
INSERT
  5
4D6
  8
LAYER0014
  6
CONTINUOUS
  2
DA_IMAGEDIMGROUP_2
 10
0.0
 20
0.0
 30
0.0
  0
INSERT
  5
4D7
  8
LAYER0014
  6
CONTINUOUS
  2
DA_IMAGEDIMGROUP_3
 10
0.0
 20
0.0
 30
0.0
  0
INSERT
  5
4D8
  8
LAYER0014
  6
CONTINUOUS
  2
DA_IMAGEDIMGROUP_4
 10
0.0
 20
0.0
 30
0.0
  0
INSERT
  5
4D9
  8
LAYER0014
  6
CONTINUOUS
  2
DA_IMAGEDIMGROUP_5
 10
0.0
 20
0.0
 30
0.0
  0
INSERT
  5
4DA
  8
LAYER0014
  6
CONTINUOUS
  2
DA_IMAGEDIMGROUP_6
 10
0.0
 20
0.0
 30
0.0
  0
INSERT
  5
4DB
  8
LAYER0014
  6
CONTINUOUS
  2
DA_IMAGEDIMGROUP_7
 10
0.0
 20
0.0
 30
0.0
  0
INSERT
  5
4DC
  8
LAYER0014
  6
CONTINUOUS
  2
DA_IMAGEDIMGROUP_8
 10
0.0
 20
0.0
 30
0.0
  0
INSERT
  5
4DD
  8
LAYER0014
  6
CONTINUOUS
  2
DA_IMAGEDIMGROUP_9
 10
0.0
 20
0.0
 30
0.0
  0
INSERT
  5
4DE
  8
LAYER0014
  6
CONTINUOUS
  2
DA_IMAGEDIMGROUP_10
 10
0.0
 20
0.0
 30
0.0
  0
INSERT
  5
4DF
  8
LAYER0014
  6
CONTINUOUS
  2
DA_IMAGEDIMGROUP_24
 10
0.0
 20
0.0
 30
0.0
  0
INSERT
  5
4E0
  8
0
  6
CONTINUOUS
  2
DA_IMAGEDIMGROUP_11
 10
0.0
 20
0.0
 30
0.0
  0
INSERT
  5
4E1
  8
0
  6
CONTINUOUS
  2
DA_IMAGEDIMGROUP_12
 10
0.0
 20
0.0
 30
0.0
  0
INSERT
  5
4E2
  8
0
  6
CONTINUOUS
  2
DA_IMAGEDIMGROUP_13
 10
0.0
 20
0.0
 30
0.0
  0
INSERT
  5
4E3
  8
0
  6
CONTINUOUS
  2
DA_IMAGEDIMGROUP_14
 10
0.0
 20
0.0
 30
0.0
  0
INSERT
  5
4E4
  8
0
  6
CONTINUOUS
  2
DA_IMAGEDIMGROUP_15
 10
0.0
 20
0.0
 30
0.0
  0
INSERT
  5
4E5
  8
0
  6
CONTINUOUS
  2
DA_IMAGEDIMGROUP_16
 10
0.0
 20
0.0
 30
0.0
  0
INSERT
  5
4E6
  8
0
  6
CONTINUOUS
  2
DA_IMAGEDIMGROUP_17
 10
0.0
 20
0.0
 30
0.0
  0
INSERT
  5
4E7
  8
0
  6
CONTINUOUS
  2
DA_IMAGEDIMGROUP_18
 10
0.0
 20
0.0
 30
0.0
  0
INSERT
  5
4E8
  8
0
  6
CONTINUOUS
  2
DA_IMAGEDIMGROUP_19
 10
0.0
 20
0.0
 30
0.0
  0
INSERT
  5
4E9
  8
0
  6
CONTINUOUS
  2
DC_GROUP_2
 10
0.0
 20
0.0
 30
0.0
  0
INSERT
  5
4EA
  8
0
  6
CONTINUOUS
  2
DA_IMAGEDIMGROUP_20
 10
0.0
 20
0.0
 30
0.0
  0
INSERT
  5
4EB
  8
0
  6
CONTINUOUS
  2
DA_IMAGEDIMGROUP_21
 10
0.0
 20
0.0
 30
0.0
  0
INSERT
  5
4EC
  8
0
  6
CONTINUOUS
  2
DA_IMAGEDIMGROUP_22
 10
0.0
 20
0.0
 30
0.0
  0
INSERT
  5
4ED
  8
0
  6
CONTINUOUS
  2
DA_IMAGEDIMGROUP_23
 10
0.0
 20
0.0
 30
0.0
  0
INSERT
  5
4EE
  8
0
  6
CONTINUOUS
  2
DA_IMAGEDIMGROUP_25
 10
0.0
 20
0.0
 30
0.0
  0
INSERT
  5
4EF
  8
0
  6
CONTINUOUS
  2
DA_IMAGEDIMGROUP_26
 10
0.0
 20
0.0
 30
0.0
  0
INSERT
  5
4F0
  8
0
  6
CONTINUOUS
  2
DC_GROUP_3
 10
0.0
 20
0.0
 30
0.0
  0
INSERT
  5
4F1
  8
0
  6
CONTINUOUS
  2
DA_IMAGEDIMGROUP_27
 10
0.0
 20
0.0
 30
0.0
  0
INSERT
  5
4F2
  8
0
  6
CONTINUOUS
  2
DC_GROUP_4
 10
0.0
 20
0.0
 30
0.0
  0
INSERT
  5
4F3
  8
0
  6
CONTINUOUS
  2
DC_GROUP_5
 10
0.0
 20
0.0
 30
0.0
  0
INSERT
  5
4F4
  8
0
  6
CONTINUOUS
  2
DC_GROUP_6
 10
0.0
 20
0.0
 30
0.0
  0
INSERT
  5
4F5
  8
0
  6
CONTINUOUS
  2
DC_GROUP_7
 10
0.0
 20
0.0
 30
0.0
  0
INSERT
  5
4F6
  8
0
  6
CONTINUOUS
  2
DA_IMAGEDIMGROUP_28
 10
0.0
 20
0.0
 30
0.0
  0
INSERT
  5
4F7
  8
0
  6
CONTINUOUS
  2
DA_IMAGEDIMGROUP_29
 10
0.0
 20
0.0
 30
0.0
  0
INSERT
  5
4F8
  8
0
  6
CONTINUOUS
  2
DA_IMAGEDIMGROUP_30
 10
0.0
 20
0.0
 30
0.0
  0
INSERT
  5
4F9
  8
0
  6
CONTINUOUS
  2
DA_IMAGEDIMGROUP_31
 10
0.0
 20
0.0
 30
0.0
  0
INSERT
  5
4FA
  8
0
  6
CONTINUOUS
  2
DA_IMAGEDIMGROUP_32
 10
0.0
 20
0.0
 30
0.0
  0
INSERT
  5
4FB
  8
0
  6
CONTINUOUS
  2
DA_IMAGEDIMGROUP_33
 10
0.0
 20
0.0
 30
0.0
  0
INSERT
  5
4FC
  8
0
  6
CONTINUOUS
  2
DA_IMAGEDIMGROUP_34
 10
0.0
 20
0.0
 30
0.0
  0
INSERT
  5
4FD
  8
0
  6
CONTINUOUS
  2
DC_GROUP_8
 10
0.0
 20
0.0
 30
0.0
  0
INSERT
  5
4FE
  8
0
  6
CONTINUOUS
  2
DC_GROUP_9
 10
0.0
 20
0.0
 30
0.0
  0
INSERT
  5
4FF
  8
0
  6
CONTINUOUS
  2
DC_GROUP_10
 10
0.0
 20
0.0
 30
0.0
  0
LINE
  5
500
  8
0
  6
CONTINUOUS
 62
     3
 10
-103.1461354397687
 20
-12.78391017471324
 30
0.0
 11
-103.1461354397687
 21
-17.78391017471324
 31
0.0
  0
LINE
  5
501
  8
0
  6
CONTINUOUS
 62
     3
 10
-228.1461354397687
 20
-42.48390903030406
 30
0.0
 11
-228.1461354397687
 21
-58.48390903030406
 31
0.0
  0
LINE
  5
502
  8
0
  6
CONTINUOUS
 62
     3
 10
85.89677322985443
 20
147.9300125347225
 30
0.0
 11
12.90363450869111
 21
21.50220500626958
 31
0.0
  0
LINE
  5
503
  8
0
  6
CONTINUOUS
 62
     3
 10
184.3766830351701
 20
147.9300125347225
 30
0.0
 11
257.3698217563334
 21
21.50220500626958
 31
0.0
  0
LINE
  5
504
  8
0
  6
CONTINUOUS
 62
     3
 10
62.14361650923752
 20
-63.78395728008588
 30
0.0
 11
208.1297936345051
 21
-63.78396595034339
 31
0.0
  0
LINE
  5
505
  8
0
  6
CONTINUOUS
 62
     3
 10
-20.77160911891783
 20
-14.96048652418273
 30
0.0
 11
-11.24533539933478
 21
-9.460489827807383
 31
0.0
  0
LINE
  5
506
  8
0
  6
CONTINUOUS
 62
     3
 10
-29.77161886427703
 20
0.6279744088957383
 30
0.0
 11
-20.24533942264819
 21
6.127974408895752
 31
0.0
  0
LINE
  5
507
  8
0
  6
CONTINUOUS
 62
     3
 10
-27.41139765148558
 20
-1.819869532979752
 30
0.0
 11
-30.11555986048265
 21
-3.381118312276627
 31
0.0
  0
LINE
  5
508
  8
0
  6
CONTINUOUS
 62
     3
 10
-19.0848587970973
 20
-6.76436459384378
 30
0.0
 11
-21.85526361277113
 21
-1.965882695563224
 31
0.0
  0
LINE
  5
509
  8
0
  6
CONTINUOUS
 62
     3
 10
-21.95643760742252
 20
-10.39065029993793
 30
0.0
 11
-26.40643455566471
 21
-2.683029492056001
 31
0.0
  0
LINE
  5
50A
  8
0
  6
CONTINUOUS
 62
     3
 10
-23.3788319780371
 20
-9.41476869159446
 30
0.0
 11
-25.55448030116444
 21
-10.67087983661399
 31
0.0
  0
LINE
  5
50B
  8
0
  6
CONTINUOUS
 62
     3
 10
-26.27249347706054
 20
-4.402799955379944
 30
0.0
 11
-28.44814180018789
 21
-5.658911100399479
 31
0.0
  0
ARC
  5
50C
  8
0
  6
CONTINUOUS
 62
     3
 10
-28.13848536323359
 20
-3.683029492056008
 30
0.0
 40
2.0
 50
210.0
 51
261.0931651994833
  0
ARC
  5
50D
  8
0
  6
CONTINUOUS
 62
     3
 10
-22.44938527397475
 20
-5.536839895996963
 30
0.0
 40
6.0
 50
210.0
 51
238.8342378076667
  0
ARC
  5
50E
  8
0
  6
CONTINUOUS
 62
     3
 10
-29.37758850425025
 20
-9.536839895996963
 30
0.0
 40
6.0
 50
1.165774031478924
 51
58.83420866567715
  0
ARC
  5
50F
  8
0
  6
CONTINUOUS
 62
     3
 10
-22.44938527397475
 20
-5.536839895996963
 30
0.0
 40
6.0
 50
181.1657621923334
 51
210.0
  0
ARC
  5
510
  8
0
  6
CONTINUOUS
 62
     3
 10
-23.68848841499139
 20
-11.39065029993793
 30
0.0
 40
2.0
 50
158.9068348005168
 51
210.0
  0
ARC
  5
511
  8
0
  6
CONTINUOUS
 62
     3
 10
-28.13848536323359
 20
-3.683029492056008
 30
0.0
 40
2.0
 50
338.906856884946
 51
428.68215299592
  0
ARC
  5
512
  8
0
  6
CONTINUOUS
 62
     3
 10
-28.13848536323359
 20
-3.683029492056008
 30
0.0
 40
2.0
 50
171.3178110319014
 51
210.0
  0
ARC
  5
513
  8
0
  6
CONTINUOUS
 62
     3
 10
-16.34608108301251
 20
-12.17446384000255
 30
0.0
 40
5.650000095367432
 50
115.9910930942638
 51
165.0592540539054
  0
ARC
  5
514
  8
0
  6
CONTINUOUS
 62
     3
 10
-25.14608413477032
 20
3.067588552403144
 30
0.0
 40
5.650000095367432
 50
254.9407459460947
 51
304.0089069057363
  0
LINE
  5
515
  8
0
  6
CONTINUOUS
 62
     3
 10
-21.71140070324338
 20
-11.69255385032278
 30
0.0
 11
-24.41556291224046
 21
-13.25380262961966
 31
0.0
  0
LINE
  5
516
  8
0
  6
CONTINUOUS
 62
     3
 10
-16.05322878470392
 20
-4.615300279180886
 30
0.0
 11
-18.45323031058283
 21
-0.4583756981157876
 31
0.0
  0
LINE
  5
517
  8
0
  6
CONTINUOUS
 62
     3
 10
-17.9414972727074
 20
-6.744724845506489
 30
0.0
 11
-21.2415003244652
 21
-1.028951894729623
 31
0.0
  0
LINE
  5
518
  8
0
  6
CONTINUOUS
 62
     3
 10
-21.24150724975571
 20
-1.028910439596174
 30
0.0
 11
-18.45323828641172
 21
-0.4583331171358296
 31
0.0
  0
LINE
  5
519
  8
0
  6
CONTINUOUS
 62
     3
 10
-17.94152521437592
 20
-6.744704310383028
 30
0.0
 11
-16.05325374569281
 21
-4.615278362605984
 31
0.0
  0
ARC
  5
51A
  8
0
  6
CONTINUOUS
 62
     3
 10
-17.85944799101743
 20
-2.886838370118056
 30
0.0
 40
1.5
 50
327.8181540504571
 51
452.1818423070773
  0
ARC
  5
51B
  8
0
  6
CONTINUOUS
 62
     3
 10
-23.68848841499139
 20
-11.39065029993793
 30
0.0
 40
2.0
 50
351.3178297012361
 51
441.0931121518317
  0
ARC
  5
51C
  8
0
  6
CONTINUOUS
 62
     3
 10
-23.68848841499139
 20
-11.39065029993793
 30
0.0
 40
2.0
 50
210.0
 51
248.6821889680986
  0
ARC
  5
51D
  8
0
  6
CONTINUOUS
 62
     3
 10
-19.5914987985863
 20
-3.886838370118056
 30
0.0
 40
3.299999952316284
 50
283.482822412014
 51
299.9999820139107
  0
ARC
  5
51E
  8
0
  6
CONTINUOUS
 62
     3
 10
-19.5914987985863
 20
-3.886838370118056
 30
0.0
 40
3.299999952316284
 50
120.0000179860894
 51
136.5171775879861
  0
LINE
  5
51F
  8
0
  6
CONTINUOUS
 62
     3
 10
-29.77161457274272
 20
0.6279669757402591
 30
0.0
 11
-29.77161457274272
 21
-3.182541407813474
 31
0.0
  0
LINE
  5
520
  8
0
  6
CONTINUOUS
 62
     3
 10
-20.77160911891783
 20
-14.96048652418273
 30
0.0
 11
-24.07161762450053
 21
-13.05522572515651
 31
0.0
  0
LINE
  5
521
  8
0
  6
CONTINUOUS
 62
     3
 10
-29.77161457274272
 20
-4.854363164849076
 30
0.0
 11
-25.51946390454268
 21
-12.21931128562896
 31
0.0
  0
LINE
  5
522
  8
0
  6
CONTINUOUS
 62
     3
 10
-25.74262555042122
 20
15.64955328594222
 30
0.0
 11
-14.5453530937103
 21
-3.744691515272677
 31
0.0
  0
LINE
  5
523
  8
0
  6
CONTINUOUS
 62
     3
 10
-29.77161886427703
 20
0.6279744088957383
 30
0.0
 11
-28.12161604199716
 21
-2.22991431192504
 31
0.0
  0
LINE
  5
524
  8
0
  6
CONTINUOUS
 62
     3
 10
-22.42161909375497
 20
-12.10259862926807
 30
0.0
 11
-20.77162342403219
 21
-14.96047496149656
 31
0.0
  0
LINE
  5
525
  8
0
  6
CONTINUOUS
 62
     3
 10
-39.65677282619167
 20
-17.78091995629126
 30
0.0
 11
-38.33131733667979
 21
-18.54617202622487
 31
0.0
  0
LINE
  5
526
  8
0
  6
CONTINUOUS
 62
     3
 10
-41.65677055793488
 20
-14.31682952714246
 30
0.0
 11
-41.65677054604024
 21
-12.78634253280978
 31
0.0
  0
LINE
  5
527
  8
0
  6
CONTINUOUS
 62
     3
 10
-38.33133127540694
 20
-18.54616790277972
 30
0.0
 11
-35.50911902034412
 21
-16.91676289760894
 31
0.0
  0
LINE
  5
528
  8
0
  6
CONTINUOUS
 62
     3
 10
-41.65676967575185
 20
-12.78633963594174
 30
0.0
 11
-38.33133127540694
 21
-18.54616790277972
 31
0.0
  0
LINE
  5
529
  8
0
  6
CONTINUOUS
 62
     3
 10
-41.65673159666645
 20
-14.31680105305554
 30
0.0
 11
-39.65673070259676
 21
-17.7809042167674
 31
0.0
  0
LINE
  5
52A
  8
0
  6
CONTINUOUS
 62
     3
 10
-38.83454697917053
 20
-11.15692199510809
 30
0.0
 11
-41.6567744438717
 21
-12.78633578156766
 31
0.0
  0
LINE
  5
52B
  8
0
  6
CONTINUOUS
 62
     3
 10
-38.36852404301828
 20
-9.964097398016225
 30
0.0
 11
-34.24307784638608
 21
-17.10957981447498
 31
0.0
  0
LINE
  5
52C
  8
0
  6
CONTINUOUS
 62
     3
 10
-35.50911099651174
 20
-16.91677679529429
 30
0.0
 11
-25.88681003910379
 21
-11.58304850132907
 31
0.0
  0
LINE
  5
52D
  8
0
  6
CONTINUOUS
 62
     3
 10
-38.83453376519245
 20
-11.15690107654016
 30
0.0
 11
-29.40426839476536
 21
-5.490626024348186
 31
0.0
  0
LINE
  5
52E
  8
0
  6
CONTINUOUS
 62
     3
 10
-14.5453530937103
 20
-3.744691515272677
 30
0.0
 11
-6.446403791681295
 21
-17.7724831943114
 31
0.0
  0
LINE
  5
52F
  8
0
  6
CONTINUOUS
 62
     3
 10
-45.19924355220753
 20
-20.98087550247717
 30
0.0
 11
-39.65679016784031
 21
-17.78093854904176
 31
0.0
  0
LINE
  5
530
  8
0
  6
CONTINUOUS
 62
     3
 10
-47.19924444627723
 20
-17.51677233876533
 30
0.0
 11
-41.65679106190998
 21
-14.31683538532991
 31
0.0
  0
LINE
  5
531
  8
0
  6
CONTINUOUS
 62
     3
 10
-81.64613543976867
 20
-21.78388724052523
 30
0.0
 11
-93.64613543976867
 21
-21.78388724052523
 31
0.0
  0
ARC
  5
532
  8
0
  6
CONTINUOUS
 62
     3
 10
76.26093136852003
 20
152.2402644854692
 30
0.0
 40
8.0
 50
296.707339295873
 51
329.9999965971496
  0
LINE
  5
533
  8
0
  6
CONTINUOUS
 62
     3
 10
83.18913436123174
 20
148.2402640739967
 30
0.0
 11
83.71374465311337
 21
149.1489156290808
 31
0.0
  0
ARC
  5
534
  8
0
  6
CONTINUOUS
 62
     3
 10
135.1367108593995
 20
35.21615334019572
 30
0.0
 40
123.0
 50
116.707339295873
 51
183.2926538984257
  0
ARC
  5
535
  8
0
  6
CONTINUOUS
 62
     3
 10
4.352967113129211
 20
27.6920340090123
 30
0.0
 40
8.0
 50
329.9999965971493
 51
363.2926538984257
  0
LINE
  5
536
  8
0
  6
CONTINUOUS
 62
     3
 10
10.75655132431828
 20
22.78336733796812
 30
0.0
 11
11.28117010584091
 21
23.69203359753975
 31
0.0
  0
ARC
  5
537
  8
0
  6
CONTINUOUS
 62
     3
 10
63.22877296666454
 20
-74.28386705262371
 30
0.0
 40
7.999999999999999
 50
56.70733929587299
 51
89.99999659714956
  0
LINE
  5
538
  8
0
  6
CONTINUOUS
 62
     3
 10
63.22877344179207
 20
-66.28386705262373
 30
0.0
 11
62.1795529659602
 21
-66.28386699030953
 31
0.0
  0
ARC
  5
539
  8
0
  6
CONTINUOUS
 62
     3
 10
135.1367363283253
 20
35.21610922672548
 30
0.0
 40
123.0
 50
236.707339295873
 51
303.2926538984257
  0
ARC
  5
53A
  8
0
  6
CONTINUOUS
 62
     3
 10
207.0446866833708
 20
-74.28387559398712
 30
0.0
 40
7.999999999999999
 50
89.99999659714929
 51
123.2926538984257
  0
LINE
  5
53B
  8
0
  6
CONTINUOUS
 62
     3
 10
208.0939246136105
 20
-66.28387565630237
 30
0.0
 11
207.0446871584984
 21
-66.28387559398713
 31
0.0
  0
ARC
  5
53C
  8
0
  6
CONTINUOUS
 62
     3
 10
265.9204791808655
 20
27.6919743608012
 30
0.0
 40
7.999999999999998
 50
176.707339295873
 51
209.9999965971496
  0
LINE
  5
53D
  8
0
  6
CONTINUOUS
 62
     3
 10
258.9922757130263
 20
23.69197477227371
 30
0.0
 11
259.5168858969765
 21
22.7833231548754
 31
0.0
  0
ARC
  5
53E
  8
0
  6
CONTINUOUS
 62
     3
 10
135.1367363283253
 20
35.21610922672548
 30
0.0
 40
122.9999999999999
 50
356.707339295873
 51
423.2926538984257
  0
ARC
  5
53F
  8
0
  6
CONTINUOUS
 62
     3
 10
194.0125297195501
 20
152.2402133786215
 30
0.0
 40
7.999999999999998
 50
209.9999965971493
 51
243.2926538984257
  0
LINE
  5
540
  8
0
  6
CONTINUOUS
 62
     3
 10
186.5597075781213
 20
149.1488801119809
 30
0.0
 11
187.0843262517109
 21
148.240213790094
 31
0.0
  0
LINE
  5
541
  8
0
  6
CONTINUOUS
 62
     5
 10
49.69944283377677
 20
49.6951915932362
 30
0.0
 11
48.67491531226202
 21
49.42067016175259
 31
0.0
  0
LINE
  5
542
  8
0
  6
CONTINUOUS
 62
     5
 10
49.58709155199713
 20
54.75205227853127
 30
0.0
 11
50.61162274659765
 21
54.47752997231755
 31
0.0
  0
LINE
  5
543
  8
0
  6
CONTINUOUS
 62
     5
 10
49.58705720858544
 20
54.75210097347219
 30
0.0
 11
49.3125339150553
 21
53.72756609415701
 31
0.0
  0
LINE
  5
544
  8
0
  6
CONTINUOUS
 62
     5
 10
52.17364594085657
 20
50.98056164444945
 30
0.0
 11
51.42364596104827
 21
49.68152355043055
 31
0.0
  0
LINE
  5
545
  8
0
  6
CONTINUOUS
 62
     5
 10
52.72270392843475
 20
48.93151209672846
 30
0.0
 11
51.42364596104827
 21
49.68152355043055
 31
0.0
  0
LINE
  5
546
  8
0
  6
CONTINUOUS
 62
     5
 10
53.45922221584911
 20
47.20724499049749
 30
0.0
 11
52.16018412183021
 21
47.95724497030574
 31
0.0
  0
LINE
  5
547
  8
0
  6
CONTINUOUS
 62
     5
 10
53.45921230497507
 20
47.20725071254322
 30
0.0
 11
52.89671232011884
 21
46.23297214202905
 31
0.0
  0
LINE
  5
548
  8
0
  6
CONTINUOUS
 62
     5
 10
54.84527932040228
 20
45.10796648007329
 30
0.0
 11
52.89672223099288
 21
46.23296641998332
 31
0.0
  0
LINE
  5
549
  8
0
  6
CONTINUOUS
 62
     5
 10
55.37460129621664
 20
59.52482428547149
 30
0.0
 11
54.35007377470188
 21
59.25030285398783
 31
0.0
  0
LINE
  5
54A
  8
0
  6
CONTINUOUS
 62
     5
 10
54.07554244568487
 20
60.27478329059762
 30
0.0
 11
54.3500647507482
 21
59.25025209170344
 31
0.0
  0
LINE
  5
54B
  8
0
  6
CONTINUOUS
 62
     5
 10
48.67493496090825
 20
49.42062821412572
 30
0.0
 11
48.94945430402268
 21
48.39610806937521
 31
0.0
  0
LINE
  5
54C
  8
0
  6
CONTINUOUS
 62
     5
 10
56.72027926992283
 20
48.35556171512065
 30
0.0
 11
43.72989874268652
 21
55.85556127478441
 31
0.0
  0
LINE
  5
54D
  8
0
  6
CONTINUOUS
 62
     5
 10
52.72267419581218
 20
48.9315292628657
 30
0.0
 11
52.16017421095617
 21
47.95725069235147
 31
0.0
  0
LINE
  5
54E
  8
0
  6
CONTINUOUS
 62
     5
 10
51.23807434359665
 20
47.94085358651143
 30
0.0
 11
48.67496371949088
 21
49.42066616874173
 31
0.0
  0
ARC
  5
54F
  8
0
  6
CONTINUOUS
 62
     5
 10
52.12265265466195
 20
55.43148776146058
 30
0.0
 40
2.625001907348632
 50
195.0001079549973
 51
489.9999533779449
  0
LINE
  5
550
  8
0
  6
CONTINUOUS
 62
     5
 10
47.47988873085356
 20
62.35075746692485
 30
0.0
 11
43.72988883181247
 21
55.8555669968302
 31
0.0
  0
LINE
  5
551
  8
0
  6
CONTINUOUS
 62
     5
 10
60.47027916896391
 20
54.85075218521531
 30
0.0
 11
54.84527932040228
 21
45.10796648007329
 31
0.0
  0
LINE
  5
552
  8
0
  6
CONTINUOUS
 62
     5
 10
60.47027916896391
 20
54.85075218521531
 30
0.0
 11
47.47989864172783
 21
62.35075174487913
 31
0.0
  0
LINE
  5
553
  8
0
  6
CONTINUOUS
 62
     5
 10
56.6000568242786
 20
63.14737963480935
 30
0.0
 11
56.8745761673928
 21
62.12285949005884
 31
0.0
  0
LINE
  5
554
  8
0
  6
CONTINUOUS
 62
     5
 10
54.35007877789931
 20
59.25027685331174
 30
0.0
 11
56.60007871732401
 21
63.14739113536854
 31
0.0
  0
LINE
  5
555
  8
0
  6
CONTINUOUS
 62
     5
 10
56.60005960512891
 20
63.14745286859341
 30
0.0
 11
55.57553208361392
 21
62.87293143710981
 31
0.0
  0
TEXT
  5
556
  8
0
 62
     5
 10
46.61562622248772
 20
58.63224044221999
 30
0.0
 40
3.0
  1
N min
 50
-120.0
 41
0.7983873081712206
  7
FDASTYLE1
 72
     5
 11
39.19062591254356
 21
45.77176265918206
 31
0.0
  0
TEXT
  5
557
  8
0
 62
     5
 10
40.70175758685365
 20
44.11988841500514
 30
0.0
 40
1.5
  1
-1
 50
-120.0
 41
0.7826089394040336
  7
FDASTYLE1
 72
     5
 11
39.35175736929669
 21
41.78161944796746
 31
0.0
  0
TEXT
  5
558
  8
0
 62
     5
 10
47.87002807396635
 20
48.17154474250416
 30
0.0
 40
3.0
  1
ΣS
 50
-120.0
 41
0.9590411728078669
  7
FDASTYLE1
 72
     5
 11
44.70519220370039
 21
42.68988821758705
 31
0.0
  0
TEXT
  5
559
  8
0
 62
     5
 10
57.47348605153007
 20
61.40041642513629
 30
0.0
 40
3.0
  1
F
 50
-120.0
 41
0.8791213035583499
  7
FDASTYLE1
 72
     5
 11
56.15480409619255
 21
59.11639227946743
 31
0.0
  0
TEXT
  5
55A
  8
0
 62
     5
 10
228.9156638949819
 20
18.34254394554439
 30
0.0
 40
4.999999999999999
  1
NIKKO
 50
120.0
 41
0.767442154716773
  7
FDASTYLE1
 72
     5
 11
217.1299475997396
 21
38.7560033724965
 31
0.0
  0
TEXT
  5
55B
  8
0
 62
     5
 10
234.6943442577218
 20
22.83357595657827
 30
0.0
 40
4.0
  1
NOMURA
 50
120.0
 41
0.7142856688726519
  7
FDASTYLE1
 72
     5
 11
223.4443449729775
 21
42.31914630286887
 31
0.0
  0
TEXT
  5
55C
  8
0
 62
     5
 10
246.9919165852051
 20
29.9335650308977
 30
0.0
 40
3.0
  1
0001
 50
120.0
 41
0.7647060767727426
  7
FDASTYLE1
 72
     5
 11
241.4204877498131
 21
39.5835628445509
 31
0.0
  0
TEXT
  5
55D
  8
0
 62
     5
 10
241.8627410386594
 20
25.81754241966548
 30
0.0
 40
4.0
  1
MAC3-250A8
 50
120.0
 41
0.7727275620530923
  7
FDASTYLE1
 72
     5
 11
222.4341671322378
 21
59.46881954419472
 31
0.0
  0
TEXT
  5
55E
  8
0
 62
     5
 10
89.931304877061
 20
147.9180127101679
 30
0.0
 40
3.0
  1
N MAX 5500 AT ΣS MAX
 50
-120.0
 41
0.7873403193732397
  7
FDASTYLE1
 72
     5
 11
59.90840250756175
 21
95.9168204155153
 31
0.0
  0
TEXT
  5
55F
  8
0
 62
     5
 10
98.59156057428078
 20
142.9180079286967
 30
0.0
 40
3.0
  1
F  MAX  40KN
 50
-120.0
 41
0.7829148041076994
  7
FDASTYLE1
 72
     5
 11
80.75186476300908
 21
112.0187483920005
 31
0.0
  0
TEXT
  5
560
  8
0
 62
     5
 10
94.26143523334537
 20
145.4180050223384
 30
0.0
 40
3.0
  1
ΣS MAX 107KN
 50
-120.0
 41
0.7875848900298668
  7
FDASTYLE1
 72
     5
 11
76.42173942207367
 21
114.5187454856422
 31
0.0
  0
VIEWPORT
  5
48
 67
     1
  8
0
 10
0.0
 20
0.0
 30
0.0
 40
1662.0
 41
1140.0
 68
     1
 69
     1
1001
ACAD
1000
MVIEW
1002
{
1070
    16
1010
0.0
1020
0.0
1030
0.0
1020
0.0
1030
0.0
1010
0.0
1020
0.0
1030
1.0
1020
0.0
1030
1.0
1040
0.0
1040
1140.0
1040
0.0
1040
0.0
1040
50.0
1040
0.0
1040
0.0
1070
     0
1070
   100
1070
     0
1070
     1
1070
     0
1070
     0
1070
     0
1070
     0
1040
0.0
1040
0.0
1040
0.0
1040
0.5
1040
0.5
1040
0.0
1040
0.0
1070
     0
1002
{
1002
}
1002
}
  0
ENDSEC
  0
EOF
