  0
SECTION
  2
HEADER
  9
$ACADVER
  1
AC1009
  9
$DWGCODEPAGE
  3
ansi_932
  9
$INSBASE
 10
0.0
 20
0.0
 30
0.0
  9
$EXTMIN
 10
-831.0
 20
-569.9999999999999
 30
0.0
  9
$EXTMAX
 10
831.0
 20
569.9999999999999
 30
0.0
  9
$LIMMIN
 10
-297.0
 20
-210.0
  9
$LIMMAX
 10
297.0
 20
210.0
  9
$ORTHOMODE
 70
     0
  9
$REGENMODE
 70
     1
  9
$FILLMODE
 70
     1
  9
$QTEXTMODE
 70
     0
  9
$MIRRTEXT
 70
     1
  9
$DRAGMODE
 70
     2
  9
$LTSCALE
 40
0.25
  9
$OSMODE
 70
    37
  9
$ATTMODE
 70
     1
  9
$TEXTSIZE
 40
0.2
  9
$TRACEWID
 40
0.05
  9
$TEXTSTYLE
  7
STANDARD
  9
$CLAYER
  8
0
  9
$CELTYPE
  6
BYLAYER
  9
$CECOLOR
 62
   256
  9
$DIMSCALE
 40
1.0
  9
$DIMASZ
 40
2.499996185302734
  9
$DIMEXO
 40
1.0
  9
$DIMDLI
 40
10.0
  9
$DIMRND
 40
0.0
  9
$DIMDLE
 40
0.0
  9
$DIMEXE
 40
1.0
  9
$DIMTP
 40
0.0
  9
$DIMTM
 40
0.0
  9
$DIMTXT
 40
4.0
  9
$DIMCEN
 40
0.0
  9
$DIMTSZ
 40
0.0
  9
$DIMTOL
 70
     0
  9
$DIMLIM
 70
     0
  9
$DIMTIH
 70
     0
  9
$DIMTOH
 70
     0
  9
$DIMSE1
 70
     0
  9
$DIMSE2
 70
     0
  9
$DIMTAD
 70
     1
  9
$DIMZIN
 70
     8
  9
$DIMBLK
  1

  9
$DIMASO
 70
     1
  9
$DIMSHO
 70
     1
  9
$DIMPOST
  1

  9
$DIMAPOST
  1

  9
$DIMALT
 70
     0
  9
$DIMALTD
 70
     2
  9
$DIMALTF
 40
0.0393700787401575
  9
$DIMLFAC
 40
1.0
  9
$DIMTOFL
 70
     0
  9
$DIMTVP
 40
0.0
  9
$DIMTIX
 70
     0
  9
$DIMSOXD
 70
     0
  9
$DIMSAH
 70
     0
  9
$DIMBLK1
  1

  9
$DIMBLK2
  1

  9
$DIMSTYLE
  2
STANDARD
  9
$DIMCLRD
 70
     0
  9
$DIMCLRE
 70
     0
  9
$DIMCLRT
 70
     0
  9
$DIMTFAC
 40
0.65
  9
$DIMGAP
 40
0.09
  9
$LUNITS
 70
     2
  9
$LUPREC
 70
     4
  9
$SKETCHINC
 40
0.1
  9
$FILLETRAD
 40
0.5
  9
$AUNITS
 70
     0
  9
$AUPREC
 70
     0
  9
$MENU
  1
.
  9
$ELEVATION
 40
0.0
  9
$PELEVATION
 40
0.0
  9
$THICKNESS
 40
0.0
  9
$LIMCHECK
 70
     0
  9
$CHAMFERA
 40
0.0
  9
$CHAMFERB
 40
0.0
  9
$SKPOLY
 70
     0
  9
$TDCREATE
 40
2459766.385880613
  9
$TDUPDATE
 40
2459766.385881158
  9
$TDINDWG
 40
0.0000000116
  9
$TDUSRTIMER
 40
0.0000000116
  9
$USRTIMER
 70
     1
  9
$ANGBASE
 50
0.0
  9
$ANGDIR
 70
     0
  9
$PDMODE
 70
     0
  9
$PDSIZE
 40
1.0
  9
$PLINEWID
 40
0.0
  9
$COORDS
 70
     1
  9
$SPLFRAME
 70
     0
  9
$SPLINETYPE
 70
     6
  9
$SPLINESEGS
 70
     8
  9
$ATTDIA
 70
     0
  9
$ATTREQ
 70
     1
  9
$HANDLING
 70
     1
  9
$HANDSEED
  5
428
  9
$SURFTAB1
 70
     6
  9
$SURFTAB2
 70
     6
  9
$SURFTYPE
 70
     6
  9
$SURFU
 70
     6
  9
$SURFV
 70
     6
  9
$UCSNAME
  2

  9
$UCSORG
 10
0.0
 20
0.0
 30
0.0
  9
$UCSXDIR
 10
1.0
 20
0.0
 30
0.0
  9
$UCSYDIR
 10
0.0
 20
1.0
 30
0.0
  9
$PUCSNAME
  2

  9
$PUCSORG
 10
0.0
 20
0.0
 30
0.0
  9
$PUCSXDIR
 10
1.0
 20
0.0
 30
0.0
  9
$PUCSYDIR
 10
0.0
 20
1.0
 30
0.0
  9
$USERI1
 70
     0
  9
$USERI2
 70
     0
  9
$USERI3
 70
     0
  9
$USERI4
 70
     0
  9
$USERI5
 70
     0
  9
$USERR1
 40
0.0
  9
$USERR2
 40
0.0
  9
$USERR3
 40
0.0
  9
$USERR4
 40
0.0
  9
$USERR5
 40
0.0
  9
$WORLDVIEW
 70
     1
  9
$SHADEDGE
 70
     3
  9
$SHADEDIF
 70
    70
  9
$TILEMODE
 70
     1
  9
$MAXACTVP
 70
    64
  9
$PLIMCHECK
 70
     0
  9
$PEXTMIN
 10
1.000000000000000E+20
 20
1.000000000000000E+20
 30
1.000000000000000E+20
  9
$PEXTMAX
 10
-1.000000000000000E+20
 20
-1.000000000000000E+20
 30
-1.000000000000000E+20
  9
$PLIMMIN
 10
0.0
 20
0.0
  9
$PLIMMAX
 10
12.0
 20
9.0
  9
$UNITMODE
 70
     0
  9
$VISRETAIN
 70
     0
  9
$PLINEGEN
 70
     1
  9
$PSLTSCALE
 70
     0
  0
ENDSEC
  0
SECTION
  2
TABLES
  0
TABLE
  2
VPORT
 70
     1
  0
VPORT
  2
*ACTIVE
 70
     0
 10
0.0
 20
0.0
 11
1.0
 21
1.0
 12
0.0
 22
0.0
 13
0.0
 23
0.0
 14
0.5
 24
0.5
 15
0.5
 25
0.5
 16
0.0
 26
0.0
 36
1.0
 17
-0.0000000000000036
 27
0.0
 37
0.0
 40
387.6
 41
1.457894736842106
 42
50.0
 43
0.0
 44
0.0
 50
0.0
 51
0.0
 71
     0
 72
  1000
 73
     1
 74
     1
 75
     0
 76
     0
 77
     0
 78
     0
  0
ENDTAB
  0
TABLE
  2
LTYPE
 70
    67
  0
LTYPE
  2
CONTINUOUS
 70
     0
  3
Solid line
 72
    65
 73
     0
 40
0.0
  0
LTYPE
  2
HIDDENX2
 70
     0
  3
Hidden (2x) ____ ____ ____ ____ ____ ____ ____ 
 72
    65
 73
     2
 40
19.05
 49
12.7
 49
-6.35
  0
LTYPE
  2
HIDDEN
 70
     0
  3
Hidden __ __ __ __ __ __ __ __ __ __ __ __ __ __
 72
    65
 73
     2
 40
9.524999999999999
 49
6.35
 49
-3.175
  0
LTYPE
  2
HIDDEN2
 70
     0
  3
Hidden (.5x) _ _ _ _ _ _ _ _ _ _ _ _ _ _ _ _ _ 
 72
    65
 73
     2
 40
4.762499999999999
 49
3.175
 49
-1.5875
  0
LTYPE
  2
DASHED
 70
     0
  3
Dashed __ __ __ __ __ __ __ __ __ __ __ __ __ _
 72
    65
 73
     2
 40
19.05
 49
12.7
 49
-6.35
  0
LTYPE
  2
DASHED2
 70
     0
  3
Dashed (.5x) _ _ _ _ _ _ _ _ _ _ _ _ _ _ _ _ _ 
 72
    65
 73
     2
 40
9.524999999999999
 49
6.35
 49
-3.175
  0
LTYPE
  2
DASHEDX2
 70
     0
  3
Dashed (2x) ____  ____  ____  ____  ____  ___
 72
    65
 73
     2
 40
38.09999999999999
 49
25.4
 49
-12.7
  0
LTYPE
  2
DOTX2
 70
     0
  3
Dot (2x) .  .  .  .  .  .  .  .  .  .  .  .  .  .
 72
    65
 73
     2
 40
12.7
 49
0.0
 49
-12.7
  0
LTYPE
  2
DOT
 70
     0
  3
Dot . . . . . . . . . . . . . . . . . . . . . . . .
 72
    65
 73
     2
 40
6.35
 49
0.0
 49
-6.35
  0
LTYPE
  2
DOT2
 70
     0
  3
Dot (.5x) ........................................
 72
    65
 73
     2
 40
3.175
 49
0.0
 49
-3.175
  0
LTYPE
  2
CENTERX2
 70
     0
  3
Center (2x) ________  __  ________  __  _____
 72
    65
 73
     4
 40
101.6
 49
63.5
 49
-12.7
 49
12.7
 49
-12.7
  0
LTYPE
  2
CENTER
 70
     0
  3
Center ____ _ ____ _ ____ _ ____ _ ____ _ ____
 72
    65
 73
     4
 40
50.8
 49
31.75
 49
-6.35
 49
6.35
 49
-6.35
  0
LTYPE
  2
CENTER2
 70
     0
  3
Center (.5x) ___ _ ___ _ ___ _ ___ _ ___ _ ___
 72
    65
 73
     4
 40
28.575
 49
19.05
 49
-3.175
 49
3.175
 49
-3.175
  0
LTYPE
  2
DASHDOTX2
 70
     0
  3
Dash dot (2x) ____  .  ____  .  ____  .  ___
 72
    65
 73
     4
 40
50.8
 49
25.4
 49
-12.7
 49
0.0
 49
-12.7
  0
LTYPE
  2
DASHDOT
 70
     0
  3
Dash dot __ . __ . __ . __ . __ . __ . __ . __
 72
    65
 73
     4
 40
25.4
 49
12.7
 49
-6.35
 49
0.0
 49
-6.35
  0
LTYPE
  2
DASHDOT2
 70
     0
  3
Dash dot (.5x) _._._._._._._._._._._._._._._.
 72
    65
 73
     4
 40
12.7
 49
6.35
 49
-3.175
 49
0.0
 49
-3.175
  0
LTYPE
  2
DIVIDEX2
 70
     0
  3
Divide (2x) ________  .  .  ________  .  .  _
 72
    65
 73
     6
 40
63.5
 49
25.4
 49
-12.7
 49
0.0
 49
-12.7
 49
0.0
 49
-12.7
  0
LTYPE
  2
DIVIDE
 70
     0
  3
Divide ____ . . ____ . . ____ . . ____ . . ____
 72
    65
 73
     6
 40
31.75
 49
12.7
 49
-6.35
 49
0.0
 49
-6.35
 49
0.0
 49
-6.35
  0
LTYPE
  2
DIVIDE2
 70
     0
  3
Divide (.5x) __..__..__..__..__..__..__..__.._
 72
    65
 73
     6
 40
15.875
 49
6.35
 49
-3.175
 49
0.0
 49
-3.175
 49
0.0
 49
-3.175
  0
LTYPE
  2
BORDERX2
 70
     0
  3
Border (2x) ____  ____  .  ____  ____  .  ___
 72
    65
 73
     6
 40
88.89999999999999
 49
25.4
 49
-12.7
 49
25.4
 49
-12.7
 49
0.0
 49
-12.7
  0
LTYPE
  2
BORDER
 70
     0
  3
Border __ __ . __ __ . __ __ . __ __ . __ __ .
 72
    65
 73
     6
 40
44.45
 49
12.7
 49
-6.35
 49
12.7
 49
-6.35
 49
0.0
 49
-6.35
  0
LTYPE
  2
BORDER2
 70
     0
  3
Border (.5x) __.__.__.__.__.__.__.__.__.__.__.
 72
    65
 73
     6
 40
22.225
 49
6.35
 49
-3.175
 49
6.35
 49
-3.175
 49
0.0
 49
-3.175
  0
LTYPE
  2
PHANTOMX2
 70
     0
  3
Phantom (2x) ____________    ____    ____   _
 72
    65
 73
     6
 40
127.0
 49
63.5
 49
-12.7
 49
12.7
 49
-12.7
 49
12.7
 49
-12.7
  0
LTYPE
  2
PHANTOM
 70
     0
  3
Phantom ______  __  __  ______  __  __  ______ 
 72
    65
 73
     6
 40
63.5
 49
31.75
 49
-6.35
 49
6.35
 49
-6.35
 49
6.35
 49
-6.35
  0
LTYPE
  2
PHANTOM2
 70
     0
  3
Phantom (.5x) ___ _ _ ___ _ _ ___ _ _ ___ _ _
 72
    65
 73
     6
 40
31.75
 49
15.875
 49
-3.175
 49
3.175
 49
-3.175
 49
3.175
 49
-3.175
  0
LTYPE
  2
ACAD_ISO06W100
 70
     0
  3
ISO long-dash triple-dot ____ ... ____ ... ____
 72
    65
 73
     8
 40
36.0
 49
24.0
 49
-3.0
 49
0.0
 49
-3.0
 49
0.0
 49
-3.0
 49
0.0
 49
-3.0
  0
LTYPE
  2
ACAD_ISO13W100
 70
     0
  3
ISO double-dash double-dot __ __ . . __ __ . . _
 72
    65
 73
     8
 40
36.0
 49
12.0
 49
-3.0
 49
12.0
 49
-3.0
 49
0.0
 49
-3.0
 49
0.0
 49
-3.0
  0
LTYPE
  2
ACAD_ISO14W100
 70
     0
  3
ISO dash triple-dot __ . . . __ . . . __ . . . _
 72
    65
 73
     8
 40
24.0
 49
12.0
 49
-3.0
 49
0.0
 49
-3.0
 49
0.0
 49
-3.0
 49
0.0
 49
-3.0
  0
LTYPE
  2
ACAD_ISO02W100
 70
     0
  3
ISO dash __ __ __ __ __ __ __ __ __ __ __ __ __
 72
    65
 73
     2
 40
15.0
 49
12.0
 49
-3.0
  0
LTYPE
  2
ACAD_ISO03W100
 70
     0
  3
ISO dash space __    __    __    __    __    __
 72
    65
 73
     2
 40
30.0
 49
12.0
 49
-18.0
  0
LTYPE
  2
ACAD_ISO04W100
 70
     0
  3
ISO long-dash dot ____ . ____ . ____ . ____ . _
 72
    65
 73
     4
 40
30.0
 49
24.0
 49
-3.0
 49
0.0
 49
-3.0
  0
LTYPE
  2
ACAD_ISO05W100
 70
     0
  3
ISO long-dash double-dot ____ .. ____ .. ____ . 
 72
    65
 73
     6
 40
33.0
 49
24.0
 49
-3.0
 49
0.0
 49
-3.0
 49
0.0
 49
-3.0
  0
LTYPE
  2
ACAD_ISO07W100
 70
     0
  3
ISO dot . . . . . . . . . . . . . . . . . . . . 
 72
    65
 73
     2
 40
3.0
 49
0.0
 49
-3.0
  0
LTYPE
  2
ACAD_ISO08W100
 70
     0
  3
ISO long-dash short-dash ____ __ ____ __ ____ _
 72
    65
 73
     4
 40
36.0
 49
24.0
 49
-3.0
 49
6.0
 49
-3.0
  0
LTYPE
  2
ACAD_ISO09W100
 70
     0
  3
ISO long-dash double-short-dash ____ __ __ ____
 72
    65
 73
     6
 40
45.0
 49
24.0
 49
-3.0
 49
6.0
 49
-3.0
 49
6.0
 49
-3.0
  0
LTYPE
  2
ACAD_ISO10W100
 70
     0
  3
ISO dash dot __ . __ . __ . __ . __ . __ . __ . 
 72
    65
 73
     4
 40
18.0
 49
12.0
 49
-3.0
 49
0.0
 49
-3.0
  0
LTYPE
  2
ACAD_ISO11W100
 70
     0
  3
ISO double-dash dot __ __ . __ __ . __ __ . __ _
 72
    65
 73
     6
 40
33.0
 49
12.0
 49
-3.0
 49
12.0
 49
-3.0
 49
0.0
 49
-3.0
  0
LTYPE
  2
ACAD_ISO12W100
 70
     0
  3
ISO dash double-dot __ . . __ . . __ . . __ . . 
 72
    65
 73
     6
 40
21.0
 49
12.0
 49
-3.0
 49
0.0
 49
-3.0
 49
0.0
 49
-3.0
  0
LTYPE
  2
ACAD_ISO15W100
 70
     0
  3
ISO double-dash triple-dot __ __ . . . __ __ . .
 72
    65
 73
    10
 40
39.0
 49
12.0
 49
-3.0
 49
12.0
 49
-3.0
 49
0.0
 49
-3.0
 49
0.0
 49
-3.0
 49
0.0
 49
-3.0
  0
LTYPE
  2
JIS_02_0_7
 70
     0
  3
HIDDEN0.75 _ _ _ _ _ _ _ _ _ _ _ _ _ _ _ _ _ 
 72
    65
 73
     2
 40
1.35
 49
0.75
 49
-0.6
  0
LTYPE
  2
JIS_02_1_0
 70
     0
  3
HIDDEN01 _ _ _ _ _ _ _ _ _ _ _ _ _ _ _ _ _ 
 72
    65
 73
     2
 40
2.0
 49
1.0
 49
-1.0
  0
LTYPE
  2
JIS_02_1_2
 70
     0
  3
HIDDEN01.25  _ _ _ _ _ _ _ _ _ _ _ _ _ _ _ _ _ 
 72
    65
 73
     2
 40
2.5
 49
1.25
 49
-1.25
  0
LTYPE
  2
JIS_02_2_0
 70
     0
  3
HIDDEN02 __ __ __ __ __ __ __ __ __ __ __ 
 72
    65
 73
     2
 40
3.0
 49
2.0
 49
-1.0
  0
LTYPE
  2
JIS_02_4_0
 70
     0
  3
HIDDEN04 ____ ____ ____ ____ ____ ____ ____ 
 72
    65
 73
     2
 40
5.5
 49
4.0
 49
-1.5
  0
LTYPE
  2
JIS_08_11
 70
     0
  3
1SASEN11 ___ _ ___ _ ___ _ ___ _ ___ _ ___
 72
    65
 73
     4
 40
12.8
 49
11.0
 49
-0.6
 49
0.6
 49
-0.6
  0
LTYPE
  2
JIS_08_15
 70
     0
  3
1SASEN15 ____ _ ____ _ ____ _ ____ _ ____ 
 72
    65
 73
     4
 40
17.25
 49
15.0
 49
-0.75
 49
0.75
 49
-0.75
  0
LTYPE
  2
JIS_08_25
 70
     0
  3
1SASEN25 ________  __  ________  __  _____
 72
    65
 73
     4
 40
28.0
 49
25.0
 49
-1.125
 49
0.75
 49
-1.125
  0
LTYPE
  2
JIS_08_37
 70
     0
  3
1SASEN37 ________  __  ________  __  _____
 72
    65
 73
     4
 40
40.5
 49
37.5
 49
-1.125
 49
0.75
 49
-1.125
  0
LTYPE
  2
JIS_08_50
 70
     0
  3
1SASEN50 _______________  __  ____________
 72
    65
 73
     4
 40
53.0
 49
50.0
 49
-1.125
 49
0.75
 49
-1.125
  0
LTYPE
  2
JIS_09_08
 70
     0
  3
2SASEN8 __ _ _ __ _ _ __ _ _ __ _ _ __ _ _ 
 72
    65
 73
     6
 40
10.75
 49
8.0
 49
-0.55
 49
0.55
 49
-0.55
 49
0.55
 49
-0.55
  0
LTYPE
  2
JIS_09_15
 70
     0
  3
2SASEN15 ___ _ _ ___ _ _ ___ _ _ ___ _ _ ___ 
 72
    65
 73
     6
 40
18.9
 49
15.0
 49
-0.9
 49
0.6
 49
-0.9
 49
0.6
 49
-0.9
  0
LTYPE
  2
JIS_09_29
 70
     0
  3
2SASEN29 ______　__  __  ______　__  __  ___
 72
    65
 73
     6
 40
34.0
 49
29.0
 49
-1.2
 49
0.7
 49
-1.2
 49
0.7
 49
-1.2
  0
LTYPE
  2
JIS_09_50
 70
     0
  3
2SASEN50 ____________　__  __  _____________
 72
    65
 73
     6
 40
55.0
 49
50.0
 49
-1.2
 49
0.7
 49
-1.2
 49
0.7
 49
-1.2
  0
LTYPE
  2
SXF_破線
 70
     0
  3
02 dashed -- -- -- -- -- --
 72
    65
 73
     2
 40
7.5
 49
6.0
 49
-1.5
  0
LTYPE
  2
SXF_跳び破線
 70
     0
  3
03 dashed_spaced --  --  --  --
 72
    65
 73
     2
 40
12.0
 49
6.0
 49
-6.0
  0
LTYPE
  2
SXF_一点長鎖線
 70
     0
  3
04 long_dashed_dotted ---- . ---- . ----
 72
    65
 73
     4
 40
15.25
 49
12.0
 49
-1.5
 49
0.25
 49
-1.5
  0
LTYPE
  2
SXF_二点長鎖線
 70
     0
  3
05 long_dashed_double-dotted ---- . . ---- 
 72
    65
 73
     6
 40
17.0
 49
12.0
 49
-1.5
 49
0.25
 49
-1.5
 49
0.25
 49
-1.5
  0
LTYPE
  2
SXF_三点長鎖線
 70
     0
  3
06 long_dashed_triplicate-dotted ---- ... ---- 
 72
    65
 73
     8
 40
18.75
 49
12.0
 49
-1.5
 49
0.25
 49
-1.5
 49
0.25
 49
-1.5
 49
0.25
 49
-1.5
  0
LTYPE
  2
SXF_点線
 70
     0
  3
07 dotted . . . . . . . . . . . . 
 72
    65
 73
     2
 40
1.75
 49
0.25
 49
-1.5
  0
LTYPE
  2
SXF_一点鎖線
 70
     0
  3
08 chain ---- - --- - --- - ---
 72
    65
 73
     4
 40
18.5
 49
12.0
 49
-1.5
 49
3.5
 49
-1.5
  0
LTYPE
  2
SXF_二点鎖線
 70
     0
  3
09 chain_double_dash ---- - - ---- - - ----
 72
    65
 73
     6
 40
23.5
 49
12.0
 49
-1.5
 49
3.5
 49
-1.5
 49
3.5
 49
-1.5
  0
LTYPE
  2
SXF_一点短鎖線
 70
     0
  3
10 dashed_dotted -- . -- . -- . --
 72
    65
 73
     4
 40
9.25
 49
6.0
 49
-1.5
 49
0.25
 49
-1.5
  0
LTYPE
  2
SXF_一点二短鎖線
 70
     0
  3
11 double-dashed_dotted -- -- . -- --
 72
    65
 73
     6
 40
16.75
 49
6.0
 49
-1.5
 49
6.0
 49
-1.5
 49
0.25
 49
-1.5
  0
LTYPE
  2
SXF_二点短鎖線
 70
     0
  3
12 dashed_double_dotted -- . . -- . . --
 72
    65
 73
     6
 40
11.0
 49
6.0
 49
-1.5
 49
0.25
 49
-1.5
 49
0.25
 49
-1.5
  0
LTYPE
  2
SXF_二点二短鎖線
 70
     0
  3
13 double-dashed_double-dotted -- -- . . -- --
 72
    65
 73
     8
 40
18.5
 49
6.0
 49
-1.5
 49
6.0
 49
-1.5
 49
0.25
 49
-1.5
 49
0.25
 49
-1.5
  0
LTYPE
  2
SXF_三点短鎖線
 70
     0
  3
14 dashed triplicate-dotted -- . . . -- . . . --
 72
    65
 73
     8
 40
12.75
 49
6.0
 49
-1.5
 49
0.25
 49
-1.5
 49
0.25
 49
-1.5
 49
0.25
 49
-1.5
  0
LTYPE
  2
SXF_三点二短鎖線
 70
     0
  3
15 double-dashed triplicate-dotted -- -- . . . -- -- 
 72
    65
 73
    10
 40
20.25
 49
6.0
 49
-1.5
 49
6.0
 49
-1.5
 49
0.25
 49
-1.5
 49
0.25
 49
-1.5
 49
0.25
 49
-1.5
  0
ENDTAB
  0
TABLE
  2
LAYER
 70
     3
  0
LAYER
  2
0
 70
     0
 62
     7
  6
CONTINUOUS
  0
LAYER
  2
LAYER0014
 70
     0
 62
     7
  6
CONTINUOUS
  0
LAYER
  2
ZUWAKU
 70
     0
 62
     7
  6
CONTINUOUS
  0
ENDTAB
  0
TABLE
  2
STYLE
 70
     5
  0
STYLE
  2
STANDARD
 70
     0
 40
0.0
 41
1.0
 50
0.0
 71
     0
 42
0.2
  3
txt.shx
  4
bigfont.shx
  0
STYLE
  2
DCSTYLE1
 70
     0
 40
0.0
 41
0.8
 50
0.0
 71
     0
 42
0.2
  3
txt.shx
  4
bigfont
  0
STYLE
  2
DCSTYLE0
 70
     4
 40
0.0
 41
0.8
 50
0.0
 71
     0
 42
0.2
  3
txt.shx
  4
bigfont
  0
STYLE
  2
DCSTYLE2
 70
     0
 40
0.0
 41
0.8
 50
0.0
 71
     0
 42
0.2
  3
ＭＳ 明朝
  4

  0
STYLE
  2
DCSTYLE3
 70
     0
 40
0.0
 41
1.0
 50
0.0
 71
     0
 42
0.2
  3
ＭＳ ゴシック
  4

  0
ENDTAB
  0
TABLE
  2
VIEW
 70
     0
  0
ENDTAB
  0
TABLE
  2
UCS
 70
     0
  0
ENDTAB
  0
TABLE
  2
APPID
 70
     2
  0
APPID
  2
ACAD
 70
     0
  0
APPID
  2
DAFUSIONOUT
 70
     0
  0
ENDTAB
  0
TABLE
  2
DIMSTYLE
 70
     1
  0
DIMSTYLE
  2
STANDARD
 70
     0
  3

  4

  5

  6

  7

 40
1.0
 41
0.18
 42
0.0625
 43
0.38
 44
0.18
 45
0.0
 46
0.0
 47
0.0
 48
0.0
140
0.18
141
0.09
142
0.0
143
25.4
144
1.0
145
0.0
146
1.0
147
0.09
 71
     0
 72
     0
 73
     1
 74
     1
 75
     0
 76
     0
 77
     0
 78
     0
170
     0
171
     2
172
     0
173
     0
174
     0
175
     0
176
     0
177
     0
178
     0
  0
ENDTAB
  0
ENDSEC
  0
SECTION
  2
BLOCKS
  0
BLOCK
  8
0
  2
$MODEL_SPACE
 70
     0
 10
0.0
 20
0.0
 30
0.0
  3
$MODEL_SPACE
  1

  0
ENDBLK
  5
21
  8
0
  0
BLOCK
 67
     1
  8
0
  2
$PAPER_SPACE
 70
     0
 10
0.0
 20
0.0
 30
0.0
  3
$PAPER_SPACE
  1

  0
ENDBLK
  5
1D
 67
     1
  8
0
  0
BLOCK
  8
0
  2
DC_IMAGEDIMGROUP_1
 70
     0
 10
0.0
 20
0.0
 30
0.0
  3
DC_IMAGEDIMGROUP_1
  1

  0
LINE
  5
11D
  8
LAYER0014
  6
CONTINUOUS
 62
     7
 10
-55.19850015586904
 20
90.3460459084523
 30
0.0
 11
-46.82324747032217
 21
90.3460459084523
 31
0.0
  0
LINE
  5
11E
  8
LAYER0014
  6
CONTINUOUS
 62
     7
 10
-93.14607095665029
 20
151.3460459084523
 30
0.0
 11
-46.82324747032217
 21
151.3460459084523
 31
0.0
  0
LINE
  5
11F
  8
LAYER0014
  6
CONTINUOUS
 62
     7
 10
-47.82324747032217
 20
90.3460459084523
 30
0.0
 11
-47.82324747032217
 21
151.3460459084523
 31
0.0
  0
INSERT
  5
126
  8
LAYER0014
 62
     7
  2
_OPEN30
 10
-47.82324747032217
 20
90.3460459084523
 30
0.0
 41
2.499995396844351
 42
2.500007167085477
 50
270.0
  0
INSERT
  5
127
  8
LAYER0014
 62
     7
  2
_OPEN30
 10
-47.82324747032217
 20
151.3460459084523
 30
0.0
 41
2.499995396844351
 42
2.500007167085477
 50
90.0
  0
TEXT
  5
129
  8
LAYER0014
 62
     7
 10
-48.82324747032217
 20
116.5101479265356
 30
0.0
 40
4.0
  1
61
 50
90.0
 41
1.083870967741936
  7
DCSTYLE1
 72
     5
 11
-48.82324747032217
 21
122.9101479265356
 31
0.0
  0
ENDBLK
  5
B6
  8
0
  0
BLOCK
  8
0
  2
DC_IMAGEDIMGROUP_2
 70
     0
 10
0.0
 20
0.0
 30
0.0
  3
DC_IMAGEDIMGROUP_2
  1

  0
LINE
  5
12A
  8
LAYER0014
  6
CONTINUOUS
 62
     7
 10
-65.3985886568456
 20
103.3460459084523
 30
0.0
 11
-57.32324747032217
 21
103.3460459084523
 31
0.0
  0
LINE
  5
12B
  8
LAYER0014
  6
CONTINUOUS
 62
     7
 10
-65.3985886568456
 20
138.3460459084523
 30
0.0
 11
-57.32324747032217
 21
138.3460459084523
 31
0.0
  0
LINE
  5
12C
  8
LAYER0014
  6
CONTINUOUS
 62
     7
 10
-58.32324747032217
 20
103.3460459084523
 30
0.0
 11
-58.32324747032217
 21
138.3460459084523
 31
0.0
  0
INSERT
  5
12D
  8
LAYER0014
 62
     7
  2
_OPEN30
 10
-58.32324747032217
 20
103.3460459084523
 30
0.0
 41
2.499995396844351
 42
2.500007167085477
 50
270.0
  0
INSERT
  5
12E
  8
LAYER0014
 62
     7
  2
_OPEN30
 10
-58.32324747032217
 20
138.3460459084523
 30
0.0
 41
2.499995396844351
 42
2.500007167085477
 50
90.0
  0
TEXT
  5
12F
  8
LAYER0014
 62
     7
 10
-59.32324747032217
 20
117.3654988620023
 30
0.0
 40
4.0
  1
35
 50
90.0
 41
0.9081081081081089
  7
DCSTYLE1
 72
     5
 11
-59.32324747032217
 21
123.7654988620023
 31
0.0
  0
ENDBLK
  5
B9
  8
0
  0
BLOCK
  8
0
  2
DC_IMAGEDIMGROUP_3
 70
     0
 10
0.0
 20
0.0
 30
0.0
  3
DC_IMAGEDIMGROUP_3
  1

  0
LINE
  5
130
  8
LAYER0014
  6
CONTINUOUS
 62
     7
 10
-229.642198044148
 20
-27.65395218419907
 30
0.0
 11
-229.642198044148
 21
74.3460459084523
 31
0.0
  0
INSERT
  5
131
  8
LAYER0014
 62
     7
  2
_OPEN30
 10
-229.642198044148
 20
-27.65395218419907
 30
0.0
 41
2.499995396844351
 42
2.500007167085477
 50
270.0
  0
INSERT
  5
132
  8
LAYER0014
 62
     7
  2
_OPEN30
 10
-229.642198044148
 20
74.3460459084523
 30
0.0
 41
2.499995396844351
 42
2.500007167085477
 50
90.0
  0
LINE
  5
133
  8
LAYER0014
  6
CONTINUOUS
 62
     7
 10
-192.821682380065
 20
-27.65395218419907
 30
0.0
 11
-230.642198044148
 21
-27.65395218419907
 31
0.0
  0
LINE
  5
134
  8
LAYER0014
  6
CONTINUOUS
 62
     7
 10
-197.4260679048925
 20
74.3460459084523
 30
0.0
 11
-230.642198044148
 21
74.3460459084523
 31
0.0
  0
TEXT
  5
135
  8
LAYER0014
 62
     7
 10
-230.642198044148
 20
13.74604686212662
 30
0.0
 40
4.0
  1
φ102H7
 50
90.0
 41
0.861538461538461
  7
DCSTYLE1
 72
     5
 11
-230.642198044148
 21
32.94604686212661
 31
0.0
  0
ENDBLK
  5
BC
  8
0
  0
BLOCK
  8
0
  2
DC_IMAGEDIMGROUP_4
 70
     0
 10
0.0
 20
0.0
 30
0.0
  3
DC_IMAGEDIMGROUP_4
  1

  0
LINE
  5
136
  8
LAYER0014
  6
CONTINUOUS
 62
     7
 10
-177.2014212984472
 20
1.228689727307582
 30
0.0
 11
-145.2014212984472
 21
1.228689727307582
 31
0.0
  0
INSERT
  5
137
  8
LAYER0014
 62
     7
  2
_OPEN30
 10
-177.2014212984472
 20
1.228689727307582
 30
0.0
 41
2.499995396844351
 42
2.500007167085477
 50
180.0
  0
INSERT
  5
138
  8
LAYER0014
 62
     7
  2
_OPEN30
 10
-145.2014212984472
 20
1.228689727307582
 30
0.0
 41
2.499995396844351
 42
2.500007167085477
 50
360.0
  0
TEXT
  5
139
  8
LAYER0014
 62
     7
 10
-164.4014212984472
 20
2.228689727307582
 30
0.0
 40
4.0
  1
32
 41
0.9081081081081049
  7
DCSTYLE1
 72
     5
 11
-158.0014212984472
 21
2.228689727307582
 31
0.0
  0
ENDBLK
  5
BF
  8
0
  0
BLOCK
  8
0
  2
DC_IMAGEDIMGROUP_5
 70
     0
 10
0.0
 20
0.0
 30
0.0
  3
DC_IMAGEDIMGROUP_5
  1

  0
LINE
  5
13A
  8
LAYER0014
  6
CONTINUOUS
 62
     7
 10
-145.2014212984472
 20
1.228689727307582
 30
0.0
 11
-127.2014212984472
 21
1.228689727307582
 31
0.0
  0
INSERT
  5
13B
  8
LAYER0014
 62
     7
  2
_OPEN30
 10
-145.2014212984472
 20
1.228689727307582
 30
0.0
 41
2.499995396844351
 42
2.500007167085477
 50
180.0
  0
INSERT
  5
13C
  8
LAYER0014
 62
     7
  2
_OPEN30
 10
-127.2014212984472
 20
1.228689727307582
 30
0.0
 41
2.499995396844351
 42
2.500007167085477
 50
360.0
  0
TEXT
  5
13D
  8
LAYER0014
 62
     7
 10
-139.4014212984472
 20
2.228689727307582
 30
0.0
 40
4.0
  1
18
 41
0.9081081081081049
  7
DCSTYLE1
 72
     5
 11
-133.0014212984472
 21
2.228689727307582
 31
0.0
  0
ENDBLK
  5
C2
  8
0
  0
BLOCK
  8
0
  2
DC_IMAGEDIMGROUP_6
 70
     0
 10
0.0
 20
0.0
 30
0.0
  3
DC_IMAGEDIMGROUP_6
  1

  0
LINE
  5
13E
  8
LAYER0014
  6
CONTINUOUS
 62
     7
 10
-127.2014212984472
 20
1.228689727307582
 30
0.0
 11
-117.2014212984472
 21
1.228689727307582
 31
0.0
  0
INSERT
  5
13F
  8
LAYER0014
 62
     7
  2
_OPEN30
 10
-127.2014212984472
 20
1.228689727307582
 30
0.0
 41
2.499995396844351
 42
2.500007167085477
 50
180.0
  0
INSERT
  5
140
  8
LAYER0014
 62
     7
  2
_OPEN30
 10
-117.2014212984472
 20
1.228689727307582
 30
0.0
 41
2.499995396844351
 42
2.500007167085477
 50
360.0
  0
TEXT
  5
141
  8
LAYER0014
 62
     7
 10
-125.4014212984472
 20
2.228689727307582
 30
0.0
 40
4.0
  1
10
 41
0.9081081081081089
  7
DCSTYLE1
 72
     5
 11
-119.0014212984472
 21
2.228689727307582
 31
0.0
  0
ENDBLK
  5
C5
  8
0
  0
BLOCK
  8
0
  2
DC_IMAGEDIMGROUP_7
 70
     0
 10
0.0
 20
0.0
 30
0.0
  3
DC_IMAGEDIMGROUP_7
  1

  0
LINE
  5
142
  8
LAYER0014
  6
CONTINUOUS
 62
     7
 10
-114.6614212984472
 20
-21.65395218419907
 30
0.0
 11
-78.32324747032217
 21
-21.65395218419907
 31
0.0
  0
LINE
  5
143
  8
LAYER0014
  6
CONTINUOUS
 62
     7
 10
-79.32324747032217
 20
-21.65395218419907
 30
0.0
 11
-79.32324747032217
 21
62.3460459084523
 31
0.0
  0
INSERT
  5
144
  8
LAYER0014
 62
     7
  2
_OPEN30
 10
-79.32324747032217
 20
-21.65395218419907
 30
0.0
 41
2.499995396844351
 42
2.500007167085477
 50
270.0
  0
TEXT
  5
145
  8
LAYER0014
 62
     7
 10
-80.32324747032217
 20
8.281276184530864
 30
0.0
 40
4.0
  1
M90×Ｐ1.25
 50
90.0
 41
0.9053892215568867
  7
DCSTYLE1
 72
     5
 11
-80.32324747032217
 21
37.08127618453088
 31
0.0
  0
ENDBLK
  5
C8
  8
0
  0
BLOCK
  8
0
  2
DC_IMAGEDIMGROUP_8
 70
     0
 10
0.0
 20
0.0
 30
0.0
  3
DC_IMAGEDIMGROUP_8
  1

  0
LINE
  5
146
  8
LAYER0014
  6
CONTINUOUS
 62
     7
 10
-93.64607095665029
 20
-29.1539540915477
 30
0.0
 11
-67.82324747032217
 21
-29.1539540915477
 31
0.0
  0
LINE
  5
147
  8
LAYER0014
  6
CONTINUOUS
 62
     7
 10
-68.82324747032217
 20
-29.1539540915477
 30
0.0
 11
-68.82324747032217
 21
62.3460459084523
 31
0.0
  0
INSERT
  5
148
  8
LAYER0014
 62
     7
  2
_OPEN30
 10
-68.82324747032217
 20
-29.1539540915477
 30
0.0
 41
2.499995396844351
 42
2.500007167085477
 50
270.0
  0
TEXT
  5
149
  8
LAYER0014
 62
     7
 10
-69.82324747032217
 20
14.88553206403096
 30
0.0
 40
4.0
  1
φ105H7
 50
90.0
 41
0.8615384615384614
  7
DCSTYLE1
 72
     5
 11
-69.82324747032217
 21
34.08553206403096
 31
0.0
  0
ENDBLK
  5
CB
  8
0
  0
BLOCK
  8
0
  2
DC_IMAGEDIMGROUP_9
 70
     0
 10
0.0
 20
0.0
 30
0.0
  3
DC_IMAGEDIMGROUP_9
  1

  0
LINE
  5
14A
  8
LAYER0014
  6
CONTINUOUS
 62
     7
 10
-66.42285684532217
 20
23.34604781580093
 30
0.0
 11
-57.32324747032217
 21
23.34604781580093
 31
0.0
  0
LINE
  5
14B
  8
LAYER0014
  6
CONTINUOUS
 62
     7
 10
-94.64607095665029
 20
81.3460459084523
 30
0.0
 11
-57.32324747032217
 21
81.3460459084523
 31
0.0
  0
LINE
  5
14C
  8
LAYER0014
  6
CONTINUOUS
 62
     7
 10
-58.32324747032217
 20
23.34604781580093
 30
0.0
 11
-58.32324747032217
 21
81.3460459084523
 31
0.0
  0
INSERT
  5
14D
  8
LAYER0014
 62
     7
  2
_OPEN30
 10
-58.32324747032217
 20
23.34604781580093
 30
0.0
 41
2.499995396844351
 42
2.500007167085477
 50
270.0
  0
INSERT
  5
14E
  8
LAYER0014
 62
     7
  2
_OPEN30
 10
-58.32324747032217
 20
81.3460459084523
 30
0.0
 41
2.499995396844351
 42
2.500007167085477
 50
90.0
  0
TEXT
  5
14F
  8
LAYER0014
 62
     7
 10
-59.32324747032217
 20
42.22000863845722
 30
0.0
 40
4.0
  1
MAX 63
 50
90.0
 41
0.8400000000000001
  7
DCSTYLE1
 72
     5
 11
-59.32324747032217
 21
61.42000863845722
 31
0.0
  0
ENDBLK
  5
CE
  8
0
  0
BLOCK
  8
0
  2
DC_IMAGEDIMGROUP_10
 70
     0
 10
0.0
 20
0.0
 30
0.0
  3
DC_IMAGEDIMGROUP_10
  1

  0
LINE
  5
150
  8
LAYER0014
  6
CONTINUOUS
 62
     7
 10
-94.64607095665029
 20
81.3460459084523
 30
0.0
 11
-57.32324747032217
 21
81.3460459084523
 31
0.0
  0
LINE
  5
151
  8
LAYER0014
  6
CONTINUOUS
 62
     7
 10
-65.3985886568456
 20
103.3460459084523
 30
0.0
 11
-57.32324747032217
 21
103.3460459084523
 31
0.0
  0
LINE
  5
152
  8
LAYER0014
  6
CONTINUOUS
 62
     7
 10
-58.32324747032217
 20
81.3460459084523
 30
0.0
 11
-58.32324747032217
 21
103.3460459084523
 31
0.0
  0
INSERT
  5
153
  8
LAYER0014
 62
     7
  2
_OPEN30
 10
-58.32324747032217
 20
81.3460459084523
 30
0.0
 41
2.499995396844351
 42
2.500007167085477
 50
270.0
  0
INSERT
  5
154
  8
LAYER0014
 62
     7
  2
_OPEN30
 10
-58.32324747032217
 20
103.3460459084523
 30
0.0
 41
2.499995396844351
 42
2.500007167085477
 50
90.0
  0
TEXT
  5
155
  8
LAYER0014
 62
     7
 10
-59.92324747032217
 20
84.3460459084523
 30
0.0
 40
4.0
  1
MIN13
 50
90.0
 41
0.9230769230769231
  7
DCSTYLE1
 72
     5
 11
-59.92324747032217
 21
100.3460459084523
 31
0.0
  0
ENDBLK
  5
D1
  8
0
  0
BLOCK
  8
0
  2
DC_IMAGEDIMGROUP_11
 70
     0
 10
0.0
 20
0.0
 30
0.0
  3
DC_IMAGEDIMGROUP_11
  1

  0
LINE
  5
156
  8
LAYER0014
  6
CONTINUOUS
 62
     7
 10
-94.64607095665029
 20
163.3460459084523
 30
0.0
 11
-36.32324747032217
 21
163.3460459084523
 31
0.0
  0
LINE
  5
157
  8
LAYER0014
  6
CONTINUOUS
 62
     7
 10
-94.64607095665029
 20
81.3460459084523
 30
0.0
 11
-36.32324747032217
 21
81.3460459084523
 31
0.0
  0
LINE
  5
158
  8
LAYER0014
  6
CONTINUOUS
 62
     7
 10
-37.32324747032217
 20
163.3460459084523
 30
0.0
 11
-37.32324747032217
 21
81.3460459084523
 31
0.0
  0
INSERT
  5
159
  8
LAYER0014
 62
     7
  2
_OPEN30
 10
-37.32324747032217
 20
163.3460459084523
 30
0.0
 41
2.499995396844351
 42
2.500007167085477
 50
90.0
  0
INSERT
  5
15A
  8
LAYER0014
 62
     7
  2
_OPEN30
 10
-37.32324747032217
 20
81.3460459084523
 30
0.0
 41
2.499995396844351
 42
2.500007167085477
 50
270.0
  0
TEXT
  5
15B
  8
LAYER0014
 62
     7
 10
-38.32324747032217
 20
118.1139309305357
 30
0.0
 40
4.0
  1
82
 50
90.0
 41
0.9081081081081089
  7
DCSTYLE1
 72
     5
 11
-38.32324747032217
 21
124.5139309305357
 31
0.0
  0
ENDBLK
  5
D4
  8
0
  0
BLOCK
  8
0
  2
DC_IMAGEDIMGROUP_12
 70
     0
 10
0.0
 20
0.0
 30
0.0
  3
DC_IMAGEDIMGROUP_12
  1

  0
LINE
  5
15C
  8
LAYER0014
  6
CONTINUOUS
 62
     7
 10
-97.1860709566503
 20
165.8860459084523
 30
0.0
 11
-97.1860709566503
 21
176.3936533303273
 31
0.0
  0
LINE
  5
15D
  8
LAYER0014
  6
CONTINUOUS
 62
     7
 10
-96.1860709566503
 20
162.8860459084523
 30
0.0
 11
-96.1860709566503
 21
176.3936533303273
 31
0.0
  0
LINE
  5
15E
  8
LAYER0014
  6
CONTINUOUS
 62
     7
 10
-97.1860709566503
 20
175.3936533303273
 30
0.0
 11
-96.1860709566503
 21
175.3936533303273
 31
0.0
  0
LINE
  5
15F
  8
LAYER0014
  6
CONTINUOUS
 62
     7
 10
-89.05422095665031
 20
175.3936533303273
 30
0.0
 11
-96.1860709566503
 21
175.3936533303273
 31
0.0
  0
INSERT
  5
160
  8
LAYER0014
 62
     7
  2
_OPEN30
 10
-96.1860709566503
 20
175.3936533303273
 30
0.0
 41
2.499995396844351
 42
2.500007167085477
 50
180.0
  0
LINE
  5
161
  8
LAYER0014
  6
CONTINUOUS
 62
     7
 10
-102.1860709566503
 20
175.3936533303273
 30
0.0
 11
-97.1860709566503
 21
175.3936533303273
 31
0.0
  0
INSERT
  5
162
  8
LAYER0014
 62
     7
  2
_OPEN30
 10
-97.1860709566503
 20
175.3936533303273
 30
0.0
 41
2.499995396844351
 42
2.500007167085477
 50
360.0
  0
TEXT
  5
163
  8
LAYER0014
 62
     7
 10
-93.2542209566503
 20
176.3936533303273
 30
0.0
 40
4.0
  1
1
 41
1.527272727272729
  7
DCSTYLE1
 72
     5
 11
-90.0542209566503
 21
176.3936533303273
 31
0.0
  0
ENDBLK
  5
D7
  8
0
  0
BLOCK
  8
0
  2
DC_IMAGEDIMGROUP_13
 70
     0
 10
0.0
 20
0.0
 30
0.0
  3
DC_IMAGEDIMGROUP_13
  1

  0
LINE
  5
164
  8
LAYER0014
  6
CONTINUOUS
 62
     7
 10
-219.6580132296065
 20
-49.32895714330552
 30
0.0
 11
-219.6580132296065
 21
-37.32895714330552
 31
0.0
  0
LINE
  5
165
  8
LAYER0014
  6
CONTINUOUS
 62
     7
 10
-211.7260709566503
 20
-49.32895714330552
 30
0.0
 11
-220.6580132296065
 21
-49.32895714330552
 31
0.0
  0
LINE
  5
166
  8
LAYER0014
  6
CONTINUOUS
 62
     7
 10
-211.7260709566503
 20
-37.32895714330552
 30
0.0
 11
-220.6580132296065
 21
-37.32895714330552
 31
0.0
  0
LINE
  5
167
  8
LAYER0014
  6
CONTINUOUS
 62
     7
 10
-219.6580132296065
 20
-54.32895714330552
 30
0.0
 11
-219.6580132296065
 21
-49.32895714330552
 31
0.0
  0
INSERT
  5
168
  8
LAYER0014
 62
     7
  2
_OPEN30
 10
-219.6580132296065
 20
-49.32895714330552
 30
0.0
 41
2.499995396844351
 42
2.500007167085477
 50
90.0
  0
LINE
  5
169
  8
LAYER0014
  6
CONTINUOUS
 62
     7
 10
-219.6580132296065
 20
-32.32895714330552
 30
0.0
 11
-219.6580132296065
 21
-37.32895714330552
 31
0.0
  0
INSERT
  5
16A
  8
LAYER0014
 62
     7
  2
_OPEN30
 10
-219.6580132296065
 20
-37.32895714330552
 30
0.0
 41
2.499995396844351
 42
2.500007167085477
 50
270.0
  0
TEXT
  5
16B
  8
LAYER0014
 62
     7
 10
-220.6580132296065
 20
-48.12895714330553
 30
0.0
 40
4.0
  1
M12
 50
90.0
 41
0.8262295081967235
  7
DCSTYLE1
 72
     5
 11
-220.6580132296065
 21
-38.5289571433055
 31
0.0
  0
ENDBLK
  5
DA
  8
0
  0
BLOCK
  8
0
  2
DC_GROUP_1
 70
     0
 10
0.0
 20
0.0
 30
0.0
  3
DC_GROUP_1
  1

  0
LINE
  5
16C
  8
LAYER0014
  6
CONTINUOUS
 62
     7
 10
-78.90403040271721
 20
145.1838285170437
 30
0.0
 11
-60.29797812742299
 21
167.5845359165325
 31
0.0
  0
INSERT
  5
16D
  8
LAYER0014
 62
     7
  2
_OPEN30
 10
-78.90403040271721
 20
145.1838285170437
 30
0.0
 41
2.499995396844351
 42
2.500007167085477
 50
230.2869405057009
  0
LINE
  5
16E
  8
LAYER0014
  6
CONTINUOUS
 62
     7
 10
-60.29797770079357
 20
167.5845241991466
 30
0.0
 11
-48.8683092742799
 21
167.5845241991466
 31
0.0
  0
TEXT
  5
16F
  8
LAYER0014
 62
     7
 10
-59.56930185850842
 20
169.1845241991466
 30
0.0
 40
4.0
  1
M12
 41
0.8262295081967216
  7
DCSTYLE1
 72
     5
 11
-49.96930185850842
 21
169.1845241991466
 31
0.0
  0
ENDBLK
  5
DD
  8
0
  0
BLOCK
  8
0
  2
DC_IMAGEDIMGROUP_14
 70
     0
 10
0.0
 20
0.0
 30
0.0
  3
DC_IMAGEDIMGROUP_14
  1

  0
LINE
  5
170
  8
LAYER0014
  6
CONTINUOUS
 62
     7
 10
-197.1860709566503
 20
-153.2970204977977
 30
0.0
 11
-191.4860740084081
 21
-153.2970204977977
 31
0.0
  0
LINE
  5
171
  8
LAYER0014
  6
CONTINUOUS
 62
     7
 10
-197.1860709566503
 20
-118.1761345830976
 30
0.0
 11
-197.1860709566503
 21
-154.2970204977977
 31
0.0
  0
LINE
  5
172
  8
LAYER0014
  6
CONTINUOUS
 62
     7
 10
-191.4860740084081
 20
-106.6939540915477
 30
0.0
 11
-191.4860740084081
 21
-154.2970204977977
 31
0.0
  0
LINE
  5
173
  8
LAYER0014
  6
CONTINUOUS
 62
     7
 10
-211.1399487814349
 20
-153.2970204977977
 30
0.0
 11
-197.1860709566503
 21
-153.2970204977977
 31
0.0
  0
INSERT
  5
174
  8
LAYER0014
 62
     7
  2
_OPEN30
 10
-197.1860709566503
 20
-153.2970204977977
 30
0.0
 41
2.499995396844351
 42
2.500007167085477
 50
360.0
  0
LINE
  5
175
  8
LAYER0014
  6
CONTINUOUS
 62
     7
 10
-186.4860740084081
 20
-153.2970204977977
 30
0.0
 11
-191.4860740084081
 21
-153.2970204977977
 31
0.0
  0
INSERT
  5
176
  8
LAYER0014
 62
     7
  2
_OPEN30
 10
-191.4860740084081
 20
-153.2970204977977
 30
0.0
 41
2.499995396844351
 42
2.500007167085477
 50
180.0
  0
TEXT
  5
177
  8
LAYER0014
 62
     7
 10
-210.1399487814348
 20
-152.2970204977977
 30
0.0
 40
4.0
  1
5.7
 41
1.072340425531914
  7
DCSTYLE1
 72
     5
 11
-200.5399487814348
 21
-152.2970204977977
 31
0.0
  0
ENDBLK
  5
E0
  8
0
  0
BLOCK
  8
0
  2
DC_IMAGEDIMGROUP_15
 70
     0
 10
0.0
 20
0.0
 30
0.0
  3
DC_IMAGEDIMGROUP_15
  1

  0
LINE
  5
178
  8
LAYER0014
  6
CONTINUOUS
 62
     7
 10
-191.4860740084081
 20
-153.2970204977977
 30
0.0
 11
-96.1860709566503
 21
-153.2970204977977
 31
0.0
  0
INSERT
  5
179
  8
LAYER0014
 62
     7
  2
_OPEN30
 10
-191.4860740084081
 20
-153.2970204977977
 30
0.0
 41
2.499995396844351
 42
2.500007167085477
 50
180.0
  0
INSERT
  5
17A
  8
LAYER0014
 62
     7
  2
_OPEN30
 10
-96.1860709566503
 20
-153.2970204977977
 30
0.0
 41
2.499995396844351
 42
2.500007167085477
 50
360.0
  0
LINE
  5
17B
  8
LAYER0014
  6
CONTINUOUS
 62
     7
 10
-191.4860740084081
 20
-106.6939540915477
 30
0.0
 11
-191.4860740084081
 21
-154.2970204977977
 31
0.0
  0
LINE
  5
17C
  8
LAYER0014
  6
CONTINUOUS
 62
     7
 10
-96.1860709566503
 20
-116.1939540915477
 30
0.0
 11
-96.1860709566503
 21
-154.2970204977977
 31
0.0
  0
TEXT
  5
17D
  8
LAYER0014
 62
     7
 10
-150.2360724825292
 20
-152.2970204977977
 30
0.0
 40
4.0
  1
95.3
 41
1.002985074626866
  7
DCSTYLE1
 72
     5
 11
-137.4360724825292
 21
-152.2970204977977
 31
0.0
  0
ENDBLK
  5
E3
  8
0
  0
BLOCK
  8
0
  2
DC_IMAGEDIMGROUP_16
 70
     0
 10
0.0
 20
0.0
 30
0.0
  3
DC_IMAGEDIMGROUP_16
  1

  0
LINE
  5
17E
  8
LAYER0014
  6
CONTINUOUS
 62
     7
 10
-197.1860709566503
 20
-163.7970204977977
 30
0.0
 11
-96.1860709566503
 21
-163.7970204977977
 31
0.0
  0
INSERT
  5
17F
  8
LAYER0014
 62
     7
  2
_OPEN30
 10
-197.1860709566503
 20
-163.7970204977977
 30
0.0
 41
2.499995396844351
 42
2.500007167085477
 50
180.0
  0
INSERT
  5
180
  8
LAYER0014
 62
     7
  2
_OPEN30
 10
-96.1860709566503
 20
-163.7970204977977
 30
0.0
 41
2.499995396844351
 42
2.500007167085477
 50
360.0
  0
LINE
  5
181
  8
LAYER0014
  6
CONTINUOUS
 62
     7
 10
-197.1860709566503
 20
-136.3078151755321
 30
0.0
 11
-197.1860709566503
 21
-164.7970204977977
 31
0.0
  0
LINE
  5
182
  8
LAYER0014
  6
CONTINUOUS
 62
     7
 10
-96.1860709566503
 20
-119.4124218039501
 30
0.0
 11
-96.1860709566503
 21
-164.7970204977977
 31
0.0
  0
TEXT
  5
183
  8
LAYER0014
 62
     7
 10
-151.4860709566503
 20
-162.7970204977977
 30
0.0
 40
4.0
  1
101
 41
0.9882352941176494
  7
DCSTYLE1
 72
     5
 11
-141.8860709566503
 21
-162.7970204977977
 31
0.0
  0
ENDBLK
  5
E6
  8
0
  0
BLOCK
  8
0
  2
DC_IMAGEDIMGROUP_17
 70
     0
 10
0.0
 20
0.0
 30
0.0
  3
DC_IMAGEDIMGROUP_17
  1

  0
LINE
  5
184
  8
LAYER0014
  6
CONTINUOUS
 62
     7
 10
-239.1630698799896
 20
-104.1539540915477
 30
0.0
 11
-239.1630698799896
 21
150.8460459084523
 31
0.0
  0
INSERT
  5
185
  8
LAYER0014
 62
     7
  2
_OPEN30
 10
-239.1630698799896
 20
-104.1539540915477
 30
0.0
 41
2.499995396844351
 42
2.500007167085477
 50
270.0
  0
INSERT
  5
186
  8
LAYER0014
 62
     7
  2
_OPEN30
 10
-239.1630698799896
 20
150.8460459084523
 30
0.0
 41
2.499995396844351
 42
2.500007167085477
 50
90.0
  0
LINE
  5
187
  8
LAYER0014
  6
CONTINUOUS
 62
     7
 10
-198.4847885686918
 20
-104.1539540915477
 30
0.0
 11
-240.1630698799896
 21
-104.1539540915477
 31
0.0
  0
LINE
  5
188
  8
LAYER0014
  6
CONTINUOUS
 62
     7
 10
-199.7260709566503
 20
150.8460459084523
 30
0.0
 11
-240.1630698799896
 21
150.8460459084523
 31
0.0
  0
TEXT
  5
189
  8
LAYER0014
 62
     7
 10
-240.1630698799896
 20
13.7460459084523
 30
0.0
 40
4.0
  1
φ255H7
 50
90.0
 41
0.861538461538461
  7
DCSTYLE1
 72
     5
 11
-240.1630698799896
 21
32.94604590845229
 31
0.0
  0
ENDBLK
  5
E9
  8
0
  0
BLOCK
  8
0
  2
DC_IMAGEDIMGROUP_18
 70
     0
 10
0.0
 20
0.0
 30
0.0
  3
DC_IMAGEDIMGROUP_18
  1

  0
LINE
  5
18A
  8
LAYER0014
  6
CONTINUOUS
 62
     7
 10
-248.5374667645105
 20
-116.6539540915477
 30
0.0
 11
-248.5374667645105
 21
163.3460459084523
 31
0.0
  0
INSERT
  5
18B
  8
LAYER0014
 62
     7
  2
_OPEN30
 10
-248.5374667645105
 20
-116.6539540915477
 30
0.0
 41
2.499995396844351
 42
2.500007167085477
 50
270.0
  0
INSERT
  5
18C
  8
LAYER0014
 62
     7
  2
_OPEN30
 10
-248.5374667645105
 20
163.3460459084523
 30
0.0
 41
2.499995396844351
 42
2.500007167085477
 50
90.0
  0
LINE
  5
18D
  8
LAYER0014
  6
CONTINUOUS
 62
     7
 10
-198.5989641360664
 20
-116.6539540915477
 30
0.0
 11
-249.5374667645105
 21
-116.6539540915477
 31
0.0
  0
LINE
  5
18E
  8
LAYER0014
  6
CONTINUOUS
 62
     7
 10
-199.7260709566503
 20
163.3460459084523
 30
0.0
 11
-249.5374667645105
 21
163.3460459084523
 31
0.0
  0
TEXT
  5
18F
  8
LAYER0014
 62
     7
 10
-249.5374667645105
 20
16.94604590845229
 30
0.0
 40
4.0
  1
φ280
 50
90.0
 41
0.8960000000000009
  7
DCSTYLE1
 72
     5
 11
-249.5374667645105
 21
29.7460459084523
 31
0.0
  0
ENDBLK
  5
EC
  8
0
  0
BLOCK
  8
0
  2
DC_IMAGEDIMGROUP_19
 70
     0
 10
0.0
 20
0.0
 30
0.0
  3
DC_IMAGEDIMGROUP_19
  1

  0
LINE
  5
190
  8
LAYER0014
  6
CONTINUOUS
 62
     7
 10
-191.4860740084081
 20
-142.7970204977977
 30
0.0
 11
-145.2014212984472
 21
-142.7970204977977
 31
0.0
  0
INSERT
  5
191
  8
LAYER0014
 62
     7
  2
_OPEN30
 10
-191.4860740084081
 20
-142.7970204977977
 30
0.0
 41
2.499995396844351
 42
2.500007167085477
 50
180.0
  0
INSERT
  5
192
  8
LAYER0014
 62
     7
  2
_OPEN30
 10
-145.2014212984472
 20
-142.7970204977977
 30
0.0
 41
2.499995396844351
 42
2.500007167085477
 50
360.0
  0
LINE
  5
193
  8
LAYER0014
  6
CONTINUOUS
 62
     7
 10
-191.4860740084081
 20
-106.6939540915477
 30
0.0
 11
-191.4860740084081
 21
-143.7970204977977
 31
0.0
  0
LINE
  5
194
  8
LAYER0014
  6
CONTINUOUS
 62
     7
 10
-145.2014212984472
 20
-23.19395218419907
 30
0.0
 11
-145.2014212984472
 21
-143.7970204977977
 31
0.0
  0
TEXT
  5
195
  8
LAYER0014
 62
     7
 10
-181.1437552828222
 20
-141.1970204977977
 30
0.0
 40
4.0
  1
MAX 63.6
 41
0.8960000000000008
  7
DCSTYLE1
 72
     5
 11
-155.5437552828222
 21
-141.1970204977977
 31
0.0
  0
ENDBLK
  5
EF
  8
0
  0
BLOCK
  8
0
  2
DC_IMAGEDIMGROUP_20
 70
     0
 10
0.0
 20
0.0
 30
0.0
  3
DC_IMAGEDIMGROUP_20
  1

  0
LINE
  5
196
  8
LAYER0014
  6
CONTINUOUS
 62
     7
 10
158.2523430489555
 20
49.15236844235377
 30
0.0
 11
129.4903306328448
 21
32.5467077983627
 31
0.0
  0
ARC
  5
197
  8
LAYER0014
  6
CONTINUOUS
 62
     7
 10
113.5543312650294
 20
23.34604781580093
 30
0.0
 40
20.68730926513672
 50
0.0
 51
29.99999741973147
  0
INSERT
  5
198
  8
LAYER0014
 62
     7
  2
_OPEN30
 10
134.2416405301661
 20
23.34604781580093
 30
0.0
 41
2.499995396844351
 42
2.500007167085477
 50
273.4620072717247
  0
INSERT
  5
199
  8
LAYER0014
 62
     7
  2
_OPEN30
 10
131.470067090401
 20
33.6897016415488
 30
0.0
 41
2.499995396844351
 42
2.500007167085477
 50
116.5379901480064
  0
TEXT
  5
19A
  8
LAYER0014
 62
     7
 10
133.8398877868107
 20
33.75086937451383
 30
0.0
 40
4.0
  1
30ﾟ
 50
285.0
 41
0.9163636363636392
  7
DCSTYLE1
 72
     5
 11
136.3245506197949
 21
24.47798144213875
 31
0.0
  0
ENDBLK
  5
F2
  8
0
  0
BLOCK
  8
0
  2
DC_IMAGEDIMGROUP_21
 70
     0
 10
0.0
 20
0.0
 30
0.0
  3
DC_IMAGEDIMGROUP_21
  1

  0
LINE
  5
19B
  8
LAYER0014
  6
CONTINUOUS
 62
     7
 10
146.5291893256873
 20
-9.628830023698324
 30
0.0
 11
126.5660031478784
 21
10.33435615411064
 31
0.0
  0
ARC
  5
19C
  8
LAYER0014
  6
CONTINUOUS
 62
     7
 10
113.5543312650294
 20
23.34604781580093
 30
0.0
 40
20.68730354309082
 50
314.9999953326663
 51
0.0
  0
INSERT
  5
19D
  8
LAYER0014
 62
     7
  2
_OPEN30
 10
128.1824626932007
 20
8.717914004404312
 30
0.0
 41
2.499995396844351
 42
2.500007167085477
 50
228.4620035619722
  0
INSERT
  5
19E
  8
LAYER0014
 62
     7
  2
_OPEN30
 10
134.2416348081202
 20
23.34604781580093
 30
0.0
 41
2.499995396844351
 42
2.500007167085477
 50
86.53799177069416
  0
TEXT
  5
19F
  8
LAYER0014
 62
     7
 10
129.6843436185613
 20
12.08133450064229
 30
0.0
 40
4.0
  1
45ﾟ
 50
69.10000000000004
 41
0.9163636363636374
  7
DCSTYLE1
 72
     5
 11
133.1090284120297
 21
21.04969745412418
 31
0.0
  0
ENDBLK
  5
F5
  8
0
  0
BLOCK
  8
0
  2
DC_GROUP_2
 70
     0
 10
0.0
 20
0.0
 30
0.0
  3
DC_GROUP_2
  1

  0
LINE
  5
1A0
  8
LAYER0014
  6
CONTINUOUS
 62
     7
 10
61.84755752684791
 20
-32.92778753697361
 30
0.0
 11
18.18409411687353
 21
-111.9189590235841
 31
0.0
  0
INSERT
  5
1A1
  8
LAYER0014
 62
     7
  2
_OPEN30
 10
61.84755752684791
 20
-32.92778753697361
 30
0.0
 41
2.499995396844351
 42
2.500007167085477
 50
61.06776930602953
  0
LINE
  5
1A2
  8
LAYER0014
  6
CONTINUOUS
 62
     7
 10
18.18409963661143
 20
-111.9189611105907
 30
0.0
 11
-12.4455695528417
 21
-111.9189611105907
 31
0.0
  0
TEXT
  5
1A3
  8
LAYER0014
 62
     7
 10
-11.16555627769521
 20
-110.3189611105907
 30
0.0
 40
4.0
  1
PCD133.35
 41
0.8894117647058822
  7
DCSTYLE1
 72
     5
 11
17.63444372230479
 21
-110.3189611105907
 31
0.0
  0
ENDBLK
  5
F8
  8
0
  0
BLOCK
  8
0
  2
DC_GROUP_3
 70
     0
 10
0.0
 20
0.0
 30
0.0
  3
DC_GROUP_3
  1

  0
LINE
  5
1A4
  8
LAYER0014
  6
CONTINUOUS
 62
     7
 10
167.9615437034232
 20
-9.819174448301684
 30
0.0
 11
204.7918330662575
 21
-111.9480356842468
 31
0.0
  0
INSERT
  5
1A5
  8
LAYER0014
 62
     7
  2
_OPEN30
 10
167.9615437034232
 20
-9.819174448301684
 30
0.0
 41
2.499995396844351
 42
2.500007167085477
 50
109.8306055490538
  0
LINE
  5
1A6
  8
LAYER0014
  6
CONTINUOUS
 62
     7
 10
204.7918343167872
 20
-111.9480214743602
 30
0.0
 11
255.146753750381
 21
-111.9480214743602
 31
0.0
  0
TEXT
  5
1A7
  8
LAYER0014
 62
     7
 10
208.5181984525294
 20
-110.3480291037547
 30
0.0
 40
4.0
  1
4-M8x15 PCD120
 41
0.8166666666666668
  7
DCSTYLE1
 72
     5
 11
253.3181984525294
 21
-110.3480291037547
 31
0.0
  0
ENDBLK
  5
FB
  8
0
  0
BLOCK
  8
0
  2
DC_IMAGEDIMGROUP_22
 70
     0
 10
0.0
 20
0.0
 30
0.0
  3
DC_IMAGEDIMGROUP_22
  1

  0
LINE
  5
1A8
  8
LAYER0014
  6
CONTINUOUS
 62
     7
 10
103.5543312650294
 20
-119.1939540915477
 30
0.0
 11
103.5543312650294
 21
-127.4139638571727
 31
0.0
  0
LINE
  5
1A9
  8
LAYER0014
  6
CONTINUOUS
 62
     7
 10
123.5543312650294
 20
-119.1939540915477
 30
0.0
 11
123.5543312650294
 21
-127.4139638571727
 31
0.0
  0
LINE
  5
1AA
  8
LAYER0014
  6
CONTINUOUS
 62
     7
 10
103.5543312650294
 20
-126.4139638571727
 30
0.0
 11
123.5543312650294
 21
-126.4139638571727
 31
0.0
  0
INSERT
  5
1AB
  8
LAYER0014
 62
     7
  2
_OPEN30
 10
103.5543312650294
 20
-126.4139638571727
 30
0.0
 41
2.499995396844351
 42
2.500007167085477
 50
180.0
  0
INSERT
  5
1AC
  8
LAYER0014
 62
     7
  2
_OPEN30
 10
123.5543312650294
 20
-126.4139638571727
 30
0.0
 41
2.499995396844351
 42
2.500007167085477
 50
360.0
  0
TEXT
  5
1AD
  8
LAYER0014
 62
     7
 10
107.1543312650294
 20
-124.8139638571727
 30
0.0
 40
4.0
  1
20H8
 41
0.8506329113924058
  7
DCSTYLE1
 72
     5
 11
119.9543312650294
 21
-124.8139638571727
 31
0.0
  0
ENDBLK
  5
FE
  8
0
  0
BLOCK
  8
0
  2
DC_IMAGEDIMGROUP_23
 70
     0
 10
0.0
 20
0.0
 30
0.0
  3
DC_IMAGEDIMGROUP_23
  1

  0
LINE
  5
1AE
  8
LAYER0014
  6
CONTINUOUS
 62
     7
 10
91.05433126502939
 20
172.5916606988037
 30
0.0
 11
136.0543312650294
 21
172.5916606988037
 31
0.0
  0
INSERT
  5
1AF
  8
LAYER0014
 62
     7
  2
_OPEN30
 10
91.05433126502939
 20
172.5916606988037
 30
0.0
 41
2.499995396844351
 42
2.500007167085477
 50
180.0
  0
INSERT
  5
1B0
  8
LAYER0014
 62
     7
  2
_OPEN30
 10
136.0543312650294
 20
172.5916606988037
 30
0.0
 41
2.499995396844351
 42
2.500007167085477
 50
360.0
  0
LINE
  5
1B1
  8
LAYER0014
  6
CONTINUOUS
 62
     7
 10
91.05433126502939
 20
165.8860459084523
 30
0.0
 11
91.05433126502939
 21
173.5916606988037
 31
0.0
  0
LINE
  5
1B2
  8
LAYER0014
  6
CONTINUOUS
 62
     7
 10
136.0543312650294
 20
165.8860459084523
 30
0.0
 11
136.0543312650294
 21
173.5916606988037
 31
0.0
  0
TEXT
  5
1B3
  8
LAYER0014
 62
     7
 10
110.3543312650294
 20
173.5916606988037
 30
0.0
 40
4.0
  1
45
 41
0.9081081081081089
  7
DCSTYLE1
 72
     5
 11
116.7543312650294
 21
173.5916606988037
 31
0.0
  0
ENDBLK
  5
101
  8
0
  0
BLOCK
  8
0
  2
DC_GROUP_4
 70
     0
 10
0.0
 20
0.0
 30
0.0
  3
DC_GROUP_4
  1

  0
LINE
  5
1B4
  8
LAYER0014
  6
CONTINUOUS
 62
     7
 10
-97.23800000692272
 20
155.611692718017
 30
0.0
 11
-78.75253548373549
 21
176.0056333140859
 31
0.0
  0
INSERT
  5
1B5
  8
LAYER0014
 62
     7
  2
_OPEN30
 10
-97.23800000692272
 20
155.611692718017
 30
0.0
 41
2.499995396844351
 42
2.500007167085477
 50
227.8102262587681
  0
LINE
  5
1B6
  8
LAYER0014
  6
CONTINUOUS
 62
     7
 10
-78.75254307021733
 20
176.005636611419
 30
0.0
 11
-28.92286930312748
 21
176.005636611419
 31
0.0
  0
TEXT
  5
1B7
  8
LAYER0014
 62
     7
 10
-78.02439365615483
 20
177.605636611419
 30
0.0
 40
4.0
  1
ｾﾚｰｼｮﾝP1.5 山60ﾟ
 41
0.9230769230769231
  7
DCSTYLE1
 72
     5
 11
-30.02439365615483
 21
177.605636611419
 31
0.0
  0
ENDBLK
  5
104
  8
0
  0
BLOCK
  8
0
  2
DC_IMAGEDIMGROUP_24
 70
     0
 10
0.0
 20
0.0
 30
0.0
  3
DC_IMAGEDIMGROUP_24
  1

  0
LINE
  5
1B8
  8
0
  6
CONTINUOUS
 62
     9
 10
-219.3319170305039
 20
-20.40395218419906
 30
0.0
 11
-219.3319170305039
 21
67.09604781580092
 31
0.0
  0
INSERT
  5
1B9
  8
0
 62
     9
  2
_OPEN30
 10
-219.3319170305039
 20
-20.40395218419906
 30
0.0
 41
2.499995396844351
 42
2.500007167085477
 50
270.0
  0
INSERT
  5
1BA
  8
0
 62
     9
  2
_OPEN30
 10
-219.3319170305039
 20
67.09604781580092
 30
0.0
 41
2.499995396844351
 42
2.500007167085477
 50
90.0
  0
LINE
  5
1BB
  8
0
  6
CONTINUOUS
 62
     9
 10
-147.2014212984472
 20
-20.40395218419906
 30
0.0
 11
-220.3319170305039
 21
-20.40395218419906
 31
0.0
  0
LINE
  5
1BC
  8
0
  6
CONTINUOUS
 62
     9
 10
-147.2014212984472
 20
67.09604781580092
 30
0.0
 11
-220.3319170305039
 21
67.09604781580092
 31
0.0
  0
TEXT
  5
1BD
  8
0
 62
     7
 10
-220.3319170305039
 20
12.14604781580094
 30
0.0
 40
4.0
  1
φ87.5Ｈ7
 50
90.0
 41
0.9560975609756088
  7
DCSTYLE1
 72
     5
 11
-220.3319170305039
 21
34.54604781580092
 31
0.0
  0
ENDBLK
  5
107
  8
0
  0
BLOCK
  8
0
  2
DC_IMAGEDIMGROUP_25
 70
     0
 10
0.0
 20
0.0
 30
0.0
  3
DC_IMAGEDIMGROUP_25
  1

  0
LINE
  5
1BE
  8
0
  6
CONTINUOUS
 62
     9
 10
-208.4624520820769
 20
-11.65395218419907
 30
0.0
 11
-208.4624520820769
 21
58.34604781580093
 31
0.0
  0
INSERT
  5
1BF
  8
0
 62
     9
  2
_OPEN30
 10
-208.4624520820769
 20
-11.65395218419907
 30
0.0
 41
2.499995396844351
 42
2.500007167085477
 50
270.0
  0
INSERT
  5
1C0
  8
0
 62
     9
  2
_OPEN30
 10
-208.4624520820769
 20
58.34604781580093
 30
0.0
 41
2.499995396844351
 42
2.500007167085477
 50
90.0
  0
LINE
  5
1C1
  8
0
  6
CONTINUOUS
 62
     9
 10
-177.2014212984472
 20
-11.65395218419907
 30
0.0
 11
-209.4624520820769
 21
-11.65395218419907
 31
0.0
  0
LINE
  5
1C2
  8
0
  6
CONTINUOUS
 62
     9
 10
-177.2014212984472
 20
58.34604781580093
 30
0.0
 11
-209.4624520820769
 21
58.34604781580093
 31
0.0
  0
TEXT
  5
1C3
  8
0
 62
     7
 10
-209.4624520820769
 20
14.52604781580093
 30
0.0
 40
4.0
  1
φ70
 50
90.0
 41
0.9163636363636387
  7
DCSTYLE1
 72
     5
 11
-209.4624520820769
 21
24.12604781580095
 31
0.0
  0
TEXT
  5
1C4
  8
0
 62
     7
 10
-211.6624520820769
 20
25.12604781580095
 30
0.0
 40
2.2
  1
+0.5
 50
90.0
 41
0.9205479452054783
  7
DCSTYLE1
 72
     5
 11
-211.6624520820769
 21
32.16604781580094
 31
0.0
  0
TEXT
  5
1C5
  8
0
 62
     7
 10
-209.2624520820769
 20
25.12604781580095
 30
0.0
 40
2.2
  1
　0
 50
90.0
 41
0.9600000000000027
  7
DCSTYLE1
 72
     5
 11
-209.2624520820769
 21
28.64604781580096
 31
0.0
  0
ENDBLK
  5
10A
  8
0
  0
BLOCK
  8
0
  2
DC_IMAGEDIMGROUP_26
 70
     0
 10
0.0
 20
0.0
 30
0.0
  3
DC_IMAGEDIMGROUP_26
  1

  0
LINE
  5
1C6
  8
0
  6
CONTINUOUS
 62
     9
 10
-98.6860709566503
 20
-7.540009797095607
 30
0.0
 11
-96.1860709566503
 21
-7.540009797095607
 31
0.0
  0
LINE
  5
1C7
  8
0
  6
CONTINUOUS
 62
     9
 10
-82.6542209566503
 20
-7.540009797095607
 30
0.0
 11
-96.1860709566503
 21
-7.540009797095607
 31
0.0
  0
INSERT
  5
1C8
  8
0
 62
     9
  2
_OPEN30
 10
-96.1860709566503
 20
-7.540009797095607
 30
0.0
 41
2.499995396844351
 42
2.500007167085477
 50
180.0
  0
LINE
  5
1C9
  8
0
  6
CONTINUOUS
 62
     9
 10
-103.6860709566503
 20
-7.540009797095607
 30
0.0
 11
-98.6860709566503
 21
-7.540009797095607
 31
0.0
  0
INSERT
  5
1CA
  8
0
 62
     9
  2
_OPEN30
 10
-98.6860709566503
 20
-7.540009797095607
 30
0.0
 41
2.499995396844351
 42
2.500007167085477
 50
360.0
  0
TEXT
  5
1CB
  8
0
 62
     7
 10
-93.2542209566503
 20
-6.540009797095607
 30
0.0
 40
4.0
  1
2.5
 41
1.072340425531914
  7
DCSTYLE1
 72
     5
 11
-83.6542209566503
 21
-6.540009797095607
 31
0.0
  0
ENDBLK
  5
10D
  8
0
  0
BLOCK
  8
0
  2
DC_IMAGEDIMGROUP_27
 70
     0
 10
0.0
 20
0.0
 30
0.0
  3
DC_IMAGEDIMGROUP_27
  1

  0
LINE
  5
1CC
  8
0
  6
CONTINUOUS
 62
     9
 10
-191.4860740084081
 20
-105.1539540915477
 30
0.0
 11
-191.4860740084081
 21
-143.7794224747216
 31
0.0
  0
LINE
  5
1CD
  8
0
  6
CONTINUOUS
 62
     9
 10
-209.1860709566503
 20
-50.32895714330552
 30
0.0
 11
-209.1860709566503
 21
-143.7794224747216
 31
0.0
  0
LINE
  5
1CE
  8
0
  6
CONTINUOUS
 62
     9
 10
-209.1860709566503
 20
-142.7794224747216
 30
0.0
 11
-191.4860740084081
 21
-142.7794224747216
 31
0.0
  0
LINE
  5
1CF
  8
0
  6
CONTINUOUS
 62
     9
 10
-225.9179209566503
 20
-142.7794224747216
 30
0.0
 11
-209.1860709566503
 21
-142.7794224747216
 31
0.0
  0
INSERT
  5
1D0
  8
0
 62
     9
  2
_OPEN30
 10
-209.1860709566503
 20
-142.7794224747216
 30
0.0
 41
2.499995396844351
 42
2.500007167085477
 50
360.0
  0
LINE
  5
1D1
  8
0
  6
CONTINUOUS
 62
     9
 10
-186.4860740084081
 20
-142.7794224747216
 30
0.0
 11
-191.4860740084081
 21
-142.7794224747216
 31
0.0
  0
INSERT
  5
1D2
  8
0
 62
     9
  2
_OPEN30
 10
-191.4860740084081
 20
-142.7794224747216
 30
0.0
 41
2.499995396844351
 42
2.500007167085477
 50
180.0
  0
TEXT
  5
1D3
  8
0
 62
     7
 10
-224.9179209566503
 20
-141.7794224747216
 30
0.0
 40
4.0
  1
17.7
 41
1.002985074626866
  7
DCSTYLE1
 72
     5
 11
-212.1179209566503
 21
-141.7794224747216
 31
0.0
  0
ENDBLK
  5
110
  8
0
  0
BLOCK
  8
0
  2
DC_GROUP_5
 70
     0
 10
0.0
 20
0.0
 30
0.0
  3
DC_GROUP_5
  1

  0
LINE
  5
1D4
  8
0
  6
CONTINUOUS
 62
     7
 10
-144.4534369604578
 20
-116.6539540915477
 30
0.0
 11
-130.4812022069819
 21
-135.0414966215293
 31
0.0
  0
INSERT
  5
1D5
  8
0
 62
     7
  2
_OPEN30
 10
-144.4534369604578
 20
-116.6539540915477
 30
0.0
 41
2.499995396844351
 42
2.500007167085477
 50
127.2302956438795
  0
LINE
  5
1D6
  8
0
  6
CONTINUOUS
 62
     7
 10
-130.4812022069819
 20
-135.0414966215293
 30
0.0
 11
-111.2812022069819
 21
-135.0414966215293
 31
0.0
  0
TEXT
  5
1D7
  8
0
 62
     7
 10
-130.4812022069819
 20
-135.0414966215293
 30
0.0
 40
4.0
  1
M12×25
 41
0.847058823529412
  7
DCSTYLE1
 72
     5
 11
-111.2812022069819
 21
-135.0414966215293
 31
0.0
  0
ENDBLK
  5
113
  8
0
  0
BLOCK
  8
0
  2
DC_IMAGEDIMGROUP_28
 70
     0
 10
0.0
 20
0.0
 30
0.0
  3
DC_IMAGEDIMGROUP_28
  1

  0
LINE
  5
1D8
  8
0
  6
CONTINUOUS
 62
     9
 10
-144.4860709566503
 20
-121.5368026254103
 30
0.0
 11
-144.4860709566503
 21
-131.7287798093702
 31
0.0
  0
LINE
  5
1D9
  8
0
  6
CONTINUOUS
 62
     9
 10
-191.4860740084081
 20
-105.1539540915477
 30
0.0
 11
-191.4860740084081
 21
-131.7287798093702
 31
0.0
  0
LINE
  5
1DA
  8
0
  6
CONTINUOUS
 62
     9
 10
-191.4860740084081
 20
-130.7287798093702
 30
0.0
 11
-144.4860709566503
 21
-130.7287798093702
 31
0.0
  0
INSERT
  5
1DB
  8
0
 62
     9
  2
_OPEN30
 10
-191.4860740084081
 20
-130.7287798093702
 30
0.0
 41
2.499995396844351
 42
2.500007167085477
 50
180.0
  0
INSERT
  5
1DC
  8
0
 62
     9
  2
_OPEN30
 10
-144.4860709566503
 20
-130.7287798093702
 30
0.0
 41
2.499995396844351
 42
2.500007167085477
 50
360.0
  0
TEXT
  5
1DD
  8
0
 62
     7
 10
-171.1860724825292
 20
-129.7287798093702
 30
0.0
 40
4.0
  1
47
 41
0.9081081081081049
  7
DCSTYLE1
 72
     5
 11
-164.7860724825292
 21
-129.7287798093702
 31
0.0
  0
ENDBLK
  5
116
  8
0
  0
BLOCK
  8
0
  2
DC_IMAGEDIMGROUP_29
 70
     0
 10
0.0
 20
0.0
 30
0.0
  3
DC_IMAGEDIMGROUP_29
  1

  0
LINE
  5
1DE
  8
0
  6
CONTINUOUS
 62
     9
 10
74.05427514230453
 20
30.01204095687543
 30
0.0
 11
74.05427514230453
 21
49.06831566548885
 31
0.0
  0
LINE
  5
1DF
  8
0
  6
CONTINUOUS
 62
     9
 10
153.0542748996898
 20
30.01204095687543
 30
0.0
 11
153.0542748996898
 21
49.06831566548885
 31
0.0
  0
LINE
  5
1E0
  8
0
  6
CONTINUOUS
 62
     9
 10
74.05427514230453
 20
48.06831566548885
 30
0.0
 11
153.0542748996898
 21
48.06831566548885
 31
0.0
  0
INSERT
  5
1E1
  8
0
 62
     9
  2
_OPEN30
 10
74.05427514230453
 20
48.06831566548885
 30
0.0
 41
2.499995396844351
 42
2.500007167085477
 50
180.0
  0
INSERT
  5
1E2
  8
0
 62
     9
  2
_OPEN30
 10
153.0542748996898
 20
48.06831566548885
 30
0.0
 41
2.499995396844351
 42
2.500007167085477
 50
360.0
  0
TEXT
  5
1E3
  8
0
 62
     7
 10
105.5542750209972
 20
49.06831566548885
 30
0.0
 40
4.0
  1
PCD79
 41
0.8484848484848485
  7
DCSTYLE1
 72
     5
 11
121.5542750209972
 21
49.06831566548885
 31
0.0
  0
ENDBLK
  5
119
  8
0
  0
BLOCK
  8
0
  2
DC_GROUP_6
 70
     0
 10
0.0
 20
0.0
 30
0.0
  3
DC_GROUP_6
  1

  0
LINE
  5
1E4
  8
0
  6
CONTINUOUS
 62
     7
 10
154.6472411127067
 20
26.00543482006309
 30
0.0
 11
232.6737338044758
 21
120.8441303494308
 31
0.0
  0
INSERT
  5
1E5
  8
0
 62
     7
  2
_OPEN30
 10
154.6472411127067
 20
26.00543482006309
 30
0.0
 41
2.499995396844351
 42
2.500007167085477
 50
230.5548967962913
  0
LINE
  5
1E6
  8
0
  6
CONTINUOUS
 62
     7
 10
232.6737338044758
 20
120.8441303494308
 30
0.0
 11
251.8737338044758
 21
120.8441303494308
 31
0.0
  0
TEXT
  5
1E7
  8
0
 62
     7
 10
232.6737338044758
 20
120.8441303494308
 30
0.0
 40
4.0
  1
2-φ6.2
 41
0.9081081081081089
  7
DCSTYLE1
 72
     5
 11
251.8737338044758
 21
120.8441303494308
 31
0.0
  0
ENDBLK
  5
11C
  8
0
  0
BLOCK
  8
0
  2
_OPEN30
 70
     0
 10
0.0
 20
0.0
 30
0.0
  3
_OPEN30
  1

  0
LINE
  5
123
  8
0
  6
BYBLOCK
 62
     0
 10
-1.0
 20
0.267949
 30
0.0
 11
0.0
 21
0.0
 31
0.0
  0
LINE
  5
124
  8
0
  6
BYBLOCK
 62
     0
 10
0.0
 20
0.0
 30
0.0
 11
-1.0
 21
-0.267949
 31
0.0
  0
LINE
  5
125
  8
0
  6
BYBLOCK
 62
     0
 10
0.0
 20
0.0
 30
0.0
 11
-1.0
 21
0.0
 31
0.0
  0
ENDBLK
  5
122
  8
0
  0
ENDSEC
  0
SECTION
  2
ENTITIES
  0
LINE
  5
1E8
  8
ZUWAKU
  6
CONTINUOUS
 62
     3
 10
-277.0
 20
-190.0
 30
0.0
 11
-277.0
 21
190.0
 31
0.0
  0
LINE
  5
1E9
  8
ZUWAKU
  6
CONTINUOUS
 62
     3
 10
277.0
 20
-190.0
 30
0.0
 11
277.0
 21
190.0
 31
0.0
  0
LINE
  5
1EA
  8
ZUWAKU
  6
CONTINUOUS
 62
     3
 10
-277.0
 20
-190.0
 30
0.0
 11
277.0
 21
-190.0
 31
0.0
  0
LINE
  5
1EB
  8
ZUWAKU
  6
CONTINUOUS
 62
     3
 10
-277.0
 20
189.9999999999999
 30
0.0
 11
277.0
 21
189.9999999999999
 31
0.0
  0
LINE
  5
1EC
  8
ZUWAKU
  6
CONTINUOUS
 62
     3
 10
97.00000000000001
 20
-190.0
 30
0.0
 11
97.00000000000001
 21
-130.0
 31
0.0
  0
LINE
  5
1ED
  8
ZUWAKU
  6
CONTINUOUS
 62
     3
 10
97.00000000000001
 20
-176.0
 30
0.0
 11
277.0
 21
-176.0
 31
0.0
  0
LINE
  5
1EE
  8
ZUWAKU
  6
CONTINUOUS
 62
     3
 10
146.0
 20
-162.0
 30
0.0
 11
277.0
 21
-162.0
 31
0.0
  0
LINE
  5
1EF
  8
ZUWAKU
  6
CONTINUOUS
 62
     3
 10
146.0
 20
-148.0
 30
0.0
 11
277.0
 21
-148.0
 31
0.0
  0
LINE
  5
1F0
  8
ZUWAKU
  6
CONTINUOUS
 62
     3
 10
146.0
 20
-138.0
 30
0.0
 11
277.0
 21
-138.0
 31
0.0
  0
LINE
  5
1F1
  8
ZUWAKU
  6
CONTINUOUS
 62
     3
 10
146.0
 20
-176.0
 30
0.0
 11
146.0
 21
-130.0
 31
0.0
  0
LINE
  5
1F2
  8
ZUWAKU
  6
CONTINUOUS
 62
     3
 10
255.0
 20
-176.0
 30
0.0
 11
255.0
 21
-130.0
 31
0.0
  0
LINE
  5
1F3
  8
ZUWAKU
  6
CONTINUOUS
 62
     3
 10
171.0
 20
-190.0
 30
0.0
 11
171.0
 21
-176.0
 31
0.0
  0
LINE
  5
1F4
  8
ZUWAKU
  6
CONTINUOUS
 62
     3
 10
262.0
 20
-188.0
 30
0.0
 11
272.0
 21
-188.0
 31
0.0
  0
LINE
  5
1F5
  8
ZUWAKU
  6
CONTINUOUS
 62
     3
 10
267.0
 20
-178.0
 30
0.0
 11
262.0
 21
-188.0
 31
0.0
  0
LINE
  5
1F6
  8
ZUWAKU
  6
CONTINUOUS
 62
     3
 10
267.0
 20
-178.0
 30
0.0
 11
272.0
 21
-188.0
 31
0.0
  0
LINE
  5
1F7
  8
ZUWAKU
  6
CONTINUOUS
 62
     3
 10
97.00000000000001
 20
-130.0
 30
0.0
 11
277.0
 21
-130.0
 31
0.0
  0
LINE
  5
1F8
  8
ZUWAKU
  6
CONTINUOUS
 62
     3
 10
226.0
 20
-176.0
 30
0.0
 11
226.0
 21
-148.0
 31
0.0
  0
LINE
  5
1F9
  8
ZUWAKU
  6
CONTINUOUS
 62
     4
 10
105.0
 20
-172.0
 30
0.0
 11
105.0
 21
-130.0
 31
0.0
  0
LINE
  5
1FA
  8
ZUWAKU
  6
CONTINUOUS
 62
     4
 10
109.0
 20
-172.0
 30
0.0
 11
109.0
 21
-130.0
 31
0.0
  0
LINE
  5
1FB
  8
ZUWAKU
  6
CONTINUOUS
 62
     4
 10
121.5
 20
-176.0
 30
0.0
 11
121.5
 21
-130.0
 31
0.0
  0
LINE
  5
1FC
  8
ZUWAKU
  6
CONTINUOUS
 62
     4
 10
97.00000000000001
 20
-137.0
 30
0.0
 11
146.0
 21
-137.0
 31
0.0
  0
LINE
  5
1FD
  8
ZUWAKU
  6
CONTINUOUS
 62
     4
 10
97.00000000000001
 20
-144.0
 30
0.0
 11
146.0
 21
-144.0
 31
0.0
  0
LINE
  5
1FE
  8
ZUWAKU
  6
CONTINUOUS
 62
     4
 10
97.00000000000001
 20
-165.0
 30
0.0
 11
146.0
 21
-165.0
 31
0.0
  0
LINE
  5
1FF
  8
ZUWAKU
  6
CONTINUOUS
 62
     4
 10
97.00000000000001
 20
-172.0
 30
0.0
 11
146.0
 21
-172.0
 31
0.0
  0
LINE
  5
200
  8
ZUWAKU
  6
CONTINUOUS
 62
     4
 10
255.0
 20
-166.0
 30
0.0
 11
277.0
 21
-166.0
 31
0.0
  0
LINE
  5
201
  8
ZUWAKU
  6
CONTINUOUS
 62
     4
 10
153.0
 20
-139.5
 30
0.0
 11
153.0
 21
-130.0
 31
0.0
  0
LINE
  5
202
  8
ZUWAKU
  6
CONTINUOUS
 62
     4
 10
202.0
 20
-148.0
 30
0.0
 11
202.0
 21
-146.5
 31
0.0
  0
LINE
  5
203
  8
ZUWAKU
  6
CONTINUOUS
 62
     4
 10
226.0
 20
-148.0
 30
0.0
 11
226.0
 21
-146.5
 31
0.0
  0
LINE
  5
204
  8
ZUWAKU
  6
CONTINUOUS
 62
     4
 10
243.0
 20
-148.0
 30
0.0
 11
243.0
 21
-146.5
 31
0.0
  0
LINE
  5
205
  8
ZUWAKU
  6
CONTINUOUS
 62
     4
 10
202.0
 20
-139.5
 30
0.0
 11
202.0
 21
-130.0
 31
0.0
  0
LINE
  5
206
  8
ZUWAKU
  6
CONTINUOUS
 62
     4
 10
226.0
 20
-139.5
 30
0.0
 11
226.0
 21
-130.0
 31
0.0
  0
LINE
  5
207
  8
ZUWAKU
  6
CONTINUOUS
 62
     4
 10
243.0
 20
-139.5
 30
0.0
 11
243.0
 21
-130.0
 31
0.0
  0
LINE
  5
208
  8
ZUWAKU
  6
CONTINUOUS
 62
     4
 10
97.00000000000001
 20
-151.0
 30
0.0
 11
146.0
 21
-151.0
 31
0.0
  0
LINE
  5
209
  8
ZUWAKU
  6
CONTINUOUS
 62
     4
 10
97.00000000000001
 20
-158.0
 30
0.0
 11
146.0
 21
-158.0
 31
0.0
  0
LINE
  5
20A
  8
ZUWAKU
  6
CONTINUOUS
 62
     4
 10
101.0
 20
-130.5
 30
0.0
 11
98.00000000000001
 21
-136.5
 31
0.0
  0
LINE
  5
20B
  8
ZUWAKU
  6
CONTINUOUS
 62
     4
 10
101.0
 20
-130.5
 30
0.0
 11
104.0
 21
-136.5
 31
0.0
  0
LINE
  5
20C
  8
ZUWAKU
  6
CONTINUOUS
 62
     4
 10
98.00000000000001
 20
-136.5
 30
0.0
 11
104.0
 21
-136.5
 31
0.0
  0
LINE
  5
20D
  8
ZUWAKU
  6
CONTINUOUS
 62
     4
 10
101.0
 20
-158.5
 30
0.0
 11
98.00000000000001
 21
-164.5
 31
0.0
  0
LINE
  5
20E
  8
ZUWAKU
  6
CONTINUOUS
 62
     4
 10
101.0
 20
-158.5
 30
0.0
 11
104.0
 21
-164.5
 31
0.0
  0
LINE
  5
20F
  8
ZUWAKU
  6
CONTINUOUS
 62
     4
 10
98.00000000000001
 20
-164.5
 30
0.0
 11
104.0
 21
-164.5
 31
0.0
  0
LINE
  5
210
  8
ZUWAKU
  6
CONTINUOUS
 62
     4
 10
101.0
 20
-151.5
 30
0.0
 11
98.00000000000001
 21
-157.5
 31
0.0
  0
LINE
  5
211
  8
ZUWAKU
  6
CONTINUOUS
 62
     4
 10
101.0
 20
-151.5
 30
0.0
 11
104.0
 21
-157.5
 31
0.0
  0
LINE
  5
212
  8
ZUWAKU
  6
CONTINUOUS
 62
     4
 10
98.00000000000001
 20
-157.5
 30
0.0
 11
104.0
 21
-157.5
 31
0.0
  0
LINE
  5
213
  8
ZUWAKU
  6
CONTINUOUS
 62
     4
 10
101.0
 20
-144.5
 30
0.0
 11
98.00000000000001
 21
-150.5
 31
0.0
  0
LINE
  5
214
  8
ZUWAKU
  6
CONTINUOUS
 62
     4
 10
101.0
 20
-144.5
 30
0.0
 11
104.0
 21
-150.5
 31
0.0
  0
LINE
  5
215
  8
ZUWAKU
  6
CONTINUOUS
 62
     4
 10
98.00000000000001
 20
-150.5
 30
0.0
 11
104.0
 21
-150.5
 31
0.0
  0
LINE
  5
216
  8
ZUWAKU
  6
CONTINUOUS
 62
     4
 10
101.0
 20
-137.5
 30
0.0
 11
98.00000000000001
 21
-143.5
 31
0.0
  0
LINE
  5
217
  8
ZUWAKU
  6
CONTINUOUS
 62
     4
 10
101.0
 20
-137.5
 30
0.0
 11
104.0
 21
-143.5
 31
0.0
  0
LINE
  5
218
  8
ZUWAKU
  6
CONTINUOUS
 62
     4
 10
98.00000000000001
 20
-143.5
 30
0.0
 11
104.0
 21
-143.5
 31
0.0
  0
LINE
  5
219
  8
ZUWAKU
  6
CONTINUOUS
 62
     4
 10
172.6666666666666
 20
-176.0
 30
0.0
 11
172.6666666666666
 21
-162.0
 31
0.0
  0
LINE
  5
21A
  8
ZUWAKU
  6
CONTINUOUS
 62
     4
 10
199.3333333333333
 20
-176.0
 30
0.0
 11
199.3333333333333
 21
-161.9509415757253
 31
0.0
  0
LINE
  5
21B
  8
ZUWAKU
  6
CONTINUOUS
 62
     4
 10
212.6666666666666
 20
-167.5
 30
0.0
 11
212.6666666666666
 21
-161.9509415757253
 31
0.0
  0
LINE
  5
21C
  8
ZUWAKU
  6
CONTINUOUS
 62
     4
 10
226.0
 20
-155.0
 30
0.0
 11
255.0
 21
-155.0
 31
0.0
  0
LINE
  5
21D
  8
ZUWAKU
  6
CONTINUOUS
 62
     4
 10
146.0
 20
-166.0
 30
0.0
 11
226.0
 21
-166.0
 31
0.0
  0
TEXT
  5
21F
  8
ZUWAKU
 62
     7
 10
149.5932301474747
 20
-130.8211887289559
 30
0.0
 40
2.6656
  1
符号
 41
0.8
  7
DCSTYLE0
  0
TEXT
  5
220
  8
ZUWAKU
 62
     7
 10
162.4141311219058
 20
-135.8245525019963
 30
0.0
 40
4.0
  1
品       名
 41
0.8400000000000003
  7
DCSTYLE1
 72
     5
 11
191.2141311219058
 21
-135.8245525019963
 31
0.0
  0
TEXT
  5
221
  8
ZUWAKU
 62
     7
 10
207.2331564413096
 20
-135.8245525019963
 30
0.0
 40
4.0
  1
材  料
 41
0.8960000000000009
  7
DCSTYLE1
 72
     5
 11
220.0331564413096
 21
-135.8245525019963
 31
0.0
  0
TEXT
  5
222
  8
ZUWAKU
 62
     7
 10
229.516061684855
 20
-135.8245525019963
 30
0.0
 40
4.0
  1
個 数
 41
0.9333333333333329
  7
DCSTYLE1
 72
     5
 11
239.116061684855
 21
-135.8245525019963
 31
0.0
  0
TEXT
  5
223
  8
ZUWAKU
 62
     7
 10
245.721810952888
 20
-133.5649080050572
 30
0.0
 40
2.5
  1
単重量
 41
0.9882352941176471
  7
DCSTYLE1
 72
     5
 11
251.721810952888
 21
-133.5649080050572
 31
0.0
  0
TEXT
  5
224
  8
ZUWAKU
 62
     7
 10
244.7089516236359
 20
-137.3631304897525
 30
0.0
 40
2.5
  1
(kg)
 41
1.12
  7
DCSTYLE1
 72
     5
 11
252.7089516236359
 21
-137.3631304897525
 31
0.0
  0
TEXT
  5
225
  8
ZUWAKU
 62
     7
 10
259.1421970654778
 20
-135.8245525019963
 30
0.0
 40
4.0
  1
記  事
 41
0.8960000000000009
  7
DCSTYLE1
 72
     5
 11
271.9421970654778
 21
-135.8245525019963
 31
0.0
  0
TEXT
  5
226
  8
ZUWAKU
 62
     7
 10
258.8450794551645
 20
-165.4873041997729
 30
0.0
 40
3.0
  1
コード番号
 41
0.9655172413793105
  7
DCSTYLE1
 72
     5
 11
270.8450794551645
 21
-165.4873041997729
 31
0.0
  0
TEXT
  5
227
  8
ZUWAKU
 62
     7
 10
101.9119920158317
 20
-175.1879010540338
 30
0.0
 40
2.5
  1
訂 正 来 歴
 41
0.8909090909090911
  7
DCSTYLE1
 72
     5
 11
115.9119920158317
 21
-175.1879010540338
 31
0.0
  0
TEXT
  5
228
  8
ZUWAKU
 62
     7
 10
125.890334846765
 20
-175.2166697391651
 30
0.0
 40
2.5
  1
工 事 番 号
 41
0.8909090909090911
  7
DCSTYLE1
 72
     5
 11
139.890334846765
 21
-175.2166697391651
 31
0.0
  0
TEXT
  5
229
  8
ZUWAKU
 62
     7
 10
100.9648378466029
 20
-165.9634530565915
 30
0.0
 40
2.0825
  1
記号
 41
0.8
  7
DCSTYLE0
  0
TEXT
  5
22A
  8
ZUWAKU
 62
     7
 10
106.9042249067618
 20
-165.9634530565915
 30
0.0
 40
2.0825
  1
理由
 41
0.8
  7
DCSTYLE0
  0
TEXT
  5
22B
  8
ZUWAKU
 62
     7
 10
111.6193667909843
 20
-169.8786046700178
 30
0.0
 40
3.0
  1
日 付
 41
0.9333333333333319
  7
DCSTYLE1
 72
     5
 11
118.8193667909843
 21
-169.8786046700178
 31
0.0
  0
TEXT
  5
22C
  8
ZUWAKU
 62
     7
 10
256.5875288836489
 20
-142.4576943219288
 30
0.0
 40
3.0
  1
標　準
 41
0.8647058823529429
  7
DCSTYLE1
 72
     5
 11
262.8875288836489
 21
-142.4576943219288
 31
0.0
  0
TEXT
  5
22D
  8
ZUWAKU
 62
     7
 10
153.4481689819652
 20
-165.7187911464244
 30
0.0
 40
3.0
  1
承   認
 41
0.875
  7
DCSTYLE1
 72
     5
 11
165.4481689819652
 21
-165.7187911464244
 31
0.0
  0
TEXT
  5
22E
  8
ZUWAKU
 62
     7
 10
179.863228033234
 20
-165.4873041997729
 30
0.0
 40
3.0
  1
検   図
 41
0.875
  7
DCSTYLE1
 72
     5
 11
191.863228033234
 21
-165.4873041997729
 31
0.0
  0
TEXT
  5
22F
  8
ZUWAKU
 62
     7
 10
201.4771920983751
 20
-165.4873041997729
 30
0.0
 40
3.0
  1
担  当
 41
0.8959999999999996
  7
DCSTYLE1
 72
     5
 11
211.0771920983751
 21
-165.4873041997729
 31
0.0
  0
TEXT
  5
230
  8
ZUWAKU
 62
     7
 10
214.6770574841112
 20
-165.4873041997729
 30
0.0
 40
3.0
  1
製  図
 41
0.8959999999999996
  7
DCSTYLE1
 72
     5
 11
224.2770574841112
 21
-165.4873041997729
 31
0.0
  0
TEXT
  5
231
  8
ZUWAKU
 62
     7
 10
226.9462372304199
 20
-153.2184960272417
 30
0.0
 40
3.0
  1
作図
 41
1.018181818181821
  7
DCSTYLE1
 72
     5
 11
231.7462372304199
 21
-153.2184960272417
 31
0.0
  0
TEXT
  5
232
  8
ZUWAKU
 62
     7
 10
228.1036719636776
 20
-160.2371566401815
 30
0.0
 40
4.0
  1
第 三 角 法
 41
0.8909090909090912
  7
DCSTYLE1
 72
     5
 11
250.5036719636776
 21
-160.2371566401815
 31
0.0
  0
TEXT
  5
233
  8
ZUWAKU
 62
     7
 10
227.409211123723
 20
-166.413251986379
 30
0.0
 40
3.0
  1
尺度
 41
1.018181818181821
  7
DCSTYLE1
 72
     5
 11
232.209211123723
 21
-166.413251986379
 31
0.0
  0
TEXT
  5
235
  8
ZUWAKU
 62
     3
 10
105.379154370034
 20
-185.9272077185016
 30
0.0
 40
7.0
  1
株式会社 野村製作所
 41
0.5756623947008424
  7
DCSTYLE2
 72
     5
 11
161.379154370034
 21
-185.9272077185016
 31
0.0
  0
TEXT
  5
237
  8
ZUWAKU
 62
     3
 10
177.0693118865195
 20
-187.1216685584563
 30
0.0
 40
8.0
  1
２－
 41
0.7689423076923078
  7
DCSTYLE3
 72
     5
 11
193.0693118865195
 21
-187.1216685584563
 31
0.0
  0
TEXT
  5
238
  8
ZUWAKU
 62
     3
 10
193.9812695109263
 20
-187.1216685584563
 30
0.0
 40
8.0
  1
9312023
 41
1.537884615384616
  7
DCSTYLE3
 72
     5
 11
249.9812695109263
 21
-187.1216685584563
 31
0.0
  0
TEXT
  5
239
  8
ZUWAKU
 62
     6
 10
231.115212700787
 20
-146.1941968197806
 30
0.0
 40
4.0
  1
一式
 41
0.8909090909090901
  7
DCSTYLE1
 72
     5
 11
236.715212700787
 21
-146.1941968197806
 31
0.0
  0
TEXT
  5
23A
  8
ZUWAKU
 62
     6
 10
162.8736825514787
 20
-145.3589000228561
 30
0.0
 40
5.0
  1
外　形　図
 41
0.8448275862068965
  7
DCSTYLE1
 72
     5
 11
180.3736825514787
 21
-145.3589000228561
 31
0.0
  0
TEXT
  5
23B
  8
ZUWAKU
 62
     4
 10
239.3011788906399
 20
-172.297487439201
 30
0.0
 40
3.0
  1
1/1
 41
0.8320754716981147
  7
DCSTYLE1
 72
     5
 11
245.6011788906399
 21
-172.297487439201
 31
0.0
  0
TEXT
  5
23C
  8
0
 62
     6
 10
148.9323428637154
 20
-154.3580193026319
 30
0.0
 40
5.0
  1
日鋼プレシジォン
 41
0.9531914893617022
  7
DCSTYLE1
 72
     5
 11
180.9323428637154
 21
-154.3580193026319
 31
0.0
  0
TEXT
  5
23D
  8
0
 62
     6
 10
168.0800130140405
 20
-160.926795036144
 30
0.0
 40
5.0
  1
ＭＯ2-12型チャック
 41
0.8842105263157896
  7
DCSTYLE1
 72
     5
 11
212.0800130140405
 21
-160.926795036144
 31
0.0
  0
TEXT
  5
23E
  8
0
 62
     6
 10
-68.4509996175766
 20
-170.9799315929413
 30
0.0
 40
3.599999904632568
  1
質　量　　　     　　　　　　　　　　　　　　　38 Kg
 41
1.396018128613883
  7
DCSTYLE1
 72
     5
 11
70.35308492183685
 21
-170.9799315929413
 31
0.0
  0
TEXT
  5
23F
  8
0
 62
     6
 10
-68.4509996175766
 20
-177.6327331066131
 30
0.0
 40
3.599999904632568
  1
ｱﾝバﾗﾝｽ量 　  　　    　　　　
 41
1.378965529232204
  7
DCSTYLE1
 72
     5
 11
25.16105782985687
 21
-177.6327331066131
 31
0.0
  0
TEXT
  5
240
  8
0
 62
     6
 10
-68.42514598369598
 20
-164.3271300792694
 30
0.0
 40
3.599999904632568
  1
慣性モーメント    　    　　　　 0.525　Kg・m
 41
1.334540374790675
  7
DCSTYLE1
 72
     5
 11
68.15552532672882
 21
-164.3271300792694
 31
0.0
  0
TEXT
  5
241
  8
0
 62
     6
 10
-68.4001077413559
 20
-157.6743285655975
 30
0.0
 40
3.599999904632568
  1
最高使用回転速度　　　　　　　    　　　　2500　min
 41
1.3590290615817
  7
DCSTYLE1
 72
     5
 11
66.0272775888443
 21
-157.6743285655975
 31
0.0
  0
TEXT
  5
242
  8
0
 62
     6
 10
-68.4509996175766
 20
-151.0215423107147
 30
0.0
 40
3.599999904632568
  1
最大静的把握力　　　  　　　　　　　　　　　　48.1　ｋN
 41
1.440730453017887
  7
DCSTYLE1
 72
     5
 11
70.35308492183685
 21
-151.0215423107147
 31
0.0
  0
TEXT
  5
243
  8
0
 62
     6
 10
-68.38788223266602
 20
-144.3687407970428
 30
0.0
 40
3.599999904632568
  1
許容ｼﾘﾝダ力　　
 41
1.388317275887423
  7
DCSTYLE1
 72
     5
 11
-30.54632091522217
 21
-144.3687407970428
 31
0.0
  0
TEXT
  5
244
  8
0
 62
     6
 10
-68.4509996175766
 20
-137.7159392833709
 30
0.0
 40
3.599999904632568
  1
ピｽﾄﾝｽﾄﾛ-ｸ　　      　　　　　　　　 35 mm
 41
1.318714193153179
  7
DCSTYLE1
 72
     5
 11
70.35308492183685
 21
-137.7159392833709
 31
0.0
  0
TEXT
  5
245
  8
0
 62
     6
 10
-68.47770893573761
 20
-131.0631377696991
 30
0.0
 40
3.599999904632568
  1
爪ノｽﾄﾛ-ｸ　　　　　
 41
1.420464174380978
  7
DCSTYLE1
 72
     5
 11
-14.66241049766541
 21
-131.0631377696991
 31
0.0
  0
TEXT
  5
246
  8
0
 62
     6
 10
-68.41941630840302
 20
-124.4103362560272
 30
0.0
 40
3.599999904632568
  1
仕  様
 41
1.280000115235649
  7
DCSTYLE1
 72
     5
 11
-51.96227240562439
 21
-124.4103362560272
 31
0.0
  0
TEXT
  5
247
  8
0
 62
     6
 10
14.29730606332055
 20
-130.8835431595496
 30
0.0
 40
3.0
  1
（直径ﾆﾃ）
 41
1.421948866666667
  7
DCSTYLE1
 72
     5
 11
35.62653906332056
 21
-130.8835431595496
 31
0.0
  0
TEXT
  5
248
  8
0
 62
     6
 10
26.85575768351555
 20
-176.3519638478756
 30
0.0
 40
2.699999928474426
  1
外周ﾆﾃ
 41
1.419073464373678
  7
DCSTYLE1
 72
     5
 11
39.44496622681618
 21
-176.3519638478756
 31
0.0
  0
TEXT
  5
249
  8
0
 62
     6
 10
68.11249505113918
 20
-161.8669438514641
 30
0.0
 40
1.799999952316284
  1
2
 41
1.089905517597438
  7
DCSTYLE1
 72
     5
 11
69.70064304899532
 21
-161.8669438514641
 31
0.0
  0
TEXT
  5
24A
  8
0
 62
     6
 10
65.78056925382323
 20
-155.0761378806771
 30
0.0
 40
1.799999952316284
  1
-1
 41
1.182893618461294
  7
DCSTYLE1
 72
     5
 11
69.53203177299208
 21
-155.0761378806771
 31
0.0
  0
TEXT
  5
24B
  8
0
 62
     6
 10
48.9383657788244
 20
-131.0193544827416
 30
0.0
 40
3.6
  1
20　mm
 41
1.090158918128655
  7
DCSTYLE1
 72
     5
 11
70.2431857788244
 21
-131.0193544827416
 31
0.0
  0
TEXT
  5
24C
  8
0
 62
     6
 10
40.04278750974932
 20
-144.4964420967598
 30
0.0
 40
3.6
  1
  22 kN
 41
1.282624355072464
  7
DCSTYLE1
 72
     5
 11
70.38601510974932
 21
-144.4964420967598
 31
0.0
  0
TEXT
  5
24D
  8
0
 62
     6
 10
49.13415113770619
 20
-177.3995138837875
 30
0.0
 40
3.6
  1
8g 以内
 41
1.336323835125448
  7
DCSTYLE1
 72
     5
 11
70.43897113770619
 21
-177.3995138837875
 31
0.0
  0
LINE
  5
24E
  8
0
  6
CONTINUOUS
 62
     6
 10
-70.2549057006836
 20
-152.5479278564453
 30
0.0
 11
73.64451599121094
 21
-152.5479278564453
 31
0.0
  0
LINE
  5
24F
  8
0
  6
CONTINUOUS
 62
     6
 10
-70.2549057006836
 20
-179.1591339111328
 30
0.0
 11
73.64451599121094
 21
-179.1591339111328
 31
0.0
  0
LINE
  5
250
  8
0
  6
CONTINUOUS
 62
     6
 10
-70.2549057006836
 20
-172.5063323974609
 30
0.0
 11
73.64451599121094
 21
-172.5063323974609
 31
0.0
  0
LINE
  5
251
  8
0
  6
CONTINUOUS
 62
     6
 10
-70.2549057006836
 20
-165.853530883789
 30
0.0
 11
73.64451599121094
 21
-165.853530883789
 31
0.0
  0
LINE
  5
252
  8
0
  6
CONTINUOUS
 62
     6
 10
-70.2549057006836
 20
-145.8951263427734
 30
0.0
 11
73.64451599121094
 21
-145.8951263427734
 31
0.0
  0
LINE
  5
253
  8
0
  6
CONTINUOUS
 62
     6
 10
-70.2549057006836
 20
-159.2007293701172
 30
0.0
 11
73.64451599121094
 21
-159.2007293701172
 31
0.0
  0
LINE
  5
254
  8
0
  6
CONTINUOUS
 62
     6
 10
-70.2549057006836
 20
-139.2423400878906
 30
0.0
 11
73.64451599121094
 21
-139.2423400878906
 31
0.0
  0
LINE
  5
255
  8
0
  6
CONTINUOUS
 62
     6
 10
-70.2549057006836
 20
-132.5895385742187
 30
0.0
 11
73.64451599121094
 21
-132.5895385742187
 31
0.0
  0
LINE
  5
256
  8
0
  6
CONTINUOUS
 62
     6
 10
-70.2549057006836
 20
-125.9367370605468
 30
0.0
 11
-49.41972351074219
 21
-125.9367370605468
 31
0.0
  0
LINE
  5
257
  8
0
  6
CENTER
 62
     7
 10
-202.3978570985091
 20
23.34604781580093
 30
0.0
 11
-91.39797339564426
 21
23.34604781580093
 31
0.0
  0
LINE
  5
258
  8
0
  6
CENTER
 62
     7
 10
-119.2612586397558
 20
138.3460459084523
 30
0.0
 11
-67.93858865684561
 21
138.3460459084523
 31
0.0
  0
LINE
  5
259
  8
0
  6
CENTER
 62
     7
 10
-119.271932162705
 20
103.3460459084523
 30
0.0
 11
-67.93858865684561
 21
103.3460459084523
 31
0.0
  0
LINE
  5
25A
  8
0
  6
CENTER
 62
     7
 10
-119.8986805276747
 20
-36.6539540915477
 30
0.0
 11
-93.09064462432303
 21
-36.6539540915477
 31
0.0
  0
LINE
  5
25B
  8
0
  6
CENTER
 62
     7
 10
-215.4052634615331
 20
-43.32895714330552
 30
0.0
 11
-145.1614585298925
 21
-43.32895714330552
 31
0.0
  0
LINE
  5
25C
  8
0
  6
CENTER
 62
     7
 10
55.5306306504069
 20
-10.15395417744175
 30
0.0
 11
67.30512313162646
 21
-3.355948524895226
 31
0.0
  0
LINE
  5
25D
  8
0
  6
CENTER
 62
     7
 10
55.81208862321532
 20
56.68355597305764
 30
0.0
 11
67.14783328767211
 21
50.13886146263916
 31
0.0
  0
LINE
  5
25E
  8
0
  6
CENTER
 62
     7
 10
55.09427343606249
 20
81.80610179048277
 30
0.0
 11
78.67980519892453
 21
58.22057201573226
 31
0.0
  0
LINE
  5
25F
  8
0
  6
CENTER
 62
     7
 10
54.38716834745319
 20
-35.82111823061327
 30
0.0
 11
78.4280991992924
 21
-11.78018940527285
 31
0.0
  0
LINE
  5
260
  8
0
  6
CENTER
 62
     7
 10
21.72807737403819
 20
123.3460459084523
 30
0.0
 11
59.51406332069346
 21
123.3460459084523
 31
0.0
  0
LINE
  5
261
  8
0
  6
CENTER
 62
     7
 10
97.25046773963876
 20
138.3460459084523
 30
0.0
 11
129.9946999173731
 21
138.3460459084523
 31
0.0
  0
LINE
  5
262
  8
0
  6
CENTER
 62
     7
 10
97.25046773963876
 20
103.3460459084523
 30
0.0
 11
129.9946999173731
 21
103.3460459084523
 31
0.0
  0
LINE
  5
263
  8
0
  6
CENTER
 62
     7
 10
97.07023092323251
 20
-91.6539540915477
 30
0.0
 11
129.5702309232325
 21
-91.6539540915477
 31
0.0
  0
LINE
  5
264
  8
0
  6
CENTER
 62
     7
 10
97.07023092323251
 20
-56.6539540915477
 30
0.0
 11
130.0035652738185
 21
-56.6539540915477
 31
0.0
  0
LINE
  5
265
  8
0
  6
CENTER
 62
     7
 10
159.0970382613093
 20
49.64013252954884
 30
0.0
 11
171.9866329903022
 21
57.08194269389251
 31
0.0
  0
LINE
  5
266
  8
0
  6
CENTER
 62
     7
 10
148.4114258691266
 20
58.20313136540845
 30
0.0
 11
169.8930650375374
 21
79.68476872305256
 31
0.0
  0
LINE
  5
267
  8
0
  6
CENTER
 62
     7
 10
158.9900428029522
 20
-2.886257065660075
 30
0.0
 11
171.578043006857
 21
-10.15394156899573
 31
0.0
  0
LINE
  5
268
  8
0
  6
CENTER
 62
     7
 10
148.6631399609542
 20
-11.76275684714382
 30
0.0
 11
172.7215067966063
 21
-35.82112165482739
 31
0.0
  0
ARC
  5
269
  8
0
  6
CENTER
 62
     7
 10
113.5543312650294
 20
23.34604781580093
 30
0.0
 40
60.0
 50
143.490827064919
 51
156.5092222644766
  0
ARC
  5
26A
  8
0
  6
CENTER
 62
     7
 10
113.5543312650294
 20
23.34604781580093
 30
0.0
 40
66.67500305175781
 50
31.21752645061044
 51
58.78247263877315
  0
ARC
  5
26B
  8
0
  6
CENTER
 62
     7
 10
113.5543312650294
 20
23.34604781580093
 30
0.0
 40
66.67500305175781
 50
121.2175392003724
 51
148.782502464008
  0
ARC
  5
26C
  8
0
  6
CENTER
 62
     7
 10
113.5543312650294
 20
23.34604781580093
 30
0.0
 40
66.67500305175781
 50
210.3515251718828
 51
239.6484331637369
  0
ARC
  5
26D
  8
0
  6
CENTER
 62
     7
 10
113.5543312650294
 20
23.34604781580093
 30
0.0
 40
66.67500305175781
 50
300.3515345065501
 51
330.0000025802685
  0
ARC
  5
26E
  8
0
  6
CENTER
 62
     7
 10
113.5543312650294
 20
23.34604781580093
 30
0.0
 40
60.0
 50
203.3116765151073
 51
216.509172935081
  0
ARC
  5
26F
  8
0
  6
CENTER
 62
     7
 10
113.5543312650294
 20
23.34604781580093
 30
0.0
 40
60.0
 50
23.49079811240535
 51
36.50919843460489
  0
ARC
  5
270
  8
0
  6
CENTER
 62
     7
 10
113.5543312650294
 20
23.34604781580093
 30
0.0
 40
60.0
 50
323.3117037600736
 51
336.6883116457472
  0
LINE
  5
271
  8
0
  6
CENTER
 62
     7
 10
-34.2931877270559
 20
23.34604781580093
 30
0.0
 11
262.0613960843654
 21
23.34604781580093
 31
0.0
  0
LINE
  5
272
  8
0
  6
CENTER
 62
     7
 10
109.4128795734569
 20
62.84602533187542
 30
0.0
 11
118.0920167258552
 21
62.84602533187542
 31
0.0
  0
LINE
  5
273
  8
0
  6
CENTER
 62
     7
 10
74.05427514230453
 20
29.01204095687543
 30
0.0
 11
74.05427514230453
 21
17.34602533187543
 31
0.0
  0
LINE
  5
274
  8
0
  6
CENTER
 62
     7
 10
81.41704633449734
 20
0.0094271885765913
 30
0.0
 11
77.07747775829814
 21
7.525780445482962
 31
0.0
  0
LINE
  5
275
  8
0
  6
CENTER
 62
     7
 10
75.27602566320023
 20
1.2460164199675
 30
0.0
 11
82.6463650804392
 21
5.50128339639919
 31
0.0
  0
LINE
  5
276
  8
0
  6
CENTER
 62
     7
 10
153.0542748996898
 20
29.01204095687543
 30
0.0
 11
153.0542748996898
 21
17.34602533187543
 31
0.0
  0
LINE
  5
277
  8
0
  6
CENTER
 62
     7
 10
149.833053233468
 20
7.182623475174278
 30
0.0
 11
145.4934846572687
 21
-0.3337297817320639
 31
0.0
  0
LINE
  5
278
  8
0
  6
CENTER
 62
     7
 10
-144.4860709566503
 20
-75.60211400528505
 30
0.0
 11
-144.4860709566503
 21
-120.7008934189003
 31
0.0
  0
LINE
  5
279
  8
0
  6
CENTER
 62
     7
 10
113.5543312650294
 20
167.8449625344288
 30
0.0
 11
113.5543312650294
 21
55.32391048292112
 31
0.0
  0
LINE
  5
27A
  8
0
  6
CENTER
 62
     7
 10
113.5543312650294
 20
46.30938358853557
 30
0.0
 11
113.5543312650294
 21
-119.3896312870422
 31
0.0
  0
LINE
  5
27B
  8
0
  6
CENTER
 62
     7
 10
-129.9172349354868
 20
62.84604781580092
 30
0.0
 11
-115.4194679442632
 21
62.84604781580092
 31
0.0
  0
LINE
  5
27C
  8
0
  6
CONTINUOUS
 62
     7
 10
-94.23800579856102
 20
90.3460459084523
 30
0.0
 11
-64.2715316194921
 21
90.3460459084523
 31
0.0
  0
LINE
  5
27D
  8
0
  6
CONTINUOUS
 62
     3
 10
-96.1860709566503
 20
160.3460459084523
 30
0.0
 11
-96.1860709566503
 21
152.5822367043507
 31
0.0
  0
LINE
  5
27E
  8
0
  6
CONTINUOUS
 62
     3
 10
-197.1860709566503
 20
163.3460459084523
 30
0.0
 11
-172.1860709566503
 21
163.3460459084523
 31
0.0
  0
LINE
  5
27F
  8
0
  6
CONTINUOUS
 62
     3
 10
-97.18607131098648
 20
161.346053226477
 30
0.0
 11
-96.18607024939698
 21
160.3460521648875
 31
0.0
  0
LINE
  5
280
  8
0
  6
CONTINUOUS
 62
     3
 10
-98.6860709566503
 20
70.78021186304214
 30
0.0
 11
-98.6860709566503
 21
-29.1539540915477
 31
0.0
  0
LINE
  5
281
  8
0
  6
CONTINUOUS
 62
     3
 10
-98.6860709566503
 20
-29.1539540915477
 30
0.0
 11
-96.1860709566503
 21
-29.1539540915477
 31
0.0
  0
LINE
  5
282
  8
0
  6
CONTINUOUS
 62
     3
 10
-197.1860709566503
 20
150.8460459084523
 30
0.0
 11
-191.4860740084081
 21
150.8460459084523
 31
0.0
  0
LINE
  5
283
  8
0
  6
CONTINUOUS
 62
     3
 10
-98.6860709566503
 20
70.78021186304214
 30
0.0
 11
-96.1860709566503
 21
70.78021186304214
 31
0.0
  0
LINE
  5
284
  8
0
  6
CONTINUOUS
 62
     3
 10
-172.1860709566503
 20
163.3460459084523
 30
0.0
 11
-172.1860709566503
 21
138.3460459084523
 31
0.0
  0
LINE
  5
285
  8
0
  6
CONTINUOUS
 62
     3
 10
-172.1860709566503
 20
163.3460459084523
 30
0.0
 11
-97.1860709566503
 21
163.3460459084523
 31
0.0
  0
LINE
  5
286
  8
0
  6
CONTINUOUS
 62
     3
 10
-108.1860709566503
 20
163.3460459084523
 30
0.0
 11
-108.1860709566503
 21
151.3460459084523
 31
0.0
  0
LINE
  5
287
  8
0
  6
CONTINUOUS
 62
     3
 10
-112.9860740084081
 20
81.3460459084523
 30
0.0
 11
-97.1860709566503
 21
81.3460459084523
 31
0.0
  0
LINE
  5
288
  8
0
  6
CONTINUOUS
 62
     3
 10
-116.1860709566503
 20
90.3460459084523
 30
0.0
 11
-95.6860709566503
 21
90.3460459084523
 31
0.0
  0
LINE
  5
289
  8
0
  6
CONTINUOUS
 62
     3
 10
-116.1860709566503
 20
151.3460459084523
 30
0.0
 11
-95.6860709566503
 21
151.3460459084523
 31
0.0
  0
LINE
  5
28A
  8
0
  6
CONTINUOUS
 62
     3
 10
-85.1860709566503
 20
147.3460459084523
 30
0.0
 11
-85.1860709566503
 21
129.3460459084523
 31
0.0
  0
LINE
  5
28B
  8
0
  6
CONTINUOUS
 62
     3
 10
-116.1860709566503
 20
151.3460459084523
 30
0.0
 11
-116.1860709566503
 21
90.3460459084523
 31
0.0
  0
LINE
  5
28C
  8
0
  6
CONTINUOUS
 62
     3
 10
-95.6860709566503
 20
151.3460459084523
 30
0.0
 11
-95.6860709566503
 21
144.3460459084523
 31
0.0
  0
LINE
  5
28D
  8
0
  6
CONTINUOUS
 62
     3
 10
-108.1860709566503
 20
90.3460459084523
 30
0.0
 11
-108.1860709566503
 21
81.3460459084523
 31
0.0
  0
LINE
  5
28E
  8
0
  6
CONTINUOUS
 62
     3
 10
-95.6860709566503
 20
97.3460459084523
 30
0.0
 11
-95.6860709566503
 21
90.3460459084523
 31
0.0
  0
LINE
  5
28F
  8
0
  6
CONTINUOUS
 62
     3
 10
-95.6860709566503
 20
132.3460459084523
 30
0.0
 11
-95.6860709566503
 21
109.3460459084523
 31
0.0
  0
LINE
  5
290
  8
0
  6
CONTINUOUS
 62
     3
 10
-85.1860709566503
 20
112.3460459084523
 30
0.0
 11
-85.1860709566503
 21
94.3460459084523
 31
0.0
  0
LINE
  5
291
  8
0
  6
CONTINUOUS
 62
     3
 10
-73.1860709566503
 20
112.3460459084523
 30
0.0
 11
-73.1860709566503
 21
94.3460459084523
 31
0.0
  0
LINE
  5
292
  8
0
  6
CONTINUOUS
 62
     3
 10
-73.1860709566503
 20
147.3460459084523
 30
0.0
 11
-73.1860709566503
 21
129.3460459084523
 31
0.0
  0
LINE
  5
293
  8
0
  6
CONTINUOUS
 62
     3
 10
-110.1860709566503
 20
144.3460459084523
 30
0.0
 11
-110.1860709566503
 21
132.3460459084523
 31
0.0
  0
LINE
  5
294
  8
0
  6
CONTINUOUS
 62
     3
 10
-110.1860709566503
 20
109.3460459084523
 30
0.0
 11
-110.1860709566503
 21
97.3460459084523
 31
0.0
  0
LINE
  5
295
  8
0
  6
CONTINUOUS
 62
     3
 10
-116.1860709566503
 20
144.3460459084523
 30
0.0
 11
-85.1860709566503
 21
144.3460459084523
 31
0.0
  0
LINE
  5
296
  8
0
  6
CONTINUOUS
 62
     3
 10
-116.1860709566503
 20
132.3460459084523
 30
0.0
 11
-85.1860709566503
 21
132.3460459084523
 31
0.0
  0
LINE
  5
297
  8
0
  6
CONTINUOUS
 62
     3
 10
-116.1860709566503
 20
109.3460459084523
 30
0.0
 11
-85.1860709566503
 21
109.3460459084523
 31
0.0
  0
LINE
  5
298
  8
0
  6
CONTINUOUS
 62
     3
 10
-116.1860709566503
 20
97.3460459084523
 30
0.0
 11
-85.1860709566503
 21
97.3460459084523
 31
0.0
  0
LINE
  5
299
  8
0
  6
CONTINUOUS
 62
     3
 10
-85.1860709566503
 20
112.3460459084523
 30
0.0
 11
-73.1860709566503
 21
112.3460459084523
 31
0.0
  0
LINE
  5
29A
  8
0
  6
CONTINUOUS
 62
     3
 10
-85.1860709566503
 20
94.3460459084523
 30
0.0
 11
-73.1860709566503
 21
94.3460459084523
 31
0.0
  0
LINE
  5
29B
  8
0
  6
CONTINUOUS
 62
     3
 10
-85.1860709566503
 20
129.3460459084523
 30
0.0
 11
-73.1860709566503
 21
129.3460459084523
 31
0.0
  0
LINE
  5
29C
  8
0
  6
CONTINUOUS
 62
     3
 10
-85.1860709566503
 20
147.3460459084523
 30
0.0
 11
-73.1860709566503
 21
147.3460459084523
 31
0.0
  0
LINE
  5
29D
  8
0
  6
CONTINUOUS
 62
     3
 10
-177.2014212984472
 20
73.3460459084523
 30
0.0
 11
-177.2014212984472
 21
-26.65395218419907
 31
0.0
  0
LINE
  5
29E
  8
0
  6
CONTINUOUS
 62
     3
 10
-117.2014212984472
 20
73.3460459084523
 30
0.0
 11
-117.2014212984472
 21
-26.65395218419907
 31
0.0
  0
LINE
  5
29F
  8
0
  6
CONTINUOUS
 62
     3
 10
-176.2014197533021
 20
74.34603909273993
 30
0.0
 11
-177.2014208148916
 21
73.34603803115043
 31
0.0
  0
LINE
  5
2A0
  8
0
  6
CONTINUOUS
 62
     3
 10
-118.2014175238727
 20
74.34604448753645
 30
0.0
 11
-117.2014164622832
 21
73.34604342594695
 31
0.0
  0
LINE
  5
2A1
  8
0
  6
CONTINUOUS
 62
     3
 10
-117.201424554478
 20
-26.65395753447105
 30
0.0
 11
-118.201420221271
 21
-27.65395320126403
 31
0.0
  0
LINE
  5
2A2
  8
0
  6
CONTINUOUS
 62
     3
 10
-177.2014208148916
 20
-26.65396023186931
 30
0.0
 11
-176.2014251480986
 21
-27.65395589866229
 31
0.0
  0
LINE
  5
2A3
  8
0
  6
CONTINUOUS
 62
     3
 10
-129.2014212984472
 20
68.8460459084523
 30
0.0
 11
-129.2014212984472
 21
3.326584395886684
 31
0.0
  0
LINE
  5
2A4
  8
0
  6
CONTINUOUS
 62
     3
 10
-145.2014212984472
 20
67.3460459084523
 30
0.0
 11
-145.2014212984472
 21
-20.65395218419907
 31
0.0
  0
LINE
  5
2A5
  8
0
  6
CONTINUOUS
 62
     3
 10
-143.2014212984472
 20
67.3460459084523
 30
0.0
 11
-143.2014212984472
 21
3.466444072247768
 31
0.0
  0
LINE
  5
2A6
  8
0
  6
CONTINUOUS
 62
     3
 10
-127.2014212984472
 20
68.8460459084523
 30
0.0
 11
-127.2014212984472
 21
-22.15395218419907
 31
0.0
  0
LINE
  5
2A7
  8
0
  6
CONTINUOUS
 62
     3
 10
-145.2014212984472
 20
-20.65395218419907
 30
0.0
 11
-143.2014212984472
 21
-20.65395218419907
 31
0.0
  0
LINE
  5
2A8
  8
0
  6
CONTINUOUS
 62
     3
 10
-145.2014212984472
 20
67.3460459084523
 30
0.0
 11
-143.2014212984472
 21
67.3460459084523
 31
0.0
  0
LINE
  5
2A9
  8
0
  6
CONTINUOUS
 62
     3
 10
-129.2014212984472
 20
-22.15395218419907
 30
0.0
 11
-127.2014212984472
 21
-22.15395218419907
 31
0.0
  0
LINE
  5
2AA
  8
0
  6
CONTINUOUS
 62
     3
 10
-129.2014212984472
 20
68.8460459084523
 30
0.0
 11
-127.2014212984472
 21
68.8460459084523
 31
0.0
  0
LINE
  5
2AB
  8
0
  6
CONTINUOUS
 62
     3
 10
-127.2014212984472
 20
68.3460459084523
 30
0.0
 11
-117.2014212984472
 21
68.3460459084523
 31
0.0
  0
LINE
  5
2AC
  8
0
  6
CONTINUOUS
 62
     3
 10
-127.2014212984472
 20
-21.65395218419907
 30
0.0
 11
-117.2014212984472
 21
-21.65395218419907
 31
0.0
  0
LINE
  5
2AD
  8
0
  6
CONTINUOUS
 62
     3
 10
-127.2014212984472
 20
-9.90395218419907
 30
0.0
 11
-117.2014212984472
 21
-9.90395218419907
 31
0.0
  0
LINE
  5
2AE
  8
0
  6
CONTINUOUS
 62
     3
 10
-116.1860709566503
 20
-33.5039525656688
 30
0.0
 11
-116.1860709566503
 21
-39.80395561742661
 31
0.0
  0
LINE
  5
2AF
  8
0
  6
CONTINUOUS
 62
     3
 10
-116.1860709566503
 20
-39.80395561742661
 30
0.0
 11
-96.1860709566503
 21
-39.80395561742661
 31
0.0
  0
LINE
  5
2B0
  8
0
  6
CONTINUOUS
 62
     3
 10
-116.1860709566503
 20
-33.5039525656688
 30
0.0
 11
-96.1860709566503
 21
-33.5039525656688
 31
0.0
  0
LINE
  5
2B1
  8
0
  6
CONTINUOUS
 62
     3
 10
-118.0047213030279
 20
-36.65395234010829
 30
0.0
 11
-116.1860679795381
 21
-33.5039528145161
 31
0.0
  0
LINE
  5
2B2
  8
0
  6
CONTINUOUS
 62
     3
 10
-118.0047239583412
 20
-36.65395969176485
 30
0.0
 11
-116.1860734958747
 21
-39.80395426192003
 31
0.0
  0
LINE
  5
2B3
  8
0
  6
CONTINUOUS
 62
     3
 10
-191.4860740084081
 20
-27.6539540915477
 30
0.0
 11
-98.6860709566503
 21
-27.6539540915477
 31
0.0
  0
LINE
  5
2B4
  8
0
  6
CONTINUOUS
 62
     3
 10
-114.1860709566503
 20
71.87987464380386
 30
0.0
 11
-114.1860709566503
 21
62.64935248804214
 31
0.0
  0
LINE
  5
2B5
  8
0
  6
CONTINUOUS
 62
     3
 10
-172.1860709566503
 20
163.3460459084523
 30
0.0
 11
-172.1860709566503
 21
134.7664959205057
 31
0.0
  0
LINE
  5
2B6
  8
0
  6
CONTINUOUS
 62
     3
 10
-127.3860679048925
 20
91.8460459084523
 30
0.0
 11
-127.3860679048925
 21
74.3460459084523
 31
0.0
  0
LINE
  5
2B7
  8
0
  6
CONTINUOUS
 62
     3
 10
-137.3860679048925
 20
86.3460459084523
 30
0.0
 11
-137.3860679048925
 21
74.3460459084523
 31
0.0
  0
LINE
  5
2B8
  8
0
  6
CONTINUOUS
 62
     3
 10
-137.3860679048925
 20
-39.6539540915477
 30
0.0
 11
-127.3860679048925
 21
-39.6539540915477
 31
0.0
  0
LINE
  5
2B9
  8
0
  6
CONTINUOUS
 62
     3
 10
-114.1860709566503
 20
69.11448615503433
 30
0.0
 11
-98.6860709566503
 21
69.11448615503433
 31
0.0
  0
LINE
  5
2BA
  8
0
  6
CONTINUOUS
 62
     3
 10
-137.3860679048925
 20
-27.6539540915477
 30
0.0
 11
-137.3860679048925
 21
-39.6539540915477
 31
0.0
  0
LINE
  5
2BB
  8
0
  6
CONTINUOUS
 62
     3
 10
-127.3860679048925
 20
-27.6539540915477
 30
0.0
 11
-127.3860679048925
 21
-39.6539540915477
 31
0.0
  0
LINE
  5
2BC
  8
0
  6
CONTINUOUS
 62
     3
 10
-137.3860679048925
 20
86.3460459084523
 30
0.0
 11
-127.3860679048925
 21
86.3460459084523
 31
0.0
  0
LINE
  5
2BD
  8
0
  6
CONTINUOUS
 62
     3
 10
-192.6004691500097
 20
74.3460459084523
 30
0.0
 11
-118.2014212984472
 21
74.3460459084523
 31
0.0
  0
LINE
  5
2BE
  8
0
  6
CONTINUOUS
 62
     3
 10
-137.5860648531347
 20
91.8460459084523
 30
0.0
 11
-127.3860679048925
 21
91.8460459084523
 31
0.0
  0
LINE
  5
2BF
  8
0
  6
CONTINUOUS
 62
     3
 10
-137.5860648531347
 20
103.3460459084523
 30
0.0
 11
-137.5860648531347
 21
86.99767249536636
 31
0.0
  0
LINE
  5
2C0
  8
0
  6
CONTINUOUS
 62
     3
 10
-137.3860645759429
 20
-33.25203688569708
 30
0.0
 11
-135.8860623964489
 21
-27.65395323188604
 31
0.0
  0
LINE
  5
2C1
  8
0
  6
CONTINUOUS
 62
     3
 10
-137.3860661581613
 20
79.94410383157343
 30
0.0
 11
-135.8860699025658
 21
74.34604228604972
 31
0.0
  0
LINE
  5
2C2
  8
0
  6
CONTINUOUS
 62
     3
 10
-117.1860709566503
 20
163.3460459084523
 30
0.0
 11
-117.1860709566503
 21
78.20951026392105
 31
0.0
  0
LINE
  5
2C3
  8
0
  6
CONTINUOUS
 62
     3
 10
-127.3860679048925
 20
79.8460459084523
 30
0.0
 11
-117.1860709566503
 21
79.8460459084523
 31
0.0
  0
LINE
  5
2C4
  8
0
  6
CONTINUOUS
 62
     3
 10
-117.1860709566503
 20
78.20951026392105
 30
0.0
 11
-112.9860740084081
 21
78.20951026392105
 31
0.0
  0
LINE
  5
2C5
  8
0
  6
CONTINUOUS
 62
     3
 10
-112.9860740084081
 20
81.3460459084523
 30
0.0
 11
-112.9860740084081
 21
72.3460459084523
 31
0.0
  0
LINE
  5
2C6
  8
0
  6
CONTINUOUS
 62
     3
 10
-116.3648963350683
 20
72.3460459084523
 30
0.0
 11
-112.9860740084081
 21
72.3460459084523
 31
0.0
  0
LINE
  5
2C7
  8
0
  6
CONTINUOUS
 62
     3
 10
-143.2014212984472
 20
-1.148924174784398
 30
0.0
 11
-143.2014212984472
 21
-20.65395218419907
 31
0.0
  0
LINE
  5
2C8
  8
0
  6
CONTINUOUS
 62
     3
 10
-129.2014212984472
 20
-1.009064498423314
 30
0.0
 11
-129.2014212984472
 21
-22.15395218419907
 31
0.0
  0
LINE
  5
2C9
  8
0
  6
CONTINUOUS
 62
     3
 10
-197.1860709566503
 20
-116.6539540915477
 30
0.0
 11
-99.1860709566503
 21
-116.6539540915477
 31
0.0
  0
LINE
  5
2CA
  8
0
  6
CONTINUOUS
 62
     3
 10
-96.18608103899001
 20
-113.6539635760133
 30
0.0
 11
-99.18608422375851
 21
-116.6539667607818
 31
0.0
  0
LINE
  5
2CB
  8
0
  6
CONTINUOUS
 62
     3
 10
-197.1860709566503
 20
-104.1539540915477
 30
0.0
 11
-191.4860740084081
 21
-104.1539540915477
 31
0.0
  0
LINE
  5
2CC
  8
0
  6
CONTINUOUS
 62
     3
 10
91.05433126502939
 20
81.3460459084523
 30
0.0
 11
103.5543312650294
 21
81.3460459084523
 31
0.0
  0
LINE
  5
2CD
  8
0
  6
CONTINUOUS
 62
     3
 10
126.8043312650294
 20
81.3460459084523
 30
0.0
 11
126.8043312650294
 21
78.27043097925308
 31
0.0
  0
LINE
  5
2CE
  8
0
  6
CONTINUOUS
 62
     3
 10
100.3043312650294
 20
81.3460459084523
 30
0.0
 11
100.3043312650294
 21
78.27043097925308
 31
0.0
  0
LINE
  5
2CF
  8
0
  6
CONTINUOUS
 62
     3
 10
123.5543312650294
 20
81.3460459084523
 30
0.0
 11
136.0543312650294
 21
81.3460459084523
 31
0.0
  0
LINE
  5
2D0
  8
0
  6
CONTINUOUS
 62
     3
 10
103.5543312650294
 20
90.3460459084523
 30
0.0
 11
123.5543312650294
 21
90.3460459084523
 31
0.0
  0
LINE
  5
2D1
  8
0
  6
CONTINUOUS
 62
     3
 10
103.5543312650294
 20
151.3460459084523
 30
0.0
 11
123.5543312650294
 21
151.3460459084523
 31
0.0
  0
LINE
  5
2D2
  8
0
  6
CONTINUOUS
 62
     3
 10
91.05433126502939
 20
-34.6539540915477
 30
0.0
 11
103.5543312650294
 21
-34.6539540915477
 31
0.0
  0
LINE
  5
2D3
  8
0
  6
CONTINUOUS
 62
     3
 10
123.5543312650294
 20
-34.6539540915477
 30
0.0
 11
136.0543312650294
 21
-34.6539540915477
 31
0.0
  0
LINE
  5
2D4
  8
0
  6
CONTINUOUS
 62
     3
 10
103.5543312650294
 20
-43.6539540915477
 30
0.0
 11
123.5543312650294
 21
-43.6539540915477
 31
0.0
  0
LINE
  5
2D5
  8
0
  6
CONTINUOUS
 62
     3
 10
103.5543312650294
 20
-104.6539540915477
 30
0.0
 11
123.5543312650294
 21
-104.6539540915477
 31
0.0
  0
LINE
  5
2D6
  8
0
  6
CONTINUOUS
 62
     3
 10
100.3043312650294
 20
-31.57833153295395
 30
0.0
 11
100.3043312650294
 21
-34.6539540915477
 31
0.0
  0
LINE
  5
2D7
  8
0
  6
CONTINUOUS
 62
     3
 10
126.8043312650294
 20
-31.57833153295395
 30
0.0
 11
126.8043312650294
 21
-34.6539540915477
 31
0.0
  0
CIRCLE
  5
2D8
  8
0
  6
CONTINUOUS
 62
     3
 10
160.7006783109278
 20
70.49239295435073
 30
0.0
 40
7.0
  0
CIRCLE
  5
2D9
  8
0
  6
CONTINUOUS
 62
     3
 10
66.40798421913095
 20
70.49239295435073
 30
0.0
 40
7.0
  0
ARC
  5
2DA
  8
0
  6
CONTINUOUS
 62
     3
 10
113.5543312650294
 20
23.34604781580093
 30
0.0
 40
52.5
 50
115.3769488184461
 51
244.6230338787099
  0
ARC
  5
2DB
  8
0
  6
CONTINUOUS
 62
     3
 10
113.5543312650294
 20
23.34604781580093
 30
0.0
 40
52.5
 50
295.3769301491114
 51
64.6230698508886
  0
CIRCLE
  5
2DC
  8
0
  6
CONTINUOUS
 62
     3
 10
113.5543312650294
 20
23.34604781580093
 30
0.0
 40
51.0
  0
ARC
  5
2DD
  8
0
  6
CONTINUOUS
 62
     3
 10
113.5543312650294
 20
23.34604781580093
 30
0.0
 40
56.5
 50
66.53242191260898
 51
113.4675967567257
  0
CIRCLE
  5
2DE
  8
0
  6
CONTINUOUS
 62
     3
 10
113.5543312650294
 20
23.34604781580093
 30
0.0
 40
45.0
  0
ARC
  5
2DF
  8
0
  6
CONTINUOUS
 62
     3
 10
113.5543312650294
 20
23.34604781580093
 30
0.0
 40
56.5
 50
246.5324032432743
 51
293.467578087391
  0
CIRCLE
  5
2E0
  8
0
  6
CONTINUOUS
 62
     3
 10
66.40798421913095
 20
70.49239295435073
 30
0.0
 40
10.0
  0
CIRCLE
  5
2E1
  8
0
  6
CONTINUOUS
 62
     3
 10
160.7006783109278
 20
70.49239295435073
 30
0.0
 40
10.0
  0
CIRCLE
  5
2E2
  8
0
  6
CONTINUOUS
 62
     3
 10
165.5158638578028
 20
53.3460459084523
 30
0.0
 40
3.150000095367432
  0
CIRCLE
  5
2E3
  8
0
  6
CONTINUOUS
 62
     3
 10
61.59280630165049
 20
53.3460459084523
 30
0.0
 40
3.150000095367432
  0
CIRCLE
  5
2E4
  8
0
  6
CONTINUOUS
 62
     3
 10
61.59280630165049
 20
-6.653952184199071
 30
0.0
 40
3.150000095367432
  0
CIRCLE
  5
2E5
  8
0
  6
CONTINUOUS
 62
     3
 10
165.5158638578028
 20
-6.653949323176121
 30
0.0
 40
3.150000095367432
  0
CIRCLE
  5
2E6
  8
0
  6
CONTINUOUS
 62
     3
 10
160.7006783109278
 20
-23.80029923009751
 30
0.0
 40
7.0
  0
CIRCLE
  5
2E7
  8
0
  6
CONTINUOUS
 62
     3
 10
160.7006783109278
 20
-23.80029923009751
 30
0.0
 40
10.0
  0
CIRCLE
  5
2E8
  8
0
  6
CONTINUOUS
 62
     3
 10
66.40798421913095
 20
-23.80029732274888
 30
0.0
 40
10.0
  0
LINE
  5
2E9
  8
0
  6
CONTINUOUS
 62
     3
 10
81.05433126502939
 20
-112.8293996481883
 30
0.0
 11
81.05433126502939
 21
-114.8906789450633
 31
0.0
  0
LINE
  5
2EA
  8
0
  6
CONTINUOUS
 62
     3
 10
146.0543312650294
 20
-112.8293996481883
 30
0.0
 11
146.0543312650294
 21
-114.8906789450633
 31
0.0
  0
LINE
  5
2EB
  8
0
  6
CONTINUOUS
 62
     3
 10
91.05433126502939
 20
-116.6539540915477
 30
0.0
 11
136.0543312650294
 21
-116.6539540915477
 31
0.0
  0
LINE
  5
2EC
  8
0
  6
CONTINUOUS
 62
     3
 10
136.0543137617438
 20
-116.653956687467
 30
0.0
 11
146.0543212736662
 21
-114.8906855048803
 31
0.0
  0
LINE
  5
2ED
  8
0
  6
CONTINUOUS
 62
     3
 10
81.05432888982895
 20
-114.8906793823106
 30
0.0
 11
91.05433640175133
 21
-116.6539505648974
 31
0.0
  0
LINE
  5
2EE
  8
0
  6
CONTINUOUS
 62
     3
 10
81.05433126502939
 20
161.582786020757
 30
0.0
 11
81.05433126502939
 21
159.5214914650929
 31
0.0
  0
LINE
  5
2EF
  8
0
  6
CONTINUOUS
 62
     3
 10
146.0543312650294
 20
161.582786020757
 30
0.0
 11
146.0543312650294
 21
159.5214914650929
 31
0.0
  0
LINE
  5
2F0
  8
0
  6
CONTINUOUS
 62
     3
 10
91.05433126502939
 20
163.3460459084523
 30
0.0
 11
136.0543312650294
 21
163.3460459084523
 31
0.0
  0
LINE
  5
2F1
  8
0
  6
CONTINUOUS
 62
     3
 10
81.05433373750893
 20
161.5827647667912
 30
0.0
 11
91.0543337359446
 21
163.3460346245475
 31
0.0
  0
LINE
  5
2F2
  8
0
  6
CONTINUOUS
 62
     3
 10
136.0543226162068
 20
163.3460319088
 30
0.0
 11
146.0543226146425
 21
161.5827620510437
 31
0.0
  0
LINE
  5
2F3
  8
0
  6
CONTINUOUS
 62
     3
 10
-197.1860709566503
 20
163.3460459084523
 30
0.0
 11
-197.1860709566503
 21
-116.6539540915477
 31
0.0
  0
LINE
  5
2F4
  8
0
  6
CONTINUOUS
 62
     3
 10
-191.4860740084081
 20
150.8460459084523
 30
0.0
 11
-191.4860740084081
 21
-104.1539540915477
 31
0.0
  0
LINE
  5
2F5
  8
0
  6
CONTINUOUS
 62
     3
 10
-96.1860709566503
 20
89.44319861841323
 30
0.0
 11
-96.1860709566503
 21
-113.6539540915477
 31
0.0
  0
LINE
  5
2F6
  8
0
  6
CONTINUOUS
 62
     3
 10
136.0543312650294
 20
163.3460459084523
 30
0.0
 11
136.0543312650294
 21
69.11448615503433
 31
0.0
  0
LINE
  5
2F7
  8
0
  6
CONTINUOUS
 62
     3
 10
91.05433126502939
 20
163.3460459084523
 30
0.0
 11
91.05433126502939
 21
69.11448615503433
 31
0.0
  0
LINE
  5
2F8
  8
0
  6
CONTINUOUS
 62
     3
 10
123.5543312650294
 20
163.3460459084523
 30
0.0
 11
123.5543312650294
 21
81.3460459084523
 31
0.0
  0
LINE
  5
2F9
  8
0
  6
CONTINUOUS
 62
     3
 10
103.5543312650294
 20
163.3460459084523
 30
0.0
 11
103.5543312650294
 21
81.3460459084523
 31
0.0
  0
LINE
  5
2FA
  8
0
  6
CONTINUOUS
 62
     3
 10
91.05433126502939
 20
-22.4223924307811
 30
0.0
 11
91.05433126502939
 21
-116.6539540915477
 31
0.0
  0
LINE
  5
2FB
  8
0
  6
CONTINUOUS
 62
     3
 10
136.0543312650294
 20
-22.4223924307811
 30
0.0
 11
136.0543312650294
 21
-116.6539540915477
 31
0.0
  0
LINE
  5
2FC
  8
0
  6
CONTINUOUS
 62
     3
 10
103.5543312650294
 20
-34.6539540915477
 30
0.0
 11
103.5543312650294
 21
-116.6539540915477
 31
0.0
  0
LINE
  5
2FD
  8
0
  6
CONTINUOUS
 62
     3
 10
123.5543312650294
 20
-34.6539540915477
 30
0.0
 11
123.5543312650294
 21
-116.6539540915477
 31
0.0
  0
ARC
  5
2FE
  8
0
  6
CONTINUOUS
 62
     3
 10
113.5543312650294
 20
23.34604781580093
 30
0.0
 40
140.0
 50
99.24837916899891
 51
260.7515966979679
  0
ARC
  5
2FF
  8
0
  6
CONTINUOUS
 62
     3
 10
113.5543312650294
 20
23.34604781580093
 30
0.0
 40
140.0
 50
279.2483604996642
 51
80.75163950033577
  0
ARC
  5
300
  8
0
  6
CONTINUOUS
 62
     3
 10
113.5543312650294
 20
23.34604781580093
 30
0.0
 40
137.0
 50
99.45273159877654
 51
260.5472374380011
  0
ARC
  5
301
  8
0
  6
CONTINUOUS
 62
     3
 10
113.5543312650294
 20
23.34604781580093
 30
0.0
 40
137.0
 50
279.4527129294419
 51
80.54728707055814
  0
LINE
  5
302
  8
0
  6
CONTINUOUS
 62
     3
 10
-176.2014212984472
 20
58.34604781580093
 30
0.0
 11
-146.2014212984472
 21
58.34604781580093
 31
0.0
  0
LINE
  5
303
  8
0
  6
CONTINUOUS
 62
     3
 10
-176.2014212984472
 20
-11.65395218419907
 30
0.0
 11
-146.2014212984472
 21
-11.65395218419907
 31
0.0
  0
LINE
  5
304
  8
0
  6
CONTINUOUS
 62
     3
 10
-146.2014017924188
 20
58.34602513242827
 30
0.0
 11
-145.2013987920722
 21
59.34602433955442
 31
0.0
  0
LINE
  5
305
  8
0
  6
CONTINUOUS
 62
     3
 10
-176.2014218656444
 20
58.34605941074697
 30
0.0
 11
-177.2014209884768
 21
59.34606241109358
 31
0.0
  0
LINE
  5
306
  8
0
  6
CONTINUOUS
 62
     3
 10
-143.2014212984472
 20
67.09604781580092
 30
0.0
 11
-129.2014212984472
 21
67.09604781580092
 31
0.0
  0
LINE
  5
307
  8
0
  6
CONTINUOUS
 62
     3
 10
-176.2014059360849
 20
-11.65398082175979
 30
0.0
 11
-177.2014000012609
 21
-12.65396730057672
 31
0.0
  0
LINE
  5
308
  8
0
  6
CONTINUOUS
 62
     3
 10
-146.2014017924188
 20
-11.65392950082641
 30
0.0
 11
-145.2013987920722
 21
-12.65392870795256
 31
0.0
  0
LINE
  5
309
  8
0
  6
CONTINUOUS
 62
     3
 10
-143.2014212984472
 20
-20.40395218419906
 30
0.0
 11
-129.2014212984472
 21
-20.40395218419906
 31
0.0
  0
CIRCLE
  5
30A
  8
0
  6
CONTINUOUS
 62
     3
 10
74.05427514230453
 20
23.34602533187543
 30
0.0
 40
3.099999904632568
  0
CIRCLE
  5
30B
  8
0
  6
CONTINUOUS
 62
     3
 10
153.0542751423045
 20
23.34602533187543
 30
0.0
 40
3.099999904632568
  0
LINE
  5
30C
  8
0
  6
CONTINUOUS
 62
     3
 10
-127.2014289278417
 20
65.84604781580093
 30
0.0
 11
-117.2014289278417
 21
65.84604781580093
 31
0.0
  0
LINE
  5
30D
  8
0
  6
CONTINUOUS
 62
     3
 10
-127.2014289278417
 20
59.84604781580092
 30
0.0
 11
-117.2014289278417
 21
59.84604781580092
 31
0.0
  0
LINE
  5
30E
  8
0
  6
CONTINUOUS
 62
     3
 10
-122.2014289278417
 20
65.84604781580093
 30
0.0
 11
-122.2014289278417
 21
59.84604781580092
 31
0.0
  0
LINE
  5
30F
  8
0
  6
CONTINUOUS
 62
     3
 10
-118.2014289278417
 20
65.84604781580093
 30
0.0
 11
-118.2014289278417
 21
59.84604781580092
 31
0.0
  0
LINE
  5
310
  8
0
  6
DIVIDE
 62
     9
 10
-193.8860679048925
 20
74.3460459084523
 30
0.0
 11
-192.6004691500097
 21
74.3460459084523
 31
0.0
  0
LINE
  5
311
  8
0
  6
DIVIDE
 62
     9
 10
-209.1860709566503
 20
-37.32895714330552
 30
0.0
 11
-209.1860709566503
 21
-49.32895714330552
 31
0.0
  0
LINE
  5
312
  8
0
  6
DIVIDE
 62
     9
 10
-173.1860709566503
 20
-37.32895714330552
 30
0.0
 11
-173.1860709566503
 21
-49.32895714330552
 31
0.0
  0
LINE
  5
313
  8
0
  6
DIVIDE
 62
     9
 10
-209.1860709566503
 20
-48.47895866918442
 30
0.0
 11
-173.1860709566503
 21
-48.47895866918442
 31
0.0
  0
LINE
  5
314
  8
0
  6
DIVIDE
 62
     9
 10
-209.1860709566503
 20
-38.17895561742661
 30
0.0
 11
-173.1860709566503
 21
-38.17895561742661
 31
0.0
  0
LINE
  5
315
  8
0
  6
DIVIDE
 62
     9
 10
-209.1860709566503
 20
-37.32895714330552
 30
0.0
 11
-147.1380515474706
 21
-37.32895714330552
 31
0.0
  0
LINE
  5
316
  8
0
  6
DIVIDE
 62
     9
 10
-209.1860709566503
 20
-49.32895714330552
 30
0.0
 11
-147.1380515474706
 21
-49.32895714330552
 31
0.0
  0
LINE
  5
317
  8
0
  6
DIVIDE
 62
     9
 10
-99.88607553428702
 20
73.3460459084523
 30
0.0
 11
-99.88607553428702
 21
26.39264434290054
 31
0.0
  0
LINE
  5
318
  8
0
  6
DIVIDE
 62
     9
 10
-100.8860736204287
 20
74.34604448753645
 30
0.0
 11
-99.88607255883917
 21
73.34604342594695
 31
0.0
  0
LINE
  5
319
  8
0
  6
DIVIDE
 62
     9
 10
-106.9415641207128
 20
74.3460459084523
 30
0.0
 11
-100.886075534287
 21
74.3460459084523
 31
0.0
  0
LINE
  5
31A
  8
0
  6
DIVIDE
 62
     9
 10
-193.8860828135106
 20
74.34605451641765
 30
0.0
 11
-194.8860854766557
 21
73.34604418249647
 31
0.0
  0
LINE
  5
31B
  8
0
  6
DIVIDE
 62
     9
 10
-194.8860679048925
 20
73.34603827905777
 30
0.0
 11
-194.8860679048925
 21
26.19617980432632
 31
0.0
  0
LINE
  5
31C
  8
0
  6
CONTINUOUS
 62
     4
 10
-97.1860709566503
 20
163.3460459084523
 30
0.0
 11
-97.1860709566503
 21
151.3460459084523
 31
0.0
  0
LINE
  5
31D
  8
0
  6
CONTINUOUS
 62
     4
 10
-98.1860709566503
 20
163.3460459084523
 30
0.0
 11
-98.1860709566503
 21
151.3460459084523
 31
0.0
  0
LINE
  5
31E
  8
0
  6
CONTINUOUS
 62
     4
 10
-98.1860709566503
 20
90.3460459084523
 30
0.0
 11
-98.1860709566503
 21
81.3460459084523
 31
0.0
  0
LINE
  5
31F
  8
0
  6
CONTINUOUS
 62
     4
 10
-97.1860709566503
 20
90.3460459084523
 30
0.0
 11
-97.1860709566503
 21
81.3460459084523
 31
0.0
  0
LINE
  5
320
  8
0
  6
CONTINUOUS
 62
     4
 10
-116.1860709566503
 20
108.4960474343312
 30
0.0
 11
-85.1860709566503
 21
108.4960474343312
 31
0.0
  0
LINE
  5
321
  8
0
  6
CONTINUOUS
 62
     4
 10
-116.1860709566503
 20
98.19604438257339
 30
0.0
 11
-85.1860709566503
 21
98.19604438257339
 31
0.0
  0
LINE
  5
322
  8
0
  6
CONTINUOUS
 62
     4
 10
-116.1860709566503
 20
143.4960398049367
 30
0.0
 11
-85.1860709566503
 21
143.4960398049367
 31
0.0
  0
LINE
  5
323
  8
0
  6
CONTINUOUS
 62
     4
 10
-116.1860709566503
 20
133.1960520119679
 30
0.0
 11
-85.1860709566503
 21
133.1960520119679
 31
0.0
  0
LINE
  5
324
  8
0
  6
CONTINUOUS
 62
     4
 10
-127.2014212984472
 20
-20.95395142125962
 30
0.0
 11
-117.2014212984472
 21
-20.95395142125962
 31
0.0
  0
LINE
  5
325
  8
0
  6
CONTINUOUS
 62
     4
 10
-127.2014212984472
 20
67.64604896021011
 30
0.0
 11
-117.2014212984472
 21
67.64604896021011
 31
0.0
  0
LINE
  5
326
  8
0
  6
CONTINUOUS
 62
     4
 10
-111.1860709566503
 20
-32.6539540915477
 30
0.0
 11
-111.1860709566503
 21
-40.6539540915477
 31
0.0
  0
LINE
  5
327
  8
0
  6
CONTINUOUS
 62
     4
 10
-111.1860709566503
 20
-32.6539540915477
 30
0.0
 11
-96.1860709566503
 21
-32.6539540915477
 31
0.0
  0
LINE
  5
328
  8
0
  6
CONTINUOUS
 62
     4
 10
-111.1860709566503
 20
-40.6539540915477
 30
0.0
 11
-96.1860709566503
 21
-40.6539540915477
 31
0.0
  0
LINE
  5
329
  8
0
  6
CONTINUOUS
 62
     4
 10
92.05433126502939
 20
82.8460459084523
 30
0.0
 11
102.5543312650294
 21
82.8460459084523
 31
0.0
  0
LINE
  5
32A
  8
0
  6
CONTINUOUS
 62
     4
 10
124.5543312650294
 20
82.8460459084523
 30
0.0
 11
135.0543312650294
 21
82.8460459084523
 31
0.0
  0
LINE
  5
32B
  8
0
  6
CONTINUOUS
 62
     4
 10
124.5543312650294
 20
84.3460459084523
 30
0.0
 11
135.0543312650294
 21
84.3460459084523
 31
0.0
  0
LINE
  5
32C
  8
0
  6
CONTINUOUS
 62
     4
 10
124.5543312650294
 20
85.8460459084523
 30
0.0
 11
135.0543312650294
 21
85.8460459084523
 31
0.0
  0
LINE
  5
32D
  8
0
  6
CONTINUOUS
 62
     4
 10
124.5543312650294
 20
87.3460459084523
 30
0.0
 11
135.0543312650294
 21
87.3460459084523
 31
0.0
  0
LINE
  5
32E
  8
0
  6
CONTINUOUS
 62
     4
 10
124.5543312650294
 20
88.8460459084523
 30
0.0
 11
135.0543312650294
 21
88.8460459084523
 31
0.0
  0
LINE
  5
32F
  8
0
  6
CONTINUOUS
 62
     4
 10
124.5543312650294
 20
90.3460459084523
 30
0.0
 11
135.0543312650294
 21
90.3460459084523
 31
0.0
  0
LINE
  5
330
  8
0
  6
CONTINUOUS
 62
     4
 10
92.05433126502939
 20
84.3460459084523
 30
0.0
 11
102.5543312650294
 21
84.3460459084523
 31
0.0
  0
LINE
  5
331
  8
0
  6
CONTINUOUS
 62
     4
 10
92.05433126502939
 20
85.8460459084523
 30
0.0
 11
102.5543312650294
 21
85.8460459084523
 31
0.0
  0
LINE
  5
332
  8
0
  6
CONTINUOUS
 62
     4
 10
92.05433126502939
 20
87.3460459084523
 30
0.0
 11
102.5543312650294
 21
87.3460459084523
 31
0.0
  0
LINE
  5
333
  8
0
  6
CONTINUOUS
 62
     4
 10
92.05433126502939
 20
88.8460459084523
 30
0.0
 11
102.5543312650294
 21
88.8460459084523
 31
0.0
  0
LINE
  5
334
  8
0
  6
CONTINUOUS
 62
     4
 10
92.05433126502939
 20
90.3460459084523
 30
0.0
 11
102.5543312650294
 21
90.3460459084523
 31
0.0
  0
CIRCLE
  5
335
  8
0
  6
CONTINUOUS
 62
     4
 10
113.5543312650294
 20
23.34604781580093
 30
0.0
 40
44.0
  0
ARC
  5
336
  8
0
  6
CONTINUOUS
 62
     4
 10
113.5543312650294
 20
23.34604781580093
 30
0.0
 40
57.0
 50
114.9010758785929
 51
129.2199800772561
  0
ARC
  5
337
  8
0
  6
CONTINUOUS
 62
     4
 10
113.5543312650294
 20
23.34604781580093
 30
0.0
 40
57.0
 50
294.9010640394474
 51
309.219964823016
  0
ARC
  5
338
  8
0
  6
CONTINUOUS
 62
     4
 10
113.5543312650294
 20
23.34604781580093
 30
0.0
 40
63.0
 50
112.3927025662841
 51
125.3552814599444
  0
ARC
  5
339
  8
0
  6
CONTINUOUS
 62
     4
 10
113.5543312650294
 20
23.34604781580093
 30
0.0
 40
69.0
 50
110.3544238537905
 51
125.4753015440399
  0
ARC
  5
33A
  8
0
  6
CONTINUOUS
 62
     4
 10
113.5543312650294
 20
23.34604781580093
 30
0.0
 40
75.0
 50
108.6629411662152
 51
128.5684483323285
  0
ARC
  5
33B
  8
0
  6
CONTINUOUS
 62
     4
 10
113.5543312650294
 20
23.34604781580093
 30
0.0
 40
81.0
 50
107.2353018560883
 51
252.7646740108785
  0
ARC
  5
33C
  8
0
  6
CONTINUOUS
 62
     4
 10
113.5543312650294
 20
23.34604781580093
 30
0.0
 40
87.0
 50
106.0134151645189
 51
253.9865675326371
  0
ARC
  5
33D
  8
0
  6
CONTINUOUS
 62
     4
 10
113.5543312650294
 20
23.34604781580093
 30
0.0
 40
93.0
 50
104.9552685979222
 51
255.0447277596121
  0
ARC
  5
33E
  8
0
  6
CONTINUOUS
 62
     4
 10
113.5543312650294
 20
23.34604781580093
 30
0.0
 40
99.0
 50
104.0296823427371
 51
255.9703003544189
  0
ARC
  5
33F
  8
0
  6
CONTINUOUS
 62
     4
 10
113.5543312650294
 20
23.34604781580093
 30
0.0
 40
105.0
 50
103.2129966236787
 51
256.8732513626946
  0
ARC
  5
340
  8
0
  6
CONTINUOUS
 62
     4
 10
113.5543312650294
 20
23.34604781580093
 30
0.0
 40
63.0
 50
292.3926907271386
 51
305.3552627906097
  0
ARC
  5
341
  8
0
  6
CONTINUOUS
 62
     4
 10
113.5543312650294
 20
23.34604781580093
 30
0.0
 40
69.0
 50
290.3544051844559
 51
305.4752794596106
  0
ARC
  5
342
  8
0
  6
CONTINUOUS
 62
     4
 10
113.5543312650294
 20
23.34604781580093
 30
0.0
 40
75.0
 50
288.6629224968806
 51
308.5684296629939
  0
ARC
  5
343
  8
0
  6
CONTINUOUS
 62
     4
 10
113.5543312650294
 20
23.34604781580093
 30
0.0
 40
75.0
 50
231.4315516676715
 51
251.3370451734064
  0
ARC
  5
344
  8
0
  6
CONTINUOUS
 62
     4
 10
113.5543312650294
 20
23.34604781580093
 30
0.0
 40
75.0
 50
141.4315933320518
 51
218.5683893651042
  0
ARC
  5
345
  8
0
  6
CONTINUOUS
 62
     4
 10
113.5543312650294
 20
23.34604781580093
 30
0.0
 40
69.0
 50
144.5247401203405
 51
215.4752425768155
  0
ARC
  5
346
  8
0
  6
CONTINUOUS
 62
     4
 10
113.5543312650294
 20
23.34604781580093
 30
0.0
 40
69.0
 50
234.5246984559601
 51
249.6455624858311
  0
ARC
  5
347
  8
0
  6
CONTINUOUS
 62
     4
 10
113.5543312650294
 20
23.34604781580093
 30
0.0
 40
63.0
 50
234.6447048796772
 51
247.6072974337159
  0
ARC
  5
348
  8
0
  6
CONTINUOUS
 62
     4
 10
113.5543312650294
 20
23.34604781580093
 30
0.0
 40
63.0
 50
144.6447602044359
 51
146.5611200402447
  0
ARC
  5
349
  8
0
  6
CONTINUOUS
 62
     4
 10
113.5543312650294
 20
23.34604781580093
 30
0.0
 40
57.0
 50
140.7800615871243
 51
145.8243748552322
  0
ARC
  5
34A
  8
0
  6
CONTINUOUS
 62
     4
 10
113.5543312650294
 20
23.34604781580093
 30
0.0
 40
57.0
 50
230.7800199227439
 51
245.098924121407
  0
CIRCLE
  5
34B
  8
0
  6
CONTINUOUS
 62
     4
 10
61.59280630165049
 20
53.3460459084523
 30
0.0
 40
4.0
  0
CIRCLE
  5
34C
  8
0
  6
CONTINUOUS
 62
     4
 10
165.5158638578028
 20
53.3460459084523
 30
0.0
 40
4.0
  0
ARC
  5
34D
  8
0
  6
CONTINUOUS
 62
     4
 10
113.5543312650294
 20
23.34604781580093
 30
0.0
 40
63.0
 50
153.6455698323004
 51
206.2800730859291
  0
ARC
  5
34E
  8
0
  6
CONTINUOUS
 62
     4
 10
113.5543312650294
 20
23.34604781580093
 30
0.0
 40
57.0
 50
154.1015669216688
 51
206.2498016875277
  0
ARC
  5
34F
  8
0
  6
CONTINUOUS
 62
     4
 10
113.5543312650294
 20
23.34604781580093
 30
0.0
 40
57.0
 50
33.99168291409198
 51
39.21995708221038
  0
ARC
  5
350
  8
0
  6
CONTINUOUS
 62
     4
 10
113.5543312650294
 20
23.34604781580093
 30
0.0
 40
63.0
 50
33.55627542997659
 51
35.35526187999333
  0
ARC
  5
351
  8
0
  6
CONTINUOUS
 62
     4
 10
113.5543312650294
 20
23.34604781580093
 30
0.0
 40
81.0
 50
287.2352831867537
 51
72.76471681324634
  0
ARC
  5
352
  8
0
  6
CONTINUOUS
 62
     4
 10
113.5543312650294
 20
23.34604781580093
 30
0.0
 40
75.0
 50
51.43157033700614
 51
71.33707750311945
  0
ARC
  5
353
  8
0
  6
CONTINUOUS
 62
     4
 10
113.5543312650294
 20
23.34604781580093
 30
0.0
 40
69.0
 50
54.52472054038937
 51
69.64559481554413
  0
ARC
  5
354
  8
0
  6
CONTINUOUS
 62
     4
 10
113.5543312650294
 20
23.34604781580093
 30
0.0
 40
63.0
 50
54.64473720939026
 51
67.60731610305058
  0
ARC
  5
355
  8
0
  6
CONTINUOUS
 62
     4
 10
113.5543312650294
 20
23.34604781580093
 30
0.0
 40
57.0
 50
50.78003176188945
 51
65.09893596055257
  0
ARC
  5
356
  8
0
  6
CONTINUOUS
 62
     4
 10
113.5543312650294
 20
23.34604781580093
 30
0.0
 40
57.0
 50
320.780039502695
 51
325.6656055141135
  0
ARC
  5
357
  8
0
  6
CONTINUOUS
 62
     4
 10
113.5543312650294
 20
23.34604781580093
 30
0.0
 40
63.0
 50
324.6447347049121
 51
326.5287160289604
  0
ARC
  5
358
  8
0
  6
CONTINUOUS
 62
     4
 10
113.5543312650294
 20
23.34604781580093
 30
0.0
 40
69.0
 50
324.5247214510058
 51
35.47527513389962
  0
ARC
  5
359
  8
0
  6
CONTINUOUS
 62
     4
 10
113.5543312650294
 20
23.34604781580093
 30
0.0
 40
75.0
 50
321.4315746627171
 51
38.56842533728286
  0
ARC
  5
35A
  8
0
  6
CONTINUOUS
 62
     4
 10
113.5543312650294
 20
23.34604781580093
 30
0.0
 40
87.0
 50
286.0133964951842
 51
73.98660350481576
  0
ARC
  5
35B
  8
0
  6
CONTINUOUS
 62
     4
 10
113.5543312650294
 20
23.34604781580093
 30
0.0
 40
93.0
 50
284.9552499285875
 51
75.04475007141248
  0
ARC
  5
35C
  8
0
  6
CONTINUOUS
 62
     4
 10
113.5543312650294
 20
23.34604781580093
 30
0.0
 40
99.0
 50
284.0296636734024
 51
75.97033632659759
  0
ARC
  5
35D
  8
0
  6
CONTINUOUS
 62
     4
 10
113.5543312650294
 20
23.34604781580093
 30
0.0
 40
105.0
 50
283.212977954344
 51
76.78702204565602
  0
CIRCLE
  5
35E
  8
0
  6
CONTINUOUS
 62
     4
 10
165.5158638578028
 20
-6.653949323176121
 30
0.0
 40
4.0
  0
CIRCLE
  5
35F
  8
0
  6
CONTINUOUS
 62
     4
 10
61.59280630165049
 20
-6.653952184199071
 30
0.0
 40
4.0
  0
ARC
  5
360
  8
0
  6
CONTINUOUS
 62
     4
 10
113.5543312650294
 20
23.34604781580093
 30
0.0
 40
57.0
 50
333.8264026193566
 51
26.2208349689432
  0
ARC
  5
361
  8
0
  6
CONTINUOUS
 62
     4
 10
113.5543312650294
 20
23.34604781580093
 30
0.0
 40
63.0
 50
334.0848825907593
 51
26.5149070561108
  0
ARC
  5
362
  8
0
  6
CONTINUOUS
 62
     4
 10
113.5543312650294
 20
23.34604781580093
 30
0.0
 40
63.0
 50
213.3754275023659
 51
215.3552534559424
  0
ARC
  5
363
  8
0
  6
CONTINUOUS
 62
     4
 10
113.5543312650294
 20
23.34604781580093
 30
0.0
 40
57.0
 50
213.8894128977876
 51
219.2199384128757
  0
LINE
  5
364
  8
0
  6
CONTINUOUS
 62
     4
 10
124.5543312650294
 20
161.8460459084523
 30
0.0
 11
135.0543312650294
 21
161.8460459084523
 31
0.0
  0
LINE
  5
365
  8
0
  6
CONTINUOUS
 62
     4
 10
92.05433126502939
 20
161.8460459084523
 30
0.0
 11
102.5543312650294
 21
161.8460459084523
 31
0.0
  0
LINE
  5
366
  8
0
  6
CONTINUOUS
 62
     4
 10
92.05433126502939
 20
160.3460459084523
 30
0.0
 11
102.5543312650294
 21
160.3460459084523
 31
0.0
  0
LINE
  5
367
  8
0
  6
CONTINUOUS
 62
     4
 10
92.05433126502939
 20
158.8460459084523
 30
0.0
 11
102.5543312650294
 21
158.8460459084523
 31
0.0
  0
LINE
  5
368
  8
0
  6
CONTINUOUS
 62
     4
 10
92.05433126502939
 20
157.3460459084523
 30
0.0
 11
102.5543312650294
 21
157.3460459084523
 31
0.0
  0
LINE
  5
369
  8
0
  6
CONTINUOUS
 62
     4
 10
92.05433126502939
 20
155.8460459084523
 30
0.0
 11
102.5543312650294
 21
155.8460459084523
 31
0.0
  0
LINE
  5
36A
  8
0
  6
CONTINUOUS
 62
     4
 10
92.05433126502939
 20
154.3460459084523
 30
0.0
 11
102.5543312650294
 21
154.3460459084523
 31
0.0
  0
LINE
  5
36B
  8
0
  6
CONTINUOUS
 62
     4
 10
124.5543312650294
 20
160.3460459084523
 30
0.0
 11
135.0543312650294
 21
160.3460459084523
 31
0.0
  0
LINE
  5
36C
  8
0
  6
CONTINUOUS
 62
     4
 10
124.5543312650294
 20
158.8460459084523
 30
0.0
 11
135.0543312650294
 21
158.8460459084523
 31
0.0
  0
LINE
  5
36D
  8
0
  6
CONTINUOUS
 62
     4
 10
124.5543312650294
 20
157.3460459084523
 30
0.0
 11
135.0543312650294
 21
157.3460459084523
 31
0.0
  0
LINE
  5
36E
  8
0
  6
CONTINUOUS
 62
     4
 10
124.5543312650294
 20
155.8460459084523
 30
0.0
 11
135.0543312650294
 21
155.8460459084523
 31
0.0
  0
LINE
  5
36F
  8
0
  6
CONTINUOUS
 62
     4
 10
124.5543312650294
 20
154.3460459084523
 30
0.0
 11
135.0543312650294
 21
154.3460459084523
 31
0.0
  0
LINE
  5
370
  8
0
  6
CONTINUOUS
 62
     4
 10
-146.2014212984472
 20
58.34604781580093
 30
0.0
 11
-146.2014212984472
 21
45.44868224573257
 31
0.0
  0
LINE
  5
371
  8
0
  6
CONTINUOUS
 62
     4
 10
-176.2014212984472
 20
58.34604781580093
 30
0.0
 11
-176.2014212984472
 21
45.72937148523452
 31
0.0
  0
LINE
  5
372
  8
0
  6
CONTINUOUS
 62
     4
 10
-176.2014212984472
 20
0.1261858315479998
 30
0.0
 11
-176.2014212984472
 21
-11.65395218419907
 31
0.0
  0
LINE
  5
373
  8
0
  6
CONTINUOUS
 62
     4
 10
-146.2014212984472
 20
0.687564310551906
 30
0.0
 11
-146.2014212984472
 21
-11.65395218419907
 31
0.0
  0
CIRCLE
  5
374
  8
0
  6
CONTINUOUS
 62
     4
 10
113.5542751423045
 20
62.84602533187542
 30
0.0
 40
2.5
  0
CIRCLE
  5
375
  8
0
  6
CONTINUOUS
 62
     4
 10
79.34634855007349
 20
3.595980958318972
 30
0.0
 40
2.499999999999999
  0
CIRCLE
  5
376
  8
0
  6
CONTINUOUS
 62
     4
 10
147.7623554490441
 20
3.596069705431869
 30
0.0
 40
2.5
  0
LINE
  5
377
  8
0
  6
CONTINUOUS
 62
     4
 10
-127.2014289278417
 20
65.34604781580093
 30
0.0
 11
-117.2014289278417
 21
65.34604781580093
 31
0.0
  0
LINE
  5
378
  8
0
  6
CONTINUOUS
 62
     4
 10
-127.2014289278417
 20
60.34604781580092
 30
0.0
 11
-117.2014289278417
 21
60.34604781580092
 31
0.0
  0
TEXT
  5
379
  8
0
 62
     7
 10
-53.49328139359248
 20
42.37149556263184
 30
0.0
 40
4.0
  1
MIN 53
 50
90.0
 41
0.9000000000000001
  7
DCSTYLE1
 72
     5
 11
-53.49328139359248
 21
61.57149556263184
 31
0.0
  0
TEXT
  5
37A
  8
0
 62
     7
 10
-218.3707288465883
 20
170.6817979711409
 30
0.0
 40
4.0
  1
MIN-3.4
 41
0.9187500000000003
  7
DCSTYLE1
 72
     5
 11
-195.9707288465883
 21
170.6817979711409
 31
0.0
  0
TEXT
  5
37B
  8
0
 62
     7
 10
-181.1381980318456
 20
-148.1484613374645
 30
0.0
 40
4.0
  1
MIN 28.6
 41
0.9464788732394365
  7
DCSTYLE1
 72
     5
 11
-155.5381980318456
 21
-148.1484613374645
 31
0.0
  0
LINE
  5
37C
  8
LAYER0014
  6
CONTINUOUS
 62
     7
 10
-191.4860740084081
 20
175.3936533303273
 30
0.0
 11
-219.1664939302831
 21
175.3936533303273
 31
0.0
  0
LINE
  5
37D
  8
LAYER0014
  6
CONTINUOUS
 62
     7
 10
-191.4860740084081
 20
151.631737436951
 30
0.0
 11
-191.4860740084081
 21
176.3936533303273
 31
0.0
  0
LINE
  5
37E
  8
LAYER0014
  6
CONTINUOUS
 62
     7
 10
-177.2014212984472
 20
75.8860459084523
 30
0.0
 11
-177.2014212984472
 21
176.3936533303273
 31
0.0
  0
LINE
  5
37F
  8
LAYER0014
  6
CONTINUOUS
 62
     7
 10
-191.4860740084081
 20
175.3936533303273
 30
0.0
 11
-177.2014212984472
 21
175.3936533303273
 31
0.0
  0
INSERT
  5
380
  8
LAYER0014
 62
     7
  2
_OPEN30
 10
-191.4860740084081
 20
175.3936533303273
 30
0.0
 41
2.499995396844351
 42
2.500007167085477
 50
180.0
  0
INSERT
  5
381
  8
LAYER0014
 62
     7
  2
_OPEN30
 10
-177.2014212984472
 20
175.3936533303273
 30
0.0
 41
2.499995396844351
 42
2.500007167085477
 50
360.0
  0
TEXT
  5
382
  8
LAYER0014
 62
     7
 10
-218.0887839693456
 20
175.9877738292295
 30
0.0
 40
4.0
  1
ＭＡＸ31.6
 41
0.9719008264462801
  7
DCSTYLE1
 72
     5
 11
-195.6887839693456
 21
175.9877738292295
 31
0.0
  0
INSERT
  5
383
  8
LAYER0014
  6
CONTINUOUS
  2
DC_IMAGEDIMGROUP_1
 10
0.0
 20
0.0
 30
0.0
  0
INSERT
  5
384
  8
LAYER0014
  6
CONTINUOUS
  2
DC_IMAGEDIMGROUP_2
 10
0.0
 20
0.0
 30
0.0
  0
INSERT
  5
385
  8
LAYER0014
  6
CONTINUOUS
  2
DC_IMAGEDIMGROUP_3
 10
0.0
 20
0.0
 30
0.0
  0
INSERT
  5
386
  8
LAYER0014
  6
CONTINUOUS
  2
DC_IMAGEDIMGROUP_4
 10
0.0
 20
0.0
 30
0.0
  0
INSERT
  5
387
  8
LAYER0014
  6
CONTINUOUS
  2
DC_IMAGEDIMGROUP_5
 10
0.0
 20
0.0
 30
0.0
  0
INSERT
  5
388
  8
LAYER0014
  6
CONTINUOUS
  2
DC_IMAGEDIMGROUP_6
 10
0.0
 20
0.0
 30
0.0
  0
INSERT
  5
389
  8
LAYER0014
  6
CONTINUOUS
  2
DC_IMAGEDIMGROUP_7
 10
0.0
 20
0.0
 30
0.0
  0
INSERT
  5
38A
  8
LAYER0014
  6
CONTINUOUS
  2
DC_IMAGEDIMGROUP_8
 10
0.0
 20
0.0
 30
0.0
  0
INSERT
  5
38B
  8
LAYER0014
  6
CONTINUOUS
  2
DC_IMAGEDIMGROUP_9
 10
0.0
 20
0.0
 30
0.0
  0
INSERT
  5
38C
  8
LAYER0014
  6
CONTINUOUS
  2
DC_IMAGEDIMGROUP_10
 10
0.0
 20
0.0
 30
0.0
  0
INSERT
  5
38D
  8
LAYER0014
  6
CONTINUOUS
  2
DC_IMAGEDIMGROUP_11
 10
0.0
 20
0.0
 30
0.0
  0
INSERT
  5
38E
  8
LAYER0014
  6
CONTINUOUS
  2
DC_IMAGEDIMGROUP_12
 10
0.0
 20
0.0
 30
0.0
  0
INSERT
  5
38F
  8
LAYER0014
  6
CONTINUOUS
  2
DC_IMAGEDIMGROUP_13
 10
0.0
 20
0.0
 30
0.0
  0
INSERT
  5
390
  8
LAYER0014
  6
CONTINUOUS
  2
DC_GROUP_1
 10
0.0
 20
0.0
 30
0.0
  0
INSERT
  5
391
  8
LAYER0014
  6
CONTINUOUS
  2
DC_IMAGEDIMGROUP_14
 10
0.0
 20
0.0
 30
0.0
  0
INSERT
  5
392
  8
LAYER0014
  6
CONTINUOUS
  2
DC_IMAGEDIMGROUP_15
 10
0.0
 20
0.0
 30
0.0
  0
INSERT
  5
393
  8
LAYER0014
  6
CONTINUOUS
  2
DC_IMAGEDIMGROUP_16
 10
0.0
 20
0.0
 30
0.0
  0
INSERT
  5
394
  8
LAYER0014
  6
CONTINUOUS
  2
DC_IMAGEDIMGROUP_17
 10
0.0
 20
0.0
 30
0.0
  0
INSERT
  5
395
  8
LAYER0014
  6
CONTINUOUS
  2
DC_IMAGEDIMGROUP_18
 10
0.0
 20
0.0
 30
0.0
  0
INSERT
  5
396
  8
LAYER0014
  6
CONTINUOUS
  2
DC_IMAGEDIMGROUP_19
 10
0.0
 20
0.0
 30
0.0
  0
INSERT
  5
397
  8
LAYER0014
  6
CONTINUOUS
  2
DC_IMAGEDIMGROUP_20
 10
0.0
 20
0.0
 30
0.0
  0
INSERT
  5
398
  8
LAYER0014
  6
CONTINUOUS
  2
DC_IMAGEDIMGROUP_21
 10
0.0
 20
0.0
 30
0.0
  0
INSERT
  5
399
  8
LAYER0014
  6
CONTINUOUS
  2
DC_GROUP_2
 10
0.0
 20
0.0
 30
0.0
  0
INSERT
  5
39A
  8
LAYER0014
  6
CONTINUOUS
  2
DC_GROUP_3
 10
0.0
 20
0.0
 30
0.0
  0
INSERT
  5
39B
  8
LAYER0014
  6
CONTINUOUS
  2
DC_IMAGEDIMGROUP_22
 10
0.0
 20
0.0
 30
0.0
  0
INSERT
  5
39C
  8
LAYER0014
  6
CONTINUOUS
  2
DC_IMAGEDIMGROUP_23
 10
0.0
 20
0.0
 30
0.0
  0
INSERT
  5
39D
  8
LAYER0014
  6
CONTINUOUS
  2
DC_GROUP_4
 10
0.0
 20
0.0
 30
0.0
  0
LINE
  5
39E
  8
0
  6
DASHED
 62
     2
 10
38.5543312650294
 20
113.3460459084523
 30
0.0
 11
54.11406942420908
 21
113.3460459084523
 31
0.0
  0
LINE
  5
39F
  8
0
  6
DASHED
 62
     2
 10
38.5543312650294
 20
133.3460459084523
 30
0.0
 11
53.51406713539073
 21
133.3460459084523
 31
0.0
  0
LINE
  5
3A0
  8
0
  6
DASHED
 62
     2
 10
4.669069729384864
 20
111.3460459084523
 30
0.0
 11
38.5543312650294
 21
111.3460459084523
 31
0.0
  0
LINE
  5
3A1
  8
0
  6
DASHED
 62
     2
 10
38.5543312650294
 20
141.5619577736867
 30
0.0
 11
38.5543312650294
 21
111.3460459084523
 31
0.0
  0
LINE
  5
3A2
  8
0
  6
DASHED
 62
     2
 10
26.5543312650294
 20
125.7460398049367
 30
0.0
 11
26.5543312650294
 21
120.9460443825734
 31
0.0
  0
LINE
  5
3A3
  8
0
  6
DASHED
 62
     2
 10
29.25433202796885
 20
126.6460489602101
 30
0.0
 11
29.25433202796885
 21
120.0460428566945
 31
0.0
  0
LINE
  5
3A4
  8
0
  6
DASHED
 62
     2
 10
34.99308248573252
 20
117.6460489602101
 30
0.0
 11
38.11558004432627
 21
117.6460489602101
 31
0.0
  0
LINE
  5
3A5
  8
0
  6
DASHED
 62
     2
 10
34.99308248573252
 20
129.0460428566945
 30
0.0
 11
38.11558004432627
 21
129.0460428566945
 31
0.0
  0
LINE
  5
3A6
  8
0
  6
DASHED
 62
     2
 10
29.25433117960711
 20
120.0460455678218
 30
0.0
 11
26.5543312159048
 21
120.9460454426307
 31
0.0
  0
LINE
  5
3A7
  8
0
  6
DASHED
 62
     2
 10
29.25433560097563
 20
126.6460365691456
 30
0.0
 11
26.55433880384553
 21
125.7460377498606
 31
0.0
  0
LINE
  5
3A8
  8
0
  6
DASHED
 62
     2
 10
30.25433202796885
 20
126.0913767189992
 30
0.0
 11
30.25433202796885
 21
120.5505670876515
 31
0.0
  0
LINE
  5
3A9
  8
0
  6
DASHED
 62
     2
 10
34.5543312650294
 20
127.7960428566945
 30
0.0
 11
34.5543312650294
 21
118.8960489602101
 31
0.0
  0
LINE
  5
3AA
  8
0
  6
DASHED
 62
     2
 10
35.29822012000987
 20
126.2397074074757
 30
0.0
 11
37.81044241004893
 21
126.2397074074757
 31
0.0
  0
LINE
  5
3AB
  8
0
  6
DASHED
 62
     2
 10
35.29822012000987
 20
120.4523844094289
 30
0.0
 11
37.81044241004893
 21
120.4523844094289
 31
0.0
  0
LINE
  5
3AC
  8
0
  6
DASHED
 62
     2
 10
38.5543312650294
 20
127.5460428566945
 30
0.0
 11
44.58527227455088
 21
127.5460428566945
 31
0.0
  0
LINE
  5
3AD
  8
0
  6
DASHED
 62
     2
 10
38.5543312650294
 20
119.1460489602101
 30
0.0
 11
44.58527227455088
 21
119.1460489602101
 31
0.0
  0
LINE
  5
3AE
  8
0
  6
DASHED
 62
     2
 10
38.5543312650294
 20
119.9460443825734
 30
0.0
 11
44.43122716957041
 21
119.9460443825734
 31
0.0
  0
LINE
  5
3AF
  8
0
  6
DASHED
 62
     2
 10
38.5543312650294
 20
126.7460398049367
 30
0.0
 11
44.43122716957041
 21
126.7460398049367
 31
0.0
  0
ARC
  5
3B0
  8
0
  6
DASHED
 62
     2
 10
29.25433202796885
 20
123.3460459084523
 30
0.0
 40
3.299999952316284
 50
73.48282241201396
 51
89.99998201391067
  0
ARC
  5
3B1
  8
0
  6
DASHED
 62
     2
 10
29.25433202796885
 20
123.3460459084523
 30
0.0
 40
3.299999952316284
 50
270.0000179860893
 51
286.5171775879861
  0
ARC
  5
3B2
  8
0
  6
DASHED
 62
     2
 10
36.5543312650294
 20
127.7960428566945
 30
0.0
 40
2.0
 50
0.0
 51
38.68218896809859
  0
ARC
  5
3B3
  8
0
  6
DASHED
 62
     2
 10
36.5543312650294
 20
118.8960489602101
 30
0.0
 40
2.0
 50
0.0
 51
51.09316519948327
  0
ARC
  5
3B4
  8
0
  6
DASHED
 62
     2
 10
32.5543312650294
 20
123.3460459084523
 30
0.0
 40
6.0
 50
0.0
 51
28.83423780766662
  0
ARC
  5
3B5
  8
0
  6
DASHED
 62
     2
 10
40.5543312650294
 20
123.3460459084523
 30
0.0
 40
6.0
 50
151.1657740314789
 51
208.8342086656771
  0
ARC
  5
3B6
  8
0
  6
DASHED
 62
     2
 10
32.5543312650294
 20
123.3460459084523
 30
0.0
 40
6.0
 50
331.1657621923334
 51
0.0
  0
ARC
  5
3B7
  8
0
  6
DASHED
 62
     2
 10
36.5543312650294
 20
127.7960428566945
 30
0.0
 40
2.0
 50
308.9068348005167
 51
0.0
  0
ARC
  5
3B8
  8
0
  6
DASHED
 62
     2
 10
36.5543312650294
 20
127.7960428566945
 30
0.0
 40
2.0
 50
141.3178297012361
 51
231.0931121518317
  0
ARC
  5
3B9
  8
0
  6
DASHED
 62
     2
 10
36.5543312650294
 20
118.8960489602101
 30
0.0
 40
2.0
 50
128.906856884946
 51
218.6821529959199
  0
ARC
  5
3BA
  8
0
  6
DASHED
 62
     2
 10
36.5543312650294
 20
118.8960489602101
 30
0.0
 40
2.0
 50
321.3178110319014
 51
0.0
  0
ARC
  5
3BB
  8
0
  6
DASHED
 62
     2
 10
30.58752676063487
 20
132.1460489602101
 30
0.0
 40
5.650000095367432
 50
265.9910930942638
 51
315.0592540539054
  0
ARC
  5
3BC
  8
0
  6
DASHED
 62
     2
 10
30.58752676063487
 20
114.5460428566945
 30
0.0
 40
5.650000095367432
 50
44.94074594609464
 51
94.00890690573628
  0
ARC
  5
3BD
  8
0
  6
DASHED
 62
     2
 10
27.25433202796885
 20
123.3460459084523
 30
0.0
 40
1.5
 50
117.818154050457
 51
242.1818423070773
  0
LINE
  5
3BE
  8
0
  6
CONTINUOUS
 62
     2
 10
108.4880812584468
 20
106.2710539833202
 30
0.0
 11
113.5543382036429
 21
109.196051804765
 31
0.0
  0
LINE
  5
3BF
  8
0
  6
CONTINUOUS
 62
     2
 10
113.5543544226401
 20
109.1960525812263
 30
0.0
 11
118.620597438154
 21
106.2710460217371
 31
0.0
  0
LINE
  5
3C0
  8
0
  6
CONTINUOUS
 62
     2
 10
118.6205772977442
 20
106.2710413308156
 30
0.0
 11
118.6205772977442
 21
100.4210428566945
 31
0.0
  0
LINE
  5
3C1
  8
0
  6
CONTINUOUS
 62
     2
 10
118.620579945567
 20
100.4210427353952
 30
0.0
 11
113.5543230003709
 21
97.4960449139504
 31
0.0
  0
LINE
  5
3C2
  8
0
  6
CONTINUOUS
 62
     2
 10
113.5543182087564
 20
97.49603727017312
 30
0.0
 11
108.488073449807
 21
100.4210406914786
 31
0.0
  0
LINE
  5
3C3
  8
0
  6
CONTINUOUS
 62
     2
 10
108.4880852323145
 20
100.421050486089
 30
0.0
 11
108.4880852323145
 21
106.2710489602101
 31
0.0
  0
LINE
  5
3C4
  8
0
  6
CONTINUOUS
 62
     2
 10
108.4880866978591
 20
141.2710463970558
 30
0.0
 11
113.5543436430551
 21
144.1960442185005
 31
0.0
  0
LINE
  5
3C5
  8
0
  6
CONTINUOUS
 62
     2
 10
113.554357900383
 20
144.1960544164855
 30
0.0
 11
118.6206009158969
 21
141.2710478569962
 31
0.0
  0
LINE
  5
3C6
  8
0
  6
CONTINUOUS
 62
     2
 10
118.6205772977442
 20
141.271033701421
 30
0.0
 11
118.6205772977442
 21
135.4210428566945
 31
0.0
  0
LINE
  5
3C7
  8
0
  6
CONTINUOUS
 62
     2
 10
118.6205768019257
 20
135.421050015451
 30
0.0
 11
113.5543198567296
 21
132.4960521940062
 31
0.0
  0
LINE
  5
3C8
  8
0
  6
CONTINUOUS
 62
     2
 10
113.5543243585849
 20
132.4960424287561
 30
0.0
 11
108.4880795996356
 21
135.4210458500616
 31
0.0
  0
LINE
  5
3C9
  8
0
  6
CONTINUOUS
 62
     2
 10
108.4880852323145
 20
135.4210428566945
 30
0.0
 11
108.4880852323145
 21
141.2710489602101
 31
0.0
  0
LINE
  5
3CA
  8
0
  6
CONTINUOUS
 62
     2
 10
108.4880848176054
 20
-53.72894967119545
 30
0.0
 11
113.5543417628015
 21
-50.80395184975067
 31
0.0
  0
LINE
  5
3CB
  8
0
  6
CONTINUOUS
 62
     2
 10
113.5543479681991
 20
-50.80396015972629
 30
0.0
 11
118.6205843764691
 21
-53.72896290450872
 31
0.0
  0
LINE
  5
3CC
  8
0
  6
CONTINUOUS
 62
     2
 10
118.6205772977442
 20
-53.72896248388169
 30
0.0
 11
118.6205772977442
 21
-59.57896095800278
 31
0.0
  0
LINE
  5
3CD
  8
0
  6
CONTINUOUS
 62
     2
 10
118.6205825510529
 20
-59.57895926730716
 30
0.0
 11
113.5543256058569
 21
-62.50395708875193
 31
0.0
  0
LINE
  5
3CE
  8
0
  6
CONTINUOUS
 62
     2
 10
113.554322261878
 20
-62.50395021621615
 30
0.0
 11
108.4880708956825
 21
-59.57894298020791
 31
0.0
  0
LINE
  5
3CF
  8
0
  6
CONTINUOUS
 62
     2
 10
108.4880852323145
 20
-59.57894951391098
 30
0.0
 11
108.4880852323145
 21
-53.72895103978989
 31
0.0
  0
LINE
  5
3D0
  8
0
  6
CONTINUOUS
 62
     2
 10
118.6205772977442
 20
-88.72895866918442
 30
0.0
 11
118.6205772977442
 21
-94.57895714330552
 31
0.0
  0
LINE
  5
3D1
  8
0
  6
CONTINUOUS
 62
     2
 10
118.6205814373949
 20
-94.57896680289481
 30
0.0
 11
113.5543310994522
 21
-97.50396080964914
 31
0.0
  0
LINE
  5
3D2
  8
0
  6
CONTINUOUS
 62
     2
 10
113.5543262955794
 20
-97.50395299520859
 30
0.0
 11
108.4880749293839
 21
-94.57894575920035
 31
0.0
  0
LINE
  5
3D3
  8
0
  6
CONTINUOUS
 62
     2
 10
108.4880852323145
 20
-94.57894951391098
 30
0.0
 11
108.4880852323145
 21
-88.72895103978989
 31
0.0
  0
LINE
  5
3D4
  8
0
  6
CONTINUOUS
 62
     2
 10
61.34173209359424
 20
-20.87529171559494
 30
0.0
 11
66.4079890387903
 21
-17.95029389415016
 31
0.0
  0
LINE
  5
3D5
  8
0
  6
CONTINUOUS
 62
     2
 10
66.40798888371816
 20
-17.95029937166989
 30
0.0
 11
71.47423850647598
 21
-20.87530974586595
 31
0.0
  0
LINE
  5
3D6
  8
0
  6
CONTINUOUS
 62
     2
 10
71.4742302518458
 20
-20.87530380773423
 30
0.0
 11
71.4742302518458
 21
-26.72530228185532
 31
0.0
  0
LINE
  5
3D7
  8
0
  6
CONTINUOUS
 62
     2
 10
71.47422982704174
 20
-26.72530131170664
 30
0.0
 11
66.40797948909912
 21
-29.65029531846098
 31
0.0
  0
LINE
  5
3D8
  8
0
  6
CONTINUOUS
 62
     2
 10
66.40797459224254
 20
-29.65029534702207
 30
0.0
 11
61.34172983329322
 21
-26.72529192571655
 31
0.0
  0
LINE
  5
3D9
  8
0
  6
CONTINUOUS
 62
     2
 10
61.34173055702158
 20
-26.72529274511216
 30
0.0
 11
61.34173055702158
 21
-20.87529427099106
 31
0.0
  0
CIRCLE
  5
3DA
  8
0
  6
CONTINUOUS
 62
     2
 10
113.5543312650294
 20
103.3460459084523
 30
0.0
 40
9.0
  0
CIRCLE
  5
3DB
  8
0
  6
CONTINUOUS
 62
     2
 10
113.5543312650294
 20
138.3460459084523
 30
0.0
 40
9.0
  0
CIRCLE
  5
3DC
  8
0
  6
CONTINUOUS
 62
     2
 10
113.5543312650294
 20
-56.6539540915477
 30
0.0
 40
9.0
  0
CIRCLE
  5
3DD
  8
0
  6
CONTINUOUS
 62
     2
 10
113.5543312650294
 20
-91.6539540915477
 30
0.0
 40
9.0
  0
CIRCLE
  5
3DE
  8
0
  6
CONTINUOUS
 62
     2
 10
66.40798421913095
 20
-23.80029732274888
 30
0.0
 40
9.0
  0
LINE
  5
3DF
  8
0
  6
CONTINUOUS
 62
     2
 10
113.5543262955794
 20
-85.80395518788681
 30
0.0
 11
108.4880749293839
 21
-88.72896242389506
 31
0.0
  0
LINE
  5
3E0
  8
0
  6
CONTINUOUS
 62
     2
 10
118.6205814373949
 20
-88.7289413802006
 30
0.0
 11
113.5543310994522
 21
-85.80394737344626
 31
0.0
  0
LINE
  5
3E1
  8
0
  6
CONTINUOUS
 62
     5
 10
221.0346626859278
 20
45.17515510034683
 30
0.0
 11
236.0346626859278
 21
45.17515510034683
 31
0.0
  0
LINE
  5
3E2
  8
0
  6
CONTINUOUS
 62
     5
 10
228.5347468076339
 20
32.42510231837296
 30
0.0
 11
229.2847529354018
 21
33.1751086358032
 31
0.0
  0
LINE
  5
3E3
  8
0
  6
CONTINUOUS
 62
     5
 10
228.5347061546405
 20
32.42519045940445
 30
0.0
 11
227.784710690025
 21
33.17518586080006
 31
0.0
  0
LINE
  5
3E4
  8
0
  6
CONTINUOUS
 62
     5
 10
228.5346626859278
 20
36.92517798853042
 30
0.0
 11
228.5346626859278
 21
32.42517798853042
 31
0.0
  0
LINE
  5
3E5
  8
0
  6
CONTINUOUS
 62
     5
 10
229.2846474816293
 20
36.17515686644639
 30
0.0
 11
228.5346628066078
 21
36.92514147824896
 31
0.0
  0
LINE
  5
3E6
  8
0
  6
CONTINUOUS
 62
     5
 10
227.7847509004765
 20
36.17510096775787
 30
0.0
 11
228.5347570282443
 21
36.9251072851881
 31
0.0
  0
LINE
  5
3E7
  8
0
  6
CONTINUOUS
 62
     5
 10
221.0346626859278
 20
37.67515128564956
 30
0.0
 11
236.0346626859278
 21
37.67515128564956
 31
0.0
  0
LINE
  5
3E8
  8
0
  6
CONTINUOUS
 62
     5
 10
236.034693203506
 20
37.67515891504409
 30
0.0
 11
236.034693203506
 21
45.17515891504409
 31
0.0
  0
LINE
  5
3E9
  8
0
  6
CONTINUOUS
 62
     5
 10
230.4104706483382
 20
43.20224616380811
 30
0.0
 11
229.436044702718
 21
43.04791230683269
 31
0.0
  0
LINE
  5
3EA
  8
0
  6
CONTINUOUS
 62
     5
 10
230.4105100655733
 20
43.20223567528437
 30
0.0
 11
230.2561784711853
 21
44.17664625568953
 31
0.0
  0
LINE
  5
3EB
  8
0
  6
CONTINUOUS
 62
     5
 10
221.0346779447169
 20
37.67516654443862
 30
0.0
 11
221.0346779447169
 21
48.92516654443862
 31
0.0
  0
LINE
  5
3EC
  8
0
  6
CONTINUOUS
 62
     5
 10
226.284693203506
 20
45.17515891504409
 30
0.0
 11
226.284693203506
 21
46.67515891504409
 31
0.0
  0
LINE
  5
3ED
  8
0
  6
CONTINUOUS
 62
     5
 10
224.7846626859278
 20
46.67517417383316
 30
0.0
 11
224.7846626859278
 21
47.80017417383316
 31
0.0
  0
LINE
  5
3EE
  8
0
  6
CONTINUOUS
 62
     5
 10
224.7846626859278
 20
46.6751474709523
 30
0.0
 11
226.2846626859278
 21
46.6751474709523
 31
0.0
  0
LINE
  5
3EF
  8
0
  6
CONTINUOUS
 62
     5
 10
223.2846626859278
 20
47.80015510034683
 30
0.0
 11
224.7846626859278
 21
47.80015510034683
 31
0.0
  0
LINE
  5
3F0
  8
0
  6
CONTINUOUS
 62
     5
 10
223.284693203506
 20
47.80015891504409
 30
0.0
 11
223.284693203506
 21
48.92515128564956
 31
0.0
  0
LINE
  5
3F1
  8
0
  6
CONTINUOUS
 62
     5
 10
221.0346626859278
 20
48.92513984155777
 30
0.0
 11
223.2846626859278
 21
48.92513984155777
 31
0.0
  0
LINE
  5
3F2
  8
0
  6
CONTINUOUS
 62
     5
 10
225.5750374417872
 20
48.27540534448745
 30
0.0
 11
228.5346626859278
 21
48.27540534448745
 31
0.0
  0
LINE
  5
3F3
  8
0
  6
CONTINUOUS
 62
     5
 10
227.7847063069636
 20
47.52540805106274
 30
0.0
 11
228.5347124347314
 21
48.27541436849297
 31
0.0
  0
LINE
  5
3F4
  8
0
  6
CONTINUOUS
 62
     5
 10
228.5347054866021
 20
48.27544856156111
 30
0.0
 11
227.7846992323926
 21
49.02545475254975
 31
0.0
  0
ARC
  5
3F5
  8
0
  6
CONTINUOUS
 62
     5
 10
228.5543160062403
 20
41.34605735254409
 30
0.0
 40
2.625001907348633
 50
45.0001105352658
 51
339.9999593733081
  0
TEXT
  5
3F6
  8
0
 62
     5
 10
-7.245671786728415
 20
51.83174282026413
 30
0.0
 40
5.0
  1
NIKKO
 50
270.0
 41
1.08791221838731
  7
DCSTYLE1
 72
     5
 11
-7.245671786728415
 21
28.2603114218724
 31
0.0
  0
TEXT
  5
3F7
  8
0
 62
     5
 10
-6.745671786728415
 20
16.47460740518692
 30
0.0
 40
4.0
  1
MO2-12
 50
270.0
 41
0.9302326676457428
  7
DCSTYLE1
 72
     5
 11
-6.745671786728415
 21
-6.382538142679905
 31
0.0
  0
TEXT
  5
3F8
  8
0
 62
     5
 10
-13.24567178672842
 20
16.11746424150589
 30
0.0
 40
3.0
  1
0001
 50
270.0
 41
1.098591601344901
  7
DCSTYLE1
 72
     5
 11
-13.24567178672842
 21
4.974606570721889
 31
0.0
  0
TEXT
  5
3F9
  8
0
 62
     5
 10
232.3543343167872
 20
-3.553940120218968
 30
0.0
 40
3.0
  1
F MAX  22KN
 50
90.0
 41
1.135135153929393
  7
DCSTYLE1
 72
     5
 11
232.3543343167872
 21
32.44606047582751
 31
0.0
  0
TEXT
  5
3FA
  8
0
 62
     5
 10
237.3543343167872
 20
-3.553945842264866
 30
0.0
 40
3.0
  1
ΣS MAX 48KN
 50
90.0
 41
1.140271493212671
  7
DCSTYLE1
 72
     5
 11
237.3543343167872
 21
32.44605415773516
 31
0.0
  0
TEXT
  5
3FB
  8
0
 62
     5
 10
242.3543343167872
 20
-3.553943934916234
 30
0.0
 40
3.0
  1
N MAX 2500 AT ΣS MAX
 50
90.0
 41
1.159199983477593
  7
DCSTYLE1
 72
     5
 11
242.3543343167872
 21
62.68605512094622
 31
0.0
  0
TEXT
  5
3FC
  8
0
 62
     5
 10
234.4238991361231
 20
41.32765108060958
 30
0.0
 40
3.0
  1
N min
 50
90.0
 41
1.082812440892061
  7
DCSTYLE1
 72
     5
 11
234.4238991361231
 21
56.17765026998642
 31
0.0
  0
TEXT
  5
3FD
  8
0
 62
     5
 10
232.2892835956187
 20
56.85264944744232
 30
0.0
 40
1.5
  1
-1
 50
90.0
 41
1.021621684770326
  7
DCSTYLE1
 72
     5
 11
232.2892835956187
 21
59.55264961433532
 31
0.0
  0
TEXT
  5
3FE
  8
0
 62
     5
 10
228.6072334867091
 20
49.82834535551193
 30
0.0
 40
3.0
  1
ΣS
 50
90.0
 41
1.200000023841858
  7
DCSTYLE1
 72
     5
 11
228.6072334867091
 21
55.82834547472122
 31
0.0
  0
TEXT
  5
3FF
  8
0
 62
     5
 10
226.904810391006
 20
33.50137823534133
 30
0.0
 40
3.0
  1
F
 50
90.0
 41
1.085973374983844
  7
DCSTYLE1
 72
     5
 11
226.904810391006
 21
36.13874214601638
 31
0.0
  0
INSERT
  5
400
  8
0
  6
CONTINUOUS
  2
DC_IMAGEDIMGROUP_24
 10
0.0
 20
0.0
 30
0.0
  0
INSERT
  5
401
  8
0
  6
CONTINUOUS
  2
DC_IMAGEDIMGROUP_25
 10
0.0
 20
0.0
 30
0.0
  0
INSERT
  5
402
  8
0
  6
CONTINUOUS
  2
DC_IMAGEDIMGROUP_26
 10
0.0
 20
0.0
 30
0.0
  0
INSERT
  5
403
  8
0
  6
CONTINUOUS
  2
DC_IMAGEDIMGROUP_27
 10
0.0
 20
0.0
 30
0.0
  0
INSERT
  5
404
  8
0
  6
CONTINUOUS
  2
DC_GROUP_5
 10
0.0
 20
0.0
 30
0.0
  0
INSERT
  5
405
  8
0
  6
CONTINUOUS
  2
DC_IMAGEDIMGROUP_28
 10
0.0
 20
0.0
 30
0.0
  0
INSERT
  5
406
  8
0
  6
CONTINUOUS
  2
DC_IMAGEDIMGROUP_29
 10
0.0
 20
0.0
 30
0.0
  0
INSERT
  5
407
  8
0
  6
CONTINUOUS
  2
DC_GROUP_6
 10
0.0
 20
0.0
 30
0.0
  0
CIRCLE
  5
408
  8
0
  6
CONTINUOUS
 62
     3
 10
113.5542751423045
 20
62.84602533187542
 30
0.0
 40
3.0
  0
CIRCLE
  5
409
  8
0
  6
CONTINUOUS
 62
     3
 10
113.5542751423045
 20
62.84602533187542
 30
0.0
 40
3.0
  0
CIRCLE
  5
40A
  8
0
  6
CONTINUOUS
 62
     3
 10
113.5543263804741
 20
23.34602533187543
 30
0.0
 40
35.0
  0
CIRCLE
  5
40B
  8
0
  6
CONTINUOUS
 62
     3
 10
79.34634855007349
 20
3.595980958318972
 30
0.0
 40
2.999999999999999
  0
CIRCLE
  5
40C
  8
0
  6
CONTINUOUS
 62
     3
 10
79.34634855007349
 20
3.595980958318972
 30
0.0
 40
2.999999999999999
  0
CIRCLE
  5
40D
  8
0
  6
CONTINUOUS
 62
     3
 10
147.7623554490441
 20
3.596069705431869
 30
0.0
 40
3.0
  0
CIRCLE
  5
40E
  8
0
  6
CONTINUOUS
 62
     3
 10
147.7623554490441
 20
3.596069705431869
 30
0.0
 40
3.0
  0
LINE
  5
40F
  8
0
  6
CONTINUOUS
 62
     3
 10
-127.2014212984472
 20
58.34604781580093
 30
0.0
 11
-117.2014212984472
 21
58.34604781580093
 31
0.0
  0
LINE
  5
410
  8
0
  6
DASHED2
 62
     7
 10
1.554353748954895
 20
29.3460478157991
 30
0.0
 11
-26.31701465924823
 21
29.3460478157991
 31
0.0
  0
LINE
  5
411
  8
0
  6
DASHED2
 62
     7
 10
8.554353748954895
 20
28.3460478157991
 30
0.0
 11
-26.31701465924823
 21
28.3460478157991
 31
0.0
  0
LINE
  5
412
  8
0
  6
DASHED2
 62
     7
 10
1.554353748954895
 20
17.3460478157991
 30
0.0
 11
-26.31701465924823
 21
17.3460478157991
 31
0.0
  0
LINE
  5
413
  8
0
  6
DASHED2
 62
     7
 10
8.554353748954895
 20
18.3460478157991
 30
0.0
 11
-26.31701465924823
 21
18.3460478157991
 31
0.0
  0
LINE
  5
414
  8
0
  6
DASHED2
 62
     7
 10
1.554353748954895
 20
29.3460478157991
 30
0.0
 11
1.554353748954895
 21
17.3460478157991
 31
0.0
  0
LINE
  5
415
  8
0
  6
DASHED2
 62
     7
 10
8.554355176031692
 20
28.34604279125833
 30
0.0
 11
11.44110444360982
 21
23.34604648084187
 31
0.0
  0
LINE
  5
416
  8
0
  6
DASHED2
 62
     7
 10
8.554348371376477
 20
18.34605494174921
 30
0.0
 11
11.44110145365187
 21
23.34605785941503
 31
0.0
  0
LINE
  5
417
  8
0
  6
DASHED2
 62
     7
 10
8.554353748954895
 20
28.3460478157991
 30
0.0
 11
8.554353748954895
 21
18.3460478157991
 31
0.0
  0
LINE
  5
418
  8
0
  6
DASHED2
 62
     7
 10
-149.4860659321095
 20
-81.6539526644709
 30
0.0
 11
-144.486069621693
 21
-78.76720339689278
 31
0.0
  0
LINE
  5
419
  8
0
  6
DASHED2
 62
     7
 10
-149.4860709566503
 20
-81.6539540915477
 30
0.0
 11
-139.4860709566503
 21
-81.6539540915477
 31
0.0
  0
LINE
  5
41A
  8
0
  6
DASHED2
 62
     7
 10
-139.4860780826004
 20
-81.65395946912612
 30
0.0
 11
-144.4860810002662
 21
-78.76720638685073
 31
0.0
  0
LINE
  5
41B
  8
0
  6
DASHED2
 62
     7
 10
-150.4860709566503
 20
-88.6539540915477
 30
0.0
 11
-138.4860709566503
 21
-88.6539540915477
 31
0.0
  0
LINE
  5
41C
  8
0
  6
DASHED2
 62
     7
 10
-138.4860709566503
 20
-88.6539540915477
 30
0.0
 11
-138.4860709566503
 21
-116.5253224997508
 31
0.0
  0
LINE
  5
41D
  8
0
  6
DASHED2
 62
     7
 10
-150.4860709566503
 20
-88.6539540915477
 30
0.0
 11
-150.4860709566503
 21
-116.5253224997508
 31
0.0
  0
LINE
  5
41E
  8
0
  6
DASHED2
 62
     7
 10
-145.1860709566503
 20
-81.6539540915477
 30
0.0
 11
-145.1860709566503
 21
-116.5253224997508
 31
0.0
  0
LINE
  5
41F
  8
0
  6
DASHED2
 62
     7
 10
-149.4860709566503
 20
-81.6539540915477
 30
0.0
 11
-149.4860709566503
 21
-116.5253224997508
 31
0.0
  0
LINE
  5
420
  8
0
  6
DASHED2
 62
     7
 10
-139.4860709566503
 20
-81.6539540915477
 30
0.0
 11
-139.4860709566503
 21
-116.5253224997508
 31
0.0
  0
VIEWPORT
  5
B3
 67
     1
  8
0
 10
0.0
 20
0.0
 30
0.0
 40
1662.0
 41
1140.0
 68
     1
 69
     1
1001
ACAD
1000
MVIEW
1002
{
1070
    16
1010
0.0
1020
0.0
1030
0.0
1010
0.0
1020
0.0
1030
1.0
1040
0.0
1040
1140.0
1040
0.0
1040
0.0
1040
50.0
1040
0.0
1040
0.0
1070
     0
1070
   100
1070
     0
1070
     3
1070
     0
1070
     0
1070
     0
1070
     0
1040
0.0
1040
0.0
1040
0.0
1040
0.5
1040
0.5
1040
0.0
1040
0.0
1070
     0
1002
{
1002
}
1002
}
  0
ENDSEC
  0
EOF
