  0
SECTION
  2
HEADER
  9
$ACADVER
  1
AC1009
  9
$DWGCODEPAGE
  3
ansi_932
  9
$INSBASE
 10
0.0
 20
0.0
 30
0.0
  9
$EXTMIN
 10
-474.4276062545233
 20
-570.0
 30
0.0
  9
$EXTMAX
 10
1187.572393745477
 20
570.0
 30
0.0
  9
$LIMMIN
 10
-467.2222222222222
 20
-330.0
  9
$LIMMAX
 10
467.2222222222222
 20
330.0
  9
$ORTHOMODE
 70
     0
  9
$REGENMODE
 70
     1
  9
$FILLMODE
 70
     1
  9
$QTEXTMODE
 70
     0
  9
$MIRRTEXT
 70
     1
  9
$DRAGMODE
 70
     2
  9
$LTSCALE
 40
1.111111111111111
  9
$OSMODE
 70
    37
  9
$ATTMODE
 70
     1
  9
$TEXTSIZE
 40
0.2
  9
$TRACEWID
 40
0.05
  9
$TEXTSTYLE
  7
STANDARD
  9
$CLAYER
  8
0
  9
$CELTYPE
  6
BYLAYER
  9
$CECOLOR
 62
   256
  9
$DIMSCALE
 40
1.0
  9
$DIMASZ
 40
2.777777777777778
  9
$DIMEXO
 40
0.0625
  9
$DIMDLI
 40
0.38
  9
$DIMRND
 40
0.0
  9
$DIMDLE
 40
0.0
  9
$DIMEXE
 40
0.18
  9
$DIMTP
 40
0.0
  9
$DIMTM
 40
0.0
  9
$DIMTXT
 40
0.18
  9
$DIMCEN
 40
0.09
  9
$DIMTSZ
 40
0.0
  9
$DIMTOL
 70
     0
  9
$DIMLIM
 70
     0
  9
$DIMTIH
 70
     1
  9
$DIMTOH
 70
     1
  9
$DIMSE1
 70
     0
  9
$DIMSE2
 70
     0
  9
$DIMTAD
 70
     3
  9
$DIMZIN
 70
     0
  9
$DIMBLK
  1

  9
$DIMASO
 70
     1
  9
$DIMSHO
 70
     1
  9
$DIMPOST
  1

  9
$DIMAPOST
  1

  9
$DIMALT
 70
     0
  9
$DIMALTD
 70
     2
  9
$DIMALTF
 40
25.4
  9
$DIMLFAC
 40
1.0
  9
$DIMTOFL
 70
     0
  9
$DIMTVP
 40
0.0
  9
$DIMTIX
 70
     0
  9
$DIMSOXD
 70
     0
  9
$DIMSAH
 70
     0
  9
$DIMBLK1
  1

  9
$DIMBLK2
  1

  9
$DIMSTYLE
  2
STANDARD
  9
$DIMCLRD
 70
     0
  9
$DIMCLRE
 70
     0
  9
$DIMCLRT
 70
     0
  9
$DIMTFAC
 40
1.0
  9
$DIMGAP
 40
0.09
  9
$LUNITS
 70
     2
  9
$LUPREC
 70
     4
  9
$SKETCHINC
 40
0.1
  9
$FILLETRAD
 40
0.5
  9
$AUNITS
 70
     0
  9
$AUPREC
 70
     0
  9
$MENU
  1
.
  9
$ELEVATION
 40
0.0
  9
$PELEVATION
 40
0.0
  9
$THICKNESS
 40
0.0
  9
$LIMCHECK
 70
     0
  9
$CHAMFERA
 40
0.5
  9
$CHAMFERB
 40
0.5
  9
$SKPOLY
 70
     0
  9
$TDCREATE
 40
2455483.588502153
  9
$TDUPDATE
 40
2455483.588502165
  9
$TDINDWG
 40
0.0000000116
  9
$TDUSRTIMER
 40
0.0000000116
  9
$USRTIMER
 70
     1
  9
$ANGBASE
 50
0.0
  9
$ANGDIR
 70
     0
  9
$PDMODE
 70
     0
  9
$PDSIZE
 40
1.0
  9
$PLINEWID
 40
0.0
  9
$COORDS
 70
     1
  9
$SPLFRAME
 70
     0
  9
$SPLINETYPE
 70
     6
  9
$SPLINESEGS
 70
     8
  9
$ATTDIA
 70
     0
  9
$ATTREQ
 70
     1
  9
$HANDLING
 70
     1
  9
$HANDSEED
  5
5D7
  9
$SURFTAB1
 70
     6
  9
$SURFTAB2
 70
     6
  9
$SURFTYPE
 70
     6
  9
$SURFU
 70
     6
  9
$SURFV
 70
     6
  9
$UCSNAME
  2

  9
$UCSORG
 10
0.0
 20
0.0
 30
0.0
  9
$UCSXDIR
 10
1.0
 20
0.0
 30
0.0
  9
$UCSYDIR
 10
0.0
 20
1.0
 30
0.0
  9
$PUCSNAME
  2

  9
$PUCSORG
 10
0.0
 20
0.0
 30
0.0
  9
$PUCSXDIR
 10
1.0
 20
0.0
 30
0.0
  9
$PUCSYDIR
 10
0.0
 20
1.0
 30
0.0
  9
$USERI1
 70
     0
  9
$USERI2
 70
     0
  9
$USERI3
 70
     0
  9
$USERI4
 70
     0
  9
$USERI5
 70
     0
  9
$USERR1
 40
0.0
  9
$USERR2
 40
0.0
  9
$USERR3
 40
0.0
  9
$USERR4
 40
0.0
  9
$USERR5
 40
0.0
  9
$WORLDVIEW
 70
     1
  9
$SHADEDGE
 70
     3
  9
$SHADEDIF
 70
    70
  9
$TILEMODE
 70
     1
  9
$MAXACTVP
 70
    64
  9
$PLIMCHECK
 70
     0
  9
$PEXTMIN
 10
1.000000000000000E+20
 20
1.000000000000000E+20
 30
1.000000000000000E+20
  9
$PEXTMAX
 10
-1.000000000000000E+20
 20
-1.000000000000000E+20
 30
-1.000000000000000E+20
  9
$PLIMMIN
 10
0.0
 20
0.0
  9
$PLIMMAX
 10
12.0
 20
9.0
  9
$UNITMODE
 70
     0
  9
$VISRETAIN
 70
     0
  9
$PLINEGEN
 70
     1
  9
$PSLTSCALE
 70
     0
  0
ENDSEC
  0
SECTION
  2
TABLES
  0
TABLE
  2
VPORT
 70
     1
  0
VPORT
  2
*ACTIVE
 70
     0
 10
0.0
 20
0.0
 11
1.0
 21
1.0
 12
0.0
 22
0.0
 13
0.0
 23
0.0
 14
0.5
 24
0.5
 15
0.5
 25
0.5
 16
0.0
 26
0.0
 36
1.0
 17
356.5723937454767
 27
0.0
 37
0.0
 40
387.6
 41
1.457894736842105
 42
50.0
 43
0.0
 44
0.0
 50
0.0
 51
0.0
 71
     0
 72
  1000
 73
     1
 74
     1
 75
     0
 76
     0
 77
     0
 78
     0
  0
ENDTAB
  0
TABLE
  2
LTYPE
 70
    28
  0
LTYPE
  2
CONTINUOUS
 70
     0
  3
Solid line
 72
    65
 73
     0
 40
0.0
  0
LTYPE
  2
HIDDENX2
 70
     0
  3
CADPAC LINETYPE
 72
    65
 73
     2
 40
13.12707182320435
 49
9.84530386740326
 49
-3.281767955801087
  0
LTYPE
  2
HIDDEN
 70
     0
  3
CADPAC LINETYPE
 72
    65
 73
     2
 40
9.84530386740326
 49
6.563535911602173
 49
-3.281767955801087
  0
LTYPE
  2
HIDDEN2
 70
     0
  3
CADPAC LINETYPE
 72
    65
 73
     2
 40
8.204419889502717
 49
4.92265193370163
 49
-3.281767955801087
  0
LTYPE
  2
DASHED
 70
     0
  3
CADPAC LINETYPE
 72
    65
 73
     2
 40
9.188950276243043
 49
6.563535911602173
 49
-2.625414364640869
  0
LTYPE
  2
DASHED2
 70
     0
  3
CADPAC LINETYPE
 72
    65
 73
     2
 40
5.907182320442007
 49
3.938121546961304
 49
-1.969060773480703
  0
LTYPE
  2
DASHEDX2
 70
     0
  3
CADPAC LINETYPE
 72
    65
 73
     2
 40
15.75248618784522
 49
13.12707182320435
 49
-2.625414364640869
  0
LTYPE
  2
DOTX2
 70
     0
  3
CADPAC LINETYPE
 72
    65
 73
     2
 40
5.743093922651966
 49
0.0
 49
-5.743093922651966
  0
LTYPE
  2
DOT
 70
     0
  3
CADPAC LINETYPE
 72
    65
 73
     2
 40
4.594475138121573
 49
0.0
 49
-4.594475138121573
  0
LTYPE
  2
DOT2
 70
     0
  3
CADPAC LINETYPE
 72
    65
 73
     2
 40
3.44585635359118
 49
0.0
 49
-3.44585635359118
  0
LTYPE
  2
CENTERX2
 70
     0
  3
CADPAC LINETYPE
 72
    65
 73
     4
 40
19.69060773480652
 49
8.204419889502717
 49
-4.102209944751358
 49
3.281767955801087
 49
-4.102209944751358
  0
LTYPE
  2
CENTER
 70
     0
  3
CADPAC LINETYPE
 72
    65
 73
     4
 40
15.096132596685
 49
6.563535911602173
 49
-3.281767955801087
 49
1.969060773480652
 49
-3.281767955801087
  0
LTYPE
  2
CENTER2
 70
     0
  3
CADPAC LINETYPE
 72
    65
 73
     4
 40
10.50165745856348
 49
4.92265193370163
 49
-2.461325966850815
 49
0.6563535911602174
 49
-2.461325966850815
  0
LTYPE
  2
DASHDOTX2
 70
     0
  3
CADPAC LINETYPE
 72
    65
 73
     4
 40
31.50497237569054
 49
15.75248618784532
 49
-5.250828729281738
 49
5.250828729281738
 49
-5.250828729281738
  0
LTYPE
  2
DASHDOT
 70
     0
  3
CADPAC LINETYPE
 72
    65
 73
     4
 40
15.75248618784532
 49
7.87624309392271
 49
-2.625414364640869
 49
2.625414364640869
 49
-2.625414364640869
  0
LTYPE
  2
DASHDOT2
 70
     0
  3
CADPAC LINETYPE
 72
    65
 73
     4
 40
10.10784530386742
 49
5.907182320442033
 49
-1.969060773480652
 49
0.262541436464087
 49
-1.969060773480652
  0
LTYPE
  2
DIVIDEX2
 70
     0
  3
CADPAC LINETYPE
 72
    65
 73
     6
 40
42.00662983425401
 49
15.75248618784532
 49
-5.250828729281738
 49
5.250828729281738
 49
-5.250828729281738
 49
5.250828729281738
 49
-5.250828729281738
  0
LTYPE
  2
DIVIDE
 70
     0
  3
CADPAC LINETYPE
 72
    65
 73
     6
 40
21.00331491712706
 49
7.87624309392271
 49
-2.625414364640869
 49
2.625414364640869
 49
-2.625414364640869
 49
2.625414364640869
 49
-2.625414364640869
  0
LTYPE
  2
DIVIDE2
 70
     0
  3
CADPAC LINETYPE
 72
    65
 73
     6
 40
15.75248618784529
 49
5.907182320442033
 49
-1.969060773480652
 49
1.969060773480652
 49
-1.969060773480652
 49
1.969060773480652
 49
-1.969060773480652
  0
LTYPE
  2
BORDERX2
 70
     0
  3
CADPAC LINETYPE
 72
    65
 73
     6
 40
28.71546961325951
 49
8.204419889502717
 49
-4.102209944751358
 49
8.204419889502717
 49
-4.102209944751358
 49
0.0
 49
-4.102209944751358
  0
LTYPE
  2
BORDER
 70
     0
  3
CADPAC LINETYPE
 72
    65
 73
     6
 40
22.97237569060761
 49
6.563535911602173
 49
-3.281767955801087
 49
6.563535911602173
 49
-3.281767955801087
 49
0.0
 49
-3.281767955801087
  0
LTYPE
  2
BORDER2
 70
     0
  3
CADPAC LINETYPE
 72
    65
 73
     6
 40
17.0651933701656
 49
5.250828729281738
 49
-3.281767955801036
 49
1.969060773480703
 49
-3.281767955801036
 49
0.0
 49
-3.281767955801087
  0
LTYPE
  2
PHANTOMX2
 70
     0
  3
CADPAC LINETYPE
 72
    65
 73
     6
 40
24.61325966850815
 49
8.204419889502717
 49
-3.281767955801087
 49
3.281767955801087
 49
-3.281767955801087
 49
3.281767955801087
 49
-3.281767955801087
  0
LTYPE
  2
PHANTOM
 70
     0
  3
CADPAC LINETYPE
 72
    65
 73
     6
 40
20.34696132596674
 49
6.563535911602173
 49
-3.281767955801087
 49
1.969060773480652
 49
-3.281767955801087
 49
1.969060773480652
 49
-3.281767955801087
  0
LTYPE
  2
PHANTOM2
 70
     0
  3
CADPAC LINETYPE
 72
    65
 73
     6
 40
17.39337016574576
 49
4.92265193370163
 49
-3.281767955801087
 49
1.312707182320435
 49
-3.281767955801087
 49
1.312707182320435
 49
-3.281767955801087
  0
LTYPE
  2
ACAD_ISO06W100
 70
     0
  3
CADPAC LINETYPE
 72
    65
 73
     8
 40
34.78674033149157
 49
15.75248618784532
 49
-3.281767955801036
 49
1.969060773480703
 49
-3.281767955801036
 49
1.969060773480703
 49
-3.281767955801036
 49
1.969060773480703
 49
-3.281767955801036
  0
LTYPE
  2
ACAD_ISO13W100
 70
     0
  3
CADPAC LINETYPE
 72
    65
 73
     8
 40
26.25414364640869
 49
6.563535911602173
 49
-3.281767955801087
 49
6.563535911602173
 49
-3.281767955801087
 49
0.0
 49
-3.281767955801087
 49
0.0
 49
-3.281767955801087
  0
LTYPE
  2
ACAD_ISO14W100
 70
     0
  3
CADPAC LINETYPE
 72
    65
 73
     8
 40
19.69060773480652
 49
6.563535911602173
 49
-3.281767955801087
 49
0.0
 49
-3.281767955801087
 49
0.0
 49
-3.281767955801087
 49
0.0
 49
-3.281767955801087
  0
ENDTAB
  0
TABLE
  2
LAYER
 70
     3
  0
LAYER
  2
0
 70
     0
 62
     7
  6
CONTINUOUS
  0
LAYER
  2
LAYER0001
 70
     0
 62
     7
  6
CONTINUOUS
  0
LAYER
  2
LAYER0002
 70
     0
 62
     7
  6
CONTINUOUS
  0
ENDTAB
  0
TABLE
  2
STYLE
 70
     5
  0
STYLE
  2
STANDARD
 70
     0
 40
0.0
 41
1.0
 50
0.0
 71
     0
 42
0.2
  3
txt
  4

  0
STYLE
  2
FDASTYLE1
 70
     0
 40
0.0
 41
0.723809523809526
 50
0.0
 71
     0
 42
0.2
  3
txt.shx
  4
bigfont
  0
STYLE
  2
FDASTYLE0
 70
     4
 40
0.0
 41
0.8
 50
0.0
 71
     0
 42
0.2
  3
txt.shx
  4
bigfont
  0
STYLE
  2
FDASTYLE2
 70
     0
 40
0.0
 41
0.8123476848090979
 50
0.0
 71
     0
 42
0.2
  3
MSMINCHO.TTC
  4

  0
STYLE
  2
FDASTYLE3
 70
     0
 40
0.0
 41
0.6684336356141793
 50
0.0
 71
     0
 42
0.2
  3
MSGOTHIC.TTC
  4

  0
ENDTAB
  0
TABLE
  2
VIEW
 70
     0
  0
ENDTAB
  0
TABLE
  2
UCS
 70
     0
  0
ENDTAB
  0
TABLE
  2
APPID
 70
     2
  0
APPID
  2
ACAD
 70
     0
  0
APPID
  2
DAFUSIONOUT
 70
     0
  0
ENDTAB
  0
TABLE
  2
DIMSTYLE
 70
     1
  0
DIMSTYLE
  2
STANDARD
 70
     0
  3

  4

  5

  6

  7

 40
1.0
 41
0.18
 42
0.0625
 43
0.38
 44
0.18
 45
0.0
 46
0.0
 47
0.0
 48
0.0
140
0.18
141
0.09
142
0.0
143
25.4
144
1.0
145
0.0
146
1.0
147
0.09
 71
     0
 72
     0
 73
     1
 74
     1
 75
     0
 76
     0
 77
     0
 78
     0
170
     0
171
     2
172
     0
173
     0
174
     0
175
     0
176
     0
177
     0
178
     0
  0
ENDTAB
  0
ENDSEC
  0
SECTION
  2
BLOCKS
  0
BLOCK
  8
0
  2
$MODEL_SPACE
 70
     0
 10
0.0
 20
0.0
 30
0.0
  3
$MODEL_SPACE
  1

  0
ENDBLK
  5
21
  8
0
  0
BLOCK
 67
     1
  8
0
  2
$PAPER_SPACE
 70
     0
 10
0.0
 20
0.0
 30
0.0
  3
$PAPER_SPACE
  1

  0
ENDBLK
  5
1D
 67
     1
  8
0
  0
BLOCK
  8
0
  2
DC_GROUP_1
 70
     0
 10
0.0
 20
0.0
 30
0.0
  3
DC_GROUP_1
  1

  0
LINE
  5
196
  8
LAYER0001
  6
CONTINUOUS
 62
     7
 10
151.1571956242484
 20
-29.52564978717088
 30
0.0
 11
139.9689241398734
 21
-29.52564978717088
 31
0.0
  0
LINE
  5
197
  8
LAYER0001
  6
CONTINUOUS
 62
     7
 10
151.1571956242484
 20
-41.52564978717088
 30
0.0
 11
139.9689241398734
 21
-41.52564978717088
 31
0.0
  0
LINE
  5
198
  8
LAYER0001
  6
CONTINUOUS
 62
     7
 10
140.9689241398734
 20
-29.52565360186814
 30
0.0
 11
140.9689241398734
 21
-41.52565360186814
 31
0.0
  0
INSERT
  5
199
  8
LAYER0001
  6
CONTINUOUS
  2
DC_GROUP_2
 10
0.0
 20
0.0
 30
0.0
  0
INSERT
  5
19A
  8
LAYER0001
  6
CONTINUOUS
  2
DC_GROUP_3
 10
0.0
 20
0.0
 30
0.0
  0
TEXT
  5
19C
  8
LAYER0001
 62
     7
 10
139.3689241398734
 20
-40.32564978717089
 30
0.0
 40
4.0
  1
M12
 50
90.0
 41
0.723809523809526
  7
FDASTYLE1
 72
     5
 11
139.3689241398734
 21
-31.63993550145658
 31
0.0
  0
ENDBLK
  5
4E
  8
0
  0
BLOCK
  8
0
  2
DC_GROUP_2
 70
     0
 10
0.0
 20
0.0
 30
0.0
  3
DC_GROUP_2
  1

  0
LINE
  5
19D
  8
LAYER0001
  6
CONTINUOUS
 62
     7
 10
140.4330246049758
 20
-31.5256520094988
 30
0.0
 11
140.9689241398734
 21
-29.52565360186814
 31
0.0
  0
LINE
  5
19E
  8
LAYER0001
  6
CONTINUOUS
 62
     7
 10
140.9689241398734
 20
-29.52565360186814
 30
0.0
 11
141.504823674771
 21
-31.5256520094988
 31
0.0
  0
LINE
  5
19F
  8
LAYER0001
  6
CONTINUOUS
 62
     7
 10
140.9689241398734
 20
-29.52565360186814
 30
0.0
 11
140.9689241398734
 21
-31.5256520094988
 31
0.0
  0
ENDBLK
  5
51
  8
0
  0
BLOCK
  8
0
  2
DC_GROUP_3
 70
     0
 10
0.0
 20
0.0
 30
0.0
  3
DC_GROUP_3
  1

  0
LINE
  5
1A0
  8
LAYER0001
  6
CONTINUOUS
 62
     7
 10
141.504823674771
 20
-39.52565519423749
 30
0.0
 11
140.9689241398734
 21
-41.52565360186814
 31
0.0
  0
LINE
  5
1A1
  8
LAYER0001
  6
CONTINUOUS
 62
     7
 10
140.9689241398734
 20
-41.52565360186814
 30
0.0
 11
140.4330246049758
 21
-39.52565519423749
 31
0.0
  0
LINE
  5
1A2
  8
LAYER0001
  6
CONTINUOUS
 62
     7
 10
140.9689241398734
 20
-41.52565360186814
 30
0.0
 11
140.9689241398734
 21
-39.52565519423749
 31
0.0
  0
ENDBLK
  5
54
  8
0
  0
BLOCK
  8
0
  2
DC_GROUP_4
 70
     0
 10
0.0
 20
0.0
 30
0.0
  3
DC_GROUP_4
  1

  0
LINE
  5
1A3
  8
LAYER0001
  6
CONTINUOUS
 62
     7
 10
164.6510921086234
 20
68.14933800579787
 30
0.0
 11
129.9689241398734
 21
68.14933800579787
 31
0.0
  0
LINE
  5
1A4
  8
LAYER0001
  6
CONTINUOUS
 62
     7
 10
167.8571925724906
 20
-5.850646735413065
 30
0.0
 11
129.9689241398734
 21
-5.850646735413065
 31
0.0
  0
LINE
  5
1A5
  8
LAYER0001
  6
CONTINUOUS
 62
     7
 10
130.9689241398734
 20
68.14935326458694
 30
0.0
 11
130.9689241398734
 21
-5.850650550110331
 31
0.0
  0
INSERT
  5
1A6
  8
LAYER0001
  6
CONTINUOUS
  2
DC_GROUP_5
 10
0.0
 20
0.0
 30
0.0
  0
INSERT
  5
1A7
  8
LAYER0001
  6
CONTINUOUS
  2
DC_GROUP_6
 10
0.0
 20
0.0
 30
0.0
  0
TEXT
  5
1A8
  8
LAYER0001
 62
     7
 10
129.3689241398734
 20
23.1493513572383
 30
0.0
 40
4.0
  1
φ74H7
 50
90.0
 41
0.6213017751479297
  7
FDASTYLE1
 72
     5
 11
129.3689241398734
 21
36.07242828031524
 31
0.0
  0
ENDBLK
  5
57
  8
0
  0
BLOCK
  8
0
  2
DC_GROUP_5
 70
     0
 10
0.0
 20
0.0
 30
0.0
  3
DC_GROUP_5
  1

  0
LINE
  5
1A9
  8
LAYER0001
  6
CONTINUOUS
 62
     7
 10
130.4330246049758
 20
66.14935485695628
 30
0.0
 11
130.9689241398734
 21
68.14935326458694
 31
0.0
  0
LINE
  5
1AA
  8
LAYER0001
  6
CONTINUOUS
 62
     7
 10
130.9689241398734
 20
68.14935326458694
 30
0.0
 11
131.504823674771
 21
66.14935485695628
 31
0.0
  0
LINE
  5
1AB
  8
LAYER0001
  6
CONTINUOUS
 62
     7
 10
130.9689241398734
 20
68.14935326458694
 30
0.0
 11
130.9689241398734
 21
66.14935485695628
 31
0.0
  0
ENDBLK
  5
5A
  8
0
  0
BLOCK
  8
0
  2
DC_GROUP_6
 70
     0
 10
0.0
 20
0.0
 30
0.0
  3
DC_GROUP_6
  1

  0
LINE
  5
1AC
  8
LAYER0001
  6
CONTINUOUS
 62
     7
 10
131.504823674771
 20
-3.85065214247967
 30
0.0
 11
130.9689241398734
 21
-5.850650550110331
 31
0.0
  0
LINE
  5
1AD
  8
LAYER0001
  6
CONTINUOUS
 62
     7
 10
130.9689241398734
 20
-5.850650550110331
 30
0.0
 11
130.4330246049758
 21
-3.85065214247967
 31
0.0
  0
LINE
  5
1AE
  8
LAYER0001
  6
CONTINUOUS
 62
     7
 10
130.9689241398734
 20
-5.850650550110331
 30
0.0
 11
130.9689241398734
 21
-3.85065214247967
 31
0.0
  0
ENDBLK
  5
5D
  8
0
  0
BLOCK
  8
0
  2
DC_GROUP_7
 70
     0
 10
0.0
 20
0.0
 30
0.0
  3
DC_GROUP_7
  1

  0
LINE
  5
1AF
  8
LAYER0001
  6
CONTINUOUS
 62
     7
 10
163.6571956242484
 20
126.1493380057979
 30
0.0
 11
119.9689241398734
 21
126.1493380057979
 31
0.0
  0
LINE
  5
1B0
  8
LAYER0001
  6
CONTINUOUS
 62
     7
 10
163.6571956242484
 20
-63.85066199420213
 30
0.0
 11
119.9689241398734
 21
-63.85066199420213
 31
0.0
  0
LINE
  5
1B1
  8
LAYER0001
  6
CONTINUOUS
 62
     7
 10
120.9689241398734
 20
126.1493380057979
 30
0.0
 11
120.9689241398734
 21
-63.8506543648076
 31
0.0
  0
INSERT
  5
1B2
  8
LAYER0001
  6
CONTINUOUS
  2
DC_GROUP_8
 10
0.0
 20
0.0
 30
0.0
  0
INSERT
  5
1B3
  8
LAYER0001
  6
CONTINUOUS
  2
DC_GROUP_9
 10
0.0
 20
0.0
 30
0.0
  0
TEXT
  5
1B4
  8
LAYER0001
 62
     7
 10
119.3689241398734
 20
21.54934182049514
 30
0.0
 40
4.0
  1
φ190H7
 50
90.0
 41
0.6243496357960454
  7
FDASTYLE1
 72
     5
 11
119.3689241398734
 21
37.03321278823707
 31
0.0
  0
ENDBLK
  5
60
  8
0
  0
BLOCK
  8
0
  2
DC_GROUP_8
 70
     0
 10
0.0
 20
0.0
 30
0.0
  3
DC_GROUP_8
  1

  0
LINE
  5
1B5
  8
LAYER0001
  6
CONTINUOUS
 62
     7
 10
120.4330246049758
 20
124.1493395981672
 30
0.0
 11
120.9689241398734
 21
126.1493380057979
 31
0.0
  0
LINE
  5
1B6
  8
LAYER0001
  6
CONTINUOUS
 62
     7
 10
120.9689241398734
 20
126.1493380057979
 30
0.0
 11
121.504823674771
 21
124.1493395981672
 31
0.0
  0
LINE
  5
1B7
  8
LAYER0001
  6
CONTINUOUS
 62
     7
 10
120.9689241398734
 20
126.1493380057979
 30
0.0
 11
120.9689241398734
 21
124.1493395981672
 31
0.0
  0
ENDBLK
  5
63
  8
0
  0
BLOCK
  8
0
  2
DC_GROUP_9
 70
     0
 10
0.0
 20
0.0
 30
0.0
  3
DC_GROUP_9
  1

  0
LINE
  5
1B8
  8
LAYER0001
  6
CONTINUOUS
 62
     7
 10
121.504823674771
 20
-61.85065595717694
 30
0.0
 11
120.9689241398734
 21
-63.8506543648076
 31
0.0
  0
LINE
  5
1B9
  8
LAYER0001
  6
CONTINUOUS
 62
     7
 10
120.9689241398734
 20
-63.8506543648076
 30
0.0
 11
120.4330246049758
 21
-61.85065595717694
 31
0.0
  0
LINE
  5
1BA
  8
LAYER0001
  6
CONTINUOUS
 62
     7
 10
120.9689241398734
 20
-63.8506543648076
 30
0.0
 11
120.9689241398734
 21
-61.85065595717694
 31
0.0
  0
ENDBLK
  5
66
  8
0
  0
BLOCK
  8
0
  2
DC_GROUP_10
 70
     0
 10
0.0
 20
0.0
 30
0.0
  3
DC_GROUP_10
  1

  0
LINE
  5
1BB
  8
LAYER0001
  6
CONTINUOUS
 62
     7
 10
163.6571956242484
 20
138.6493380057979
 30
0.0
 11
109.9689241398734
 21
138.6493380057979
 31
0.0
  0
LINE
  5
1BC
  8
LAYER0001
  6
CONTINUOUS
 62
     7
 10
163.6571956242484
 20
-76.35066199420213
 30
0.0
 11
109.9689241398734
 21
-76.35066199420213
 31
0.0
  0
LINE
  5
1BD
  8
LAYER0001
  6
CONTINUOUS
 62
     7
 10
110.9689241398734
 20
138.6493380057979
 30
0.0
 11
110.9689241398734
 21
-76.3506543648076
 31
0.0
  0
INSERT
  5
1BE
  8
LAYER0001
  6
CONTINUOUS
  2
DC_GROUP_11
 10
0.0
 20
0.0
 30
0.0
  0
INSERT
  5
1BF
  8
LAYER0001
  6
CONTINUOUS
  2
DC_GROUP_12
 10
0.0
 20
0.0
 30
0.0
  0
TEXT
  5
1C0
  8
LAYER0001
 62
     7
 10
109.3689241398734
 20
24.74934182049513
 30
0.0
 40
4.0
  1
φ215
 50
90.0
 41
0.6167800453514745
  7
FDASTYLE1
 72
     5
 11
109.3689241398734
 21
35.1112465823999
 31
0.0
  0
ENDBLK
  5
69
  8
0
  0
BLOCK
  8
0
  2
DC_GROUP_11
 70
     0
 10
0.0
 20
0.0
 30
0.0
  3
DC_GROUP_11
  1

  0
LINE
  5
1C1
  8
LAYER0001
  6
CONTINUOUS
 62
     7
 10
110.4330246049758
 20
136.6493395981672
 30
0.0
 11
110.9689241398734
 21
138.6493380057979
 31
0.0
  0
LINE
  5
1C2
  8
LAYER0001
  6
CONTINUOUS
 62
     7
 10
110.9689241398734
 20
138.6493380057979
 30
0.0
 11
111.504823674771
 21
136.6493395981672
 31
0.0
  0
LINE
  5
1C3
  8
LAYER0001
  6
CONTINUOUS
 62
     7
 10
110.9689241398734
 20
138.6493380057979
 30
0.0
 11
110.9689241398734
 21
136.6493395981672
 31
0.0
  0
ENDBLK
  5
6C
  8
0
  0
BLOCK
  8
0
  2
DC_GROUP_12
 70
     0
 10
0.0
 20
0.0
 30
0.0
  3
DC_GROUP_12
  1

  0
LINE
  5
1C4
  8
LAYER0001
  6
CONTINUOUS
 62
     7
 10
111.504823674771
 20
-74.35065595717694
 30
0.0
 11
110.9689241398734
 21
-76.3506543648076
 31
0.0
  0
LINE
  5
1C5
  8
LAYER0001
  6
CONTINUOUS
 62
     7
 10
110.9689241398734
 20
-76.3506543648076
 30
0.0
 11
110.4330246049758
 21
-74.35065595717694
 31
0.0
  0
LINE
  5
1C6
  8
LAYER0001
  6
CONTINUOUS
 62
     7
 10
110.9689241398734
 20
-76.3506543648076
 30
0.0
 11
110.9689241398734
 21
-74.35065595717694
 31
0.0
  0
ENDBLK
  5
6F
  8
0
  0
BLOCK
  8
0
  2
DC_GROUP_13
 70
     0
 10
0.0
 20
0.0
 30
0.0
  3
DC_GROUP_13
  1

  0
LINE
  5
1C7
  8
LAYER0001
  6
CONTINUOUS
 62
     7
 10
231.8540779484672
 20
-1.350646735413065
 30
0.0
 11
281.9689241398734
 21
-1.350646735413065
 31
0.0
  0
LINE
  5
1C8
  8
LAYER0001
  6
CONTINUOUS
 62
     7
 10
280.9689241398734
 20
-1.350650550110331
 30
0.0
 11
280.9689241398734
 21
45.64933800579787
 31
0.0
  0
INSERT
  5
1C9
  8
LAYER0001
  6
CONTINUOUS
  2
DC_GROUP_14
 10
0.0
 20
0.0
 30
0.0
  0
TEXT
  5
1CA
  8
LAYER0001
 62
     7
 10
279.3689241398735
 20
17.02536377789259
 30
0.0
 40
4.0
  1
M65×P1.25
 50
90.0
 41
0.6294896030245746
  7
FDASTYLE1
 72
     5
 11
279.3689241398735
 21
40.19058116919693
 31
0.0
  0
ENDBLK
  5
72
  8
0
  0
BLOCK
  8
0
  2
DC_GROUP_14
 70
     0
 10
0.0
 20
0.0
 30
0.0
  3
DC_GROUP_14
  1

  0
LINE
  5
1CB
  8
LAYER0001
  6
CONTINUOUS
 62
     7
 10
281.5048236747711
 20
0.649347857520331
 30
0.0
 11
280.9689241398734
 21
-1.350650550110331
 31
0.0
  0
LINE
  5
1CC
  8
LAYER0001
  6
CONTINUOUS
 62
     7
 10
280.9689241398734
 20
-1.350650550110331
 30
0.0
 11
280.4330246049758
 21
0.6493478575203312
 31
0.0
  0
LINE
  5
1CD
  8
LAYER0001
  6
CONTINUOUS
 62
     7
 10
280.9689241398734
 20
-1.350650550110331
 30
0.0
 11
280.9689241398734
 21
0.6493478575203311
 31
0.0
  0
ENDBLK
  5
75
  8
0
  0
BLOCK
  8
0
  2
DC_GROUP_15
 70
     0
 10
0.0
 20
0.0
 30
0.0
  3
DC_GROUP_15
  1

  0
LINE
  5
1CE
  8
LAYER0001
  6
CONTINUOUS
 62
     7
 10
259.2371956242484
 20
-8.850646735413065
 30
0.0
 11
291.9689241398734
 21
-8.850646735413065
 31
0.0
  0
LINE
  5
1CF
  8
LAYER0001
  6
CONTINUOUS
 62
     7
 10
290.9689241398734
 20
-8.850650550110331
 30
0.0
 11
290.9689241398734
 21
45.64933800579787
 31
0.0
  0
INSERT
  5
1D0
  8
LAYER0001
  6
CONTINUOUS
  2
DC_GROUP_16
 10
0.0
 20
0.0
 30
0.0
  0
TEXT
  5
1D1
  8
LAYER0001
 62
     7
 10
289.3689241398735
 20
23.15834450604201
 30
0.0
 40
4.0
  1
φ80H7
 50
90.0
 41
0.6213017751479283
  7
FDASTYLE1
 72
     5
 11
289.3689241398735
 21
36.08142142911892
 31
0.0
  0
ENDBLK
  5
78
  8
0
  0
BLOCK
  8
0
  2
DC_GROUP_16
 70
     0
 10
0.0
 20
0.0
 30
0.0
  3
DC_GROUP_16
  1

  0
LINE
  5
1D2
  8
LAYER0001
  6
CONTINUOUS
 62
     7
 10
291.5048236747711
 20
-6.850652142479669
 30
0.0
 11
290.9689241398734
 21
-8.850650550110331
 31
0.0
  0
LINE
  5
1D3
  8
LAYER0001
  6
CONTINUOUS
 62
     7
 10
290.9689241398734
 20
-8.850650550110331
 30
0.0
 11
290.4330246049758
 21
-6.850652142479668
 31
0.0
  0
LINE
  5
1D4
  8
LAYER0001
  6
CONTINUOUS
 62
     7
 10
290.9689241398734
 20
-8.850650550110331
 30
0.0
 11
290.9689241398734
 21
-6.850652142479668
 31
0.0
  0
ENDBLK
  5
7B
  8
0
  0
BLOCK
  8
0
  2
DC_GROUP_17
 70
     0
 10
0.0
 20
0.0
 30
0.0
  3
DC_GROUP_17
  1

  0
LINE
  5
1D5
  8
LAYER0001
  6
CONTINUOUS
 62
     7
 10
292.0700743864632
 20
31.14933800579787
 30
0.0
 11
301.9689241398734
 21
31.14933800579787
 31
0.0
  0
LINE
  5
1D6
  8
LAYER0001
  6
CONTINUOUS
 62
     7
 10
258.2371956242484
 20
75.64933800579787
 30
0.0
 11
301.9689241398734
 21
75.64933800579787
 31
0.0
  0
LINE
  5
1D7
  8
LAYER0001
  6
CONTINUOUS
 62
     7
 10
300.9689241398734
 20
31.14934944988967
 30
0.0
 11
300.9689241398734
 21
75.6493456351924
 31
0.0
  0
INSERT
  5
1D8
  8
LAYER0001
  6
CONTINUOUS
  2
DC_GROUP_18
 10
0.0
 20
0.0
 30
0.0
  0
INSERT
  5
1D9
  8
LAYER0001
  6
CONTINUOUS
  2
DC_GROUP_19
 10
0.0
 20
0.0
 30
0.0
  0
TEXT
  5
1DA
  8
LAYER0001
 62
     7
 10
299.3689241398734
 20
42.19933800579788
 30
0.0
 40
4.0
  1
MAX49.5
 50
90.0
 41
0.6802721088435371
  7
FDASTYLE1
 72
     5
 11
299.3689241398734
 21
61.24695705341691
 31
0.0
  0
ENDBLK
  5
7E
  8
0
  0
BLOCK
  8
0
  2
DC_GROUP_18
 70
     0
 10
0.0
 20
0.0
 30
0.0
  3
DC_GROUP_18
  1

  0
LINE
  5
1DB
  8
LAYER0001
  6
CONTINUOUS
 62
     7
 10
301.5048236747711
 20
33.14934785752033
 30
0.0
 11
300.9689241398734
 21
31.14934944988967
 31
0.0
  0
LINE
  5
1DC
  8
LAYER0001
  6
CONTINUOUS
 62
     7
 10
300.9689241398734
 20
31.14934944988967
 30
0.0
 11
300.4330246049758
 21
33.14934785752033
 31
0.0
  0
LINE
  5
1DD
  8
LAYER0001
  6
CONTINUOUS
 62
     7
 10
300.9689241398734
 20
31.14934944988967
 30
0.0
 11
300.9689241398734
 21
33.14934785752033
 31
0.0
  0
ENDBLK
  5
81
  8
0
  0
BLOCK
  8
0
  2
DC_GROUP_19
 70
     0
 10
0.0
 20
0.0
 30
0.0
  3
DC_GROUP_19
  1

  0
LINE
  5
1DE
  8
LAYER0001
  6
CONTINUOUS
 62
     7
 10
300.4330246049758
 20
73.64934722756173
 30
0.0
 11
300.9689241398734
 21
75.6493456351924
 31
0.0
  0
LINE
  5
1DF
  8
LAYER0001
  6
CONTINUOUS
 62
     7
 10
300.9689241398734
 20
75.6493456351924
 30
0.0
 11
301.5048236747711
 21
73.64934722756173
 31
0.0
  0
LINE
  5
1E0
  8
LAYER0001
  6
CONTINUOUS
 62
     7
 10
300.9689241398734
 20
75.6493456351924
 30
0.0
 11
300.9689241398734
 21
73.64934722756173
 31
0.0
  0
ENDBLK
  5
84
  8
0
  0
BLOCK
  8
0
  2
DC_GROUP_20
 70
     0
 10
0.0
 20
0.0
 30
0.0
  3
DC_GROUP_20
  1

  0
LINE
  5
1E1
  8
LAYER0001
  6
CONTINUOUS
 62
     7
 10
258.2371956242484
 20
75.64933800579787
 30
0.0
 11
311.9689241398734
 21
75.64933800579787
 31
0.0
  0
LINE
  5
1E2
  8
LAYER0001
  6
CONTINUOUS
 62
     7
 10
258.2371956242484
 20
138.6493380057979
 30
0.0
 11
311.9689241398734
 21
138.6493380057979
 31
0.0
  0
LINE
  5
1E3
  8
LAYER0001
  6
CONTINUOUS
 62
     7
 10
310.9689241398734
 20
75.6493456351924
 30
0.0
 11
310.9689241398734
 21
138.6493380057979
 31
0.0
  0
INSERT
  5
1E4
  8
LAYER0001
  6
CONTINUOUS
  2
DC_GROUP_21
 10
0.0
 20
0.0
 30
0.0
  0
INSERT
  5
1E5
  8
LAYER0001
  6
CONTINUOUS
  2
DC_GROUP_22
 10
0.0
 20
0.0
 30
0.0
  0
TEXT
  5
1E6
  8
LAYER0001
 62
     7
 10
309.3689241398734
 20
103.9493380057979
 30
0.0
 40
4.0
  1
63
 50
90.0
 41
0.6285714285714263
  7
FDASTYLE1
 72
     5
 11
309.3689241398734
 21
108.9779094343693
 31
0.0
  0
ENDBLK
  5
87
  8
0
  0
BLOCK
  8
0
  2
DC_GROUP_21
 70
     0
 10
0.0
 20
0.0
 30
0.0
  3
DC_GROUP_21
  1

  0
LINE
  5
1E7
  8
LAYER0001
  6
CONTINUOUS
 62
     7
 10
311.5048236747711
 20
77.64934404282306
 30
0.0
 11
310.9689241398734
 21
75.6493456351924
 31
0.0
  0
LINE
  5
1E8
  8
LAYER0001
  6
CONTINUOUS
 62
     7
 10
310.9689241398734
 20
75.6493456351924
 30
0.0
 11
310.4330246049758
 21
77.64934404282306
 31
0.0
  0
LINE
  5
1E9
  8
LAYER0001
  6
CONTINUOUS
 62
     7
 10
310.9689241398734
 20
75.6493456351924
 30
0.0
 11
310.9689241398734
 21
77.64934404282306
 31
0.0
  0
ENDBLK
  5
8A
  8
0
  0
BLOCK
  8
0
  2
DC_GROUP_22
 70
     0
 10
0.0
 20
0.0
 30
0.0
  3
DC_GROUP_22
  1

  0
LINE
  5
1EA
  8
LAYER0001
  6
CONTINUOUS
 62
     7
 10
310.4330246049758
 20
136.6493395981672
 30
0.0
 11
310.9689241398734
 21
138.6493380057979
 31
0.0
  0
LINE
  5
1EB
  8
LAYER0001
  6
CONTINUOUS
 62
     7
 10
310.9689241398734
 20
138.6493380057979
 30
0.0
 11
311.5048236747711
 21
136.6493395981672
 31
0.0
  0
LINE
  5
1EC
  8
LAYER0001
  6
CONTINUOUS
 62
     7
 10
310.9689241398734
 20
138.6493380057979
 30
0.0
 11
310.9689241398734
 21
136.6493395981672
 31
0.0
  0
ENDBLK
  5
8D
  8
0
  0
BLOCK
  8
0
  2
DC_GROUP_23
 70
     0
 10
0.0
 20
0.0
 30
0.0
  3
DC_GROUP_23
  1

  0
LINE
  5
1ED
  8
LAYER0001
  6
CONTINUOUS
 62
     7
 10
282.6121879948539
 20
88.64933800579787
 30
0.0
 11
291.9689241398734
 21
88.64933800579787
 31
0.0
  0
LINE
  5
1EE
  8
LAYER0001
  6
CONTINUOUS
 62
     7
 10
258.2371956242484
 20
75.64933800579787
 30
0.0
 11
291.9689241398734
 21
75.64933800579787
 31
0.0
  0
LINE
  5
1EF
  8
LAYER0001
  6
CONTINUOUS
 62
     7
 10
290.9689241398734
 20
88.6493456351924
 30
0.0
 11
290.9689241398734
 21
75.6493456351924
 31
0.0
  0
INSERT
  5
1F0
  8
LAYER0001
  6
CONTINUOUS
  2
DC_GROUP_24
 10
0.0
 20
0.0
 30
0.0
  0
INSERT
  5
1F1
  8
LAYER0001
  6
CONTINUOUS
  2
DC_GROUP_25
 10
0.0
 20
0.0
 30
0.0
  0
TEXT
  5
1F2
  8
LAYER0001
 62
     7
 10
283.9689239252967
 20
77.34934563519241
 30
0.0
 40
4.0
  1
MIN
 50
90.0
 41
0.5841269841269821
  7
FDASTYLE1
 72
     5
 11
283.9689239252967
 21
84.35886944471619
 31
0.0
  0
TEXT
  5
1F3
  8
LAYER0001
 62
     7
 10
289.3689241398735
 20
78.54934562923194
 30
0.0
 40
4.0
  1
10
 50
90.0
 41
0.5904761904761955
  7
FDASTYLE1
 72
     5
 11
289.3689241398735
 21
83.2731551530415
 31
0.0
  0
ENDBLK
  5
90
  8
0
  0
BLOCK
  8
0
  2
DC_GROUP_24
 70
     0
 10
0.0
 20
0.0
 30
0.0
  3
DC_GROUP_24
  1

  0
LINE
  5
1F4
  8
LAYER0001
  6
CONTINUOUS
 62
     7
 10
290.4330246049758
 20
86.64934722756175
 30
0.0
 11
290.9689241398734
 21
88.6493456351924
 31
0.0
  0
LINE
  5
1F5
  8
LAYER0001
  6
CONTINUOUS
 62
     7
 10
290.9689241398734
 20
88.6493456351924
 30
0.0
 11
291.5048236747711
 21
86.64934722756175
 31
0.0
  0
LINE
  5
1F6
  8
LAYER0001
  6
CONTINUOUS
 62
     7
 10
290.9689241398734
 20
88.6493456351924
 30
0.0
 11
290.9689241398734
 21
86.64934722756175
 31
0.0
  0
ENDBLK
  5
93
  8
0
  0
BLOCK
  8
0
  2
DC_GROUP_25
 70
     0
 10
0.0
 20
0.0
 30
0.0
  3
DC_GROUP_25
  1

  0
LINE
  5
1F7
  8
LAYER0001
  6
CONTINUOUS
 62
     7
 10
291.5048236747711
 20
77.64934404282306
 30
0.0
 11
290.9689241398734
 21
75.6493456351924
 31
0.0
  0
LINE
  5
1F8
  8
LAYER0001
  6
CONTINUOUS
 62
     7
 10
290.9689241398734
 20
75.6493456351924
 30
0.0
 11
290.4330246049758
 21
77.64934404282306
 31
0.0
  0
LINE
  5
1F9
  8
LAYER0001
  6
CONTINUOUS
 62
     7
 10
290.9689241398734
 20
75.6493456351924
 30
0.0
 11
290.9689241398734
 21
77.64934404282306
 31
0.0
  0
ENDBLK
  5
96
  8
0
  0
BLOCK
  8
0
  2
DC_GROUP_26
 70
     0
 10
0.0
 20
0.0
 30
0.0
  3
DC_GROUP_26
  1

  0
LINE
  5
1FA
  8
LAYER0001
  6
CONTINUOUS
 62
     7
 10
255.7536390764591
 20
133.0527763707906
 30
0.0
 11
278.6087680384191
 21
158.2475964823944
 31
0.0
  0
LINE
  5
1FB
  8
LAYER0001
  6
CONTINUOUS
 62
     7
 10
278.6087709416312
 20
158.2476046073604
 30
0.0
 11
326.5657354344291
 21
158.2476046073604
 31
0.0
  0
INSERT
  5
1FC
  8
LAYER0001
  6
CONTINUOUS
  2
DC_GROUP_27
 10
0.0
 20
0.0
 30
0.0
  0
TEXT
  5
1FD
  8
LAYER0001
 62
     7
 10
279.9371629704398
 20
159.8476046073604
 30
0.0
 40
4.0
  1
ｾﾚｰｼｮﾝP1.5山60ﾟ
 41
0.6332076968855386
  7
FDASTYLE1
 72
     5
 11
315.9033601535384
 21
159.8476046073604
 31
0.0
  0
ENDBLK
  5
99
  8
0
  0
BLOCK
  8
0
  2
DC_GROUP_27
 70
     0
 10
0.0
 20
0.0
 30
0.0
  3
DC_GROUP_27
  1

  0
LINE
  5
1FE
  8
LAYER0001
  6
CONTINUOUS
 62
     7
 10
257.4943168574627
 20
134.1740358433255
 30
0.0
 11
255.7536390764591
 21
133.0527763707906
 31
0.0
  0
LINE
  5
1FF
  8
LAYER0001
  6
CONTINUOUS
 62
     7
 10
255.7536390764591
 20
133.0527763707906
 30
0.0
 11
256.7004778095085
 21
134.8941558416293
 31
0.0
  0
LINE
  5
200
  8
LAYER0001
  6
CONTINUOUS
 62
     7
 10
255.7536390764591
 20
133.0527763707906
 30
0.0
 11
257.0973973334856
 21
134.5340958424774
 31
0.0
  0
ENDBLK
  5
9C
  8
0
  0
BLOCK
  8
0
  2
DC_GROUP_28
 70
     0
 10
0.0
 20
0.0
 30
0.0
  3
DC_GROUP_28
  1

  0
LINE
  5
201
  8
LAYER0001
  6
CONTINUOUS
 62
     7
 10
255.6971956242484
 20
142.5936043632198
 30
0.0
 11
255.6971956242484
 21
159.2476046073604
 31
0.0
  0
LINE
  5
202
  8
LAYER0001
  6
CONTINUOUS
 62
     7
 10
256.6971956242484
 20
140.5936043632198
 30
0.0
 11
256.6971956242484
 21
159.2476046073604
 31
0.0
  0
LINE
  5
203
  8
LAYER0001
  6
CONTINUOUS
 62
     7
 10
255.6971956242484
 20
158.2476046073604
 30
0.0
 11
256.6971956242484
 21
158.2476046073604
 31
0.0
  0
LINE
  5
204
  8
LAYER0001
  6
CONTINUOUS
 62
     7
 10
255.6971956242484
 20
158.2476046073604
 30
0.0
 11
249.3471956242484
 21
158.2476046073604
 31
0.0
  0
LINE
  5
205
  8
LAYER0001
  6
CONTINUOUS
 62
     7
 10
263.0471956242484
 20
158.2476046073604
 30
0.0
 11
256.6971956242484
 21
158.2476046073604
 31
0.0
  0
INSERT
  5
206
  8
LAYER0001
  6
DASHDOT2
  2
DC_GROUP_29
 10
0.0
 20
0.0
 30
0.0
  0
INSERT
  5
207
  8
LAYER0001
  6
CONTINUOUS
  2
DC_GROUP_30
 10
0.0
 20
0.0
 30
0.0
  0
TEXT
  5
208
  8
LAYER0001
 62
     7
 10
261.2384004582328
 20
159.8476046073604
 30
0.0
 40
4.0
  1
1
 41
0.1904761904761898
  7
FDASTYLE1
 72
     5
 11
262.0003052201376
 21
159.8476046073604
 31
0.0
  0
ENDBLK
  5
9F
  8
0
  0
BLOCK
  8
0
  2
DC_GROUP_29
 70
     0
 10
0.0
 20
0.0
 30
0.0
  3
DC_GROUP_29
  1

  0
LINE
  5
209
  8
LAYER0001
  6
CONTINUOUS
 62
     7
 10
253.6971972166177
 20
158.783504142258
 30
0.0
 11
255.6971956242484
 21
158.2476046073604
 31
0.0
  0
LINE
  5
20A
  8
LAYER0001
  6
CONTINUOUS
 62
     7
 10
255.6971956242484
 20
158.2476046073604
 30
0.0
 11
253.6971972166177
 21
157.7117050724628
 31
0.0
  0
LINE
  5
20B
  8
LAYER0001
  6
CONTINUOUS
 62
     7
 10
255.6971956242484
 20
158.2476046073604
 30
0.0
 11
253.6971972166177
 21
158.2476046073604
 31
0.0
  0
ENDBLK
  5
A2
  8
0
  0
BLOCK
  8
0
  2
DC_GROUP_30
 70
     0
 10
0.0
 20
0.0
 30
0.0
  3
DC_GROUP_30
  1

  0
LINE
  5
20C
  8
LAYER0001
  6
CONTINUOUS
 62
     7
 10
258.6971940318791
 20
157.7117050724628
 30
0.0
 11
256.6971956242484
 21
158.2476046073604
 31
0.0
  0
LINE
  5
20D
  8
LAYER0001
  6
CONTINUOUS
 62
     7
 10
256.6971956242484
 20
158.2476046073604
 30
0.0
 11
258.6971940318791
 21
158.783504142258
 31
0.0
  0
LINE
  5
20E
  8
LAYER0001
  6
CONTINUOUS
 62
     7
 10
256.6971956242484
 20
158.2476046073604
 30
0.0
 11
258.6971940318791
 21
158.2476046073604
 31
0.0
  0
ENDBLK
  5
A5
  8
0
  0
BLOCK
  8
0
  2
DC_GROUP_31
 70
     0
 10
0.0
 20
0.0
 30
0.0
  3
DC_GROUP_31
  1

  0
LINE
  5
20F
  8
LAYER0001
  6
CONTINUOUS
 62
     7
 10
267.4013469754829
 20
123.7018287123725
 30
0.0
 11
288.2606515405266
 21
147.8337293198516
 31
0.0
  0
LINE
  5
210
  8
LAYER0001
  6
CONTINUOUS
 62
     7
 10
288.2606492985648
 20
147.8337252128291
 30
0.0
 11
300.9892221440238
 21
147.8337252128291
 31
0.0
  0
INSERT
  5
211
  8
LAYER0001
  6
CONTINUOUS
  2
DC_GROUP_32
 10
0.0
 20
0.0
 30
0.0
  0
TEXT
  5
212
  8
LAYER0001
 62
     7
 10
289.5606523503226
 20
149.4337252128291
 30
0.0
 40
4.0
  1
M10
 41
0.723809523809526
  7
FDASTYLE1
 72
     5
 11
298.246366636037
 21
149.4337252128291
 31
0.0
  0
ENDBLK
  5
A8
  8
0
  0
BLOCK
  8
0
  2
DC_GROUP_32
 70
     0
 10
0.0
 20
0.0
 30
0.0
  3
DC_GROUP_32
  1

  0
LINE
  5
213
  8
LAYER0001
  6
CONTINUOUS
 62
     7
 10
269.11466671431
 20
124.8644625388948
 30
0.0
 11
267.4013469754829
 21
123.7018287123725
 31
0.0
  0
LINE
  5
214
  8
LAYER0001
  6
CONTINUOUS
 62
     7
 10
267.4013469754829
 20
123.7018287123725
 30
0.0
 11
268.3038057394281
 21
125.5653603384543
 31
0.0
  0
LINE
  5
215
  8
LAYER0001
  6
CONTINUOUS
 62
     7
 10
267.4013469754829
 20
123.7018287123725
 30
0.0
 11
268.7092362268691
 21
125.2149114386746
 31
0.0
  0
ENDBLK
  5
AB
  8
0
  0
BLOCK
  8
0
  2
DC_GROUP_33
 70
     0
 10
0.0
 20
0.0
 30
0.0
  3
DC_GROUP_33
  1

  0
LINE
  5
216
  8
LAYER0001
  6
CONTINUOUS
 62
     7
 10
170.7116914738578
 20
128.6893380057979
 30
0.0
 11
170.7116914738578
 21
159.2476046073604
 31
0.0
  0
LINE
  5
217
  8
LAYER0001
  6
CONTINUOUS
 62
     7
 10
179.6285768498344
 20
70.18935326458694
 30
0.0
 11
179.6285768498344
 21
159.2476046073604
 31
0.0
  0
LINE
  5
218
  8
LAYER0001
  6
CONTINUOUS
 62
     7
 10
170.7116914738578
 20
158.2476046073604
 30
0.0
 11
179.6285768498344
 21
158.2476046073604
 31
0.0
  0
LINE
  5
219
  8
LAYER0001
  6
CONTINUOUS
 62
     7
 10
142.0134658481565
 20
158.2476046073604
 30
0.0
 11
170.7116914738578
 21
158.2476046073604
 31
0.0
  0
LINE
  5
21A
  8
LAYER0001
  6
CONTINUOUS
 62
     7
 10
184.6285768498344
 20
158.2476046073604
 30
0.0
 11
179.6285768498344
 21
158.2476046073604
 31
0.0
  0
INSERT
  5
21B
  8
LAYER0001
  6
CONTINUOUS
  2
DC_GROUP_34
 10
0.0
 20
0.0
 30
0.0
  0
INSERT
  5
21C
  8
LAYER0001
  6
CONTINUOUS
  2
DC_GROUP_35
 10
0.0
 20
0.0
 30
0.0
  0
TEXT
  5
21D
  8
LAYER0001
 62
     7
 10
143.0134658481565
 20
159.2476046073604
 30
0.0
 40
4.0
  1
MAX21.7
 41
0.6802721088435371
  7
FDASTYLE1
 72
     5
 11
162.0610848957755
 21
159.2476046073604
 31
0.0
  0
ENDBLK
  5
AE
  8
0
  0
BLOCK
  8
0
  2
DC_GROUP_34
 70
     0
 10
0.0
 20
0.0
 30
0.0
  3
DC_GROUP_34
  1

  0
LINE
  5
21E
  8
LAYER0001
  6
CONTINUOUS
 62
     7
 10
168.7116930662271
 20
158.783504142258
 30
0.0
 11
170.7116914738578
 21
158.2476046073604
 31
0.0
  0
LINE
  5
21F
  8
LAYER0001
  6
CONTINUOUS
 62
     7
 10
170.7116914738578
 20
158.2476046073604
 30
0.0
 11
168.7116930662271
 21
157.7117050724628
 31
0.0
  0
LINE
  5
220
  8
LAYER0001
  6
CONTINUOUS
 62
     7
 10
170.7116914738578
 20
158.2476046073604
 30
0.0
 11
168.7116930662271
 21
158.2476046073604
 31
0.0
  0
ENDBLK
  5
B1
  8
0
  0
BLOCK
  8
0
  2
DC_GROUP_35
 70
     0
 10
0.0
 20
0.0
 30
0.0
  3
DC_GROUP_35
  1

  0
LINE
  5
221
  8
LAYER0001
  6
CONTINUOUS
 62
     7
 10
181.6285752574651
 20
157.7117050724628
 30
0.0
 11
179.6285768498344
 21
158.2476046073604
 31
0.0
  0
LINE
  5
222
  8
LAYER0001
  6
CONTINUOUS
 62
     7
 10
179.6285768498344
 20
158.2476046073604
 30
0.0
 11
181.6285752574651
 21
158.783504142258
 31
0.0
  0
LINE
  5
223
  8
LAYER0001
  6
CONTINUOUS
 62
     7
 10
179.6285768498344
 20
158.2476046073604
 30
0.0
 11
181.6285752574651
 21
158.2476046073604
 31
0.0
  0
ENDBLK
  5
B4
  8
0
  0
BLOCK
  8
0
  2
DC_GROUP_36
 70
     0
 10
0.0
 20
0.0
 30
0.0
  3
DC_GROUP_36
  1

  0
LINE
  5
224
  8
LAYER0001
  6
CONTINUOUS
 62
     7
 10
259.5516945256156
 20
128.6493380057979
 30
0.0
 11
301.9689241398734
 21
128.6493380057979
 31
0.0
  0
LINE
  5
225
  8
LAYER0001
  6
CONTINUOUS
 62
     7
 10
292.2003656514227
 20
78.64933800579787
 30
0.0
 11
301.9689241398734
 21
78.64933800579787
 31
0.0
  0
LINE
  5
226
  8
LAYER0001
  6
CONTINUOUS
 62
     7
 10
300.9689241398734
 20
128.6493380057979
 30
0.0
 11
300.9689241398734
 21
78.64933800579787
 31
0.0
  0
INSERT
  5
227
  8
LAYER0001
  6
CONTINUOUS
  2
DC_GROUP_37
 10
0.0
 20
0.0
 30
0.0
  0
INSERT
  5
228
  8
LAYER0001
  6
CONTINUOUS
  2
DC_GROUP_38
 10
0.0
 20
0.0
 30
0.0
  0
TEXT
  5
229
  8
LAYER0001
 62
     7
 10
299.3689241398734
 20
100.4493380057979
 30
0.0
 40
4.0
  1
50
 50
90.0
 41
0.6476190476190524
  7
FDASTYLE1
 72
     5
 11
299.3689241398734
 21
105.6302903867503
 31
0.0
  0
ENDBLK
  5
B7
  8
0
  0
BLOCK
  8
0
  2
DC_GROUP_37
 70
     0
 10
0.0
 20
0.0
 30
0.0
  3
DC_GROUP_37
  1

  0
LINE
  5
22A
  8
LAYER0001
  6
CONTINUOUS
 62
     7
 10
300.4330246049758
 20
126.6493395981672
 30
0.0
 11
300.9689241398734
 21
128.6493380057979
 31
0.0
  0
LINE
  5
22B
  8
LAYER0001
  6
CONTINUOUS
 62
     7
 10
300.9689241398734
 20
128.6493380057979
 30
0.0
 11
301.5048236747711
 21
126.6493395981672
 31
0.0
  0
LINE
  5
22C
  8
LAYER0001
  6
CONTINUOUS
 62
     7
 10
300.9689241398734
 20
128.6493380057979
 30
0.0
 11
300.9689241398734
 21
126.6493395981672
 31
0.0
  0
ENDBLK
  5
BA
  8
0
  0
BLOCK
  8
0
  2
DC_GROUP_38
 70
     0
 10
0.0
 20
0.0
 30
0.0
  3
DC_GROUP_38
  1

  0
LINE
  5
22D
  8
LAYER0001
  6
CONTINUOUS
 62
     7
 10
301.5048236747711
 20
80.64933641342854
 30
0.0
 11
300.9689241398734
 21
78.64933800579787
 31
0.0
  0
LINE
  5
22E
  8
LAYER0001
  6
CONTINUOUS
 62
     7
 10
300.9689241398734
 20
78.64933800579787
 30
0.0
 11
300.4330246049758
 21
80.64933641342854
 31
0.0
  0
LINE
  5
22F
  8
LAYER0001
  6
CONTINUOUS
 62
     7
 10
300.9689241398734
 20
78.64933800579787
 30
0.0
 11
300.9689241398734
 21
80.64933641342854
 31
0.0
  0
ENDBLK
  5
BD
  8
0
  0
BLOCK
  8
0
  2
DC_GROUP_39
 70
     0
 10
0.0
 20
0.0
 30
0.0
  3
DC_GROUP_39
  1

  0
LINE
  5
230
  8
LAYER0001
  6
CONTINUOUS
 62
     7
 10
282.9266868962211
 20
88.64933800579787
 30
0.0
 11
291.9689241398734
 21
88.64933800579787
 31
0.0
  0
LINE
  5
231
  8
LAYER0001
  6
CONTINUOUS
 62
     7
 10
283.110021246807
 20
118.6493380057979
 30
0.0
 11
291.9689241398734
 21
118.6493380057979
 31
0.0
  0
LINE
  5
232
  8
LAYER0001
  6
CONTINUOUS
 62
     7
 10
290.9689241398734
 20
88.64933800579787
 30
0.0
 11
290.9689241398734
 21
118.6493380057979
 31
0.0
  0
INSERT
  5
233
  8
LAYER0001
  6
CONTINUOUS
  2
DC_GROUP_40
 10
0.0
 20
0.0
 30
0.0
  0
INSERT
  5
234
  8
LAYER0001
  6
CONTINUOUS
  2
DC_GROUP_41
 10
0.0
 20
0.0
 30
0.0
  0
TEXT
  5
235
  8
LAYER0001
 62
     7
 10
289.3689241398735
 20
100.4493380057979
 30
0.0
 40
4.0
  1
30
 50
90.0
 41
0.6476190476190453
  7
FDASTYLE1
 72
     5
 11
289.3689241398735
 21
105.6302903867503
 31
0.0
  0
ENDBLK
  5
C0
  8
0
  0
BLOCK
  8
0
  2
DC_GROUP_40
 70
     0
 10
0.0
 20
0.0
 30
0.0
  3
DC_GROUP_40
  1

  0
LINE
  5
236
  8
LAYER0001
  6
CONTINUOUS
 62
     7
 10
291.5048236747711
 20
90.64933641342854
 30
0.0
 11
290.9689241398734
 21
88.64933800579787
 31
0.0
  0
LINE
  5
237
  8
LAYER0001
  6
CONTINUOUS
 62
     7
 10
290.9689241398734
 20
88.64933800579787
 30
0.0
 11
290.4330246049758
 21
90.64933641342854
 31
0.0
  0
LINE
  5
238
  8
LAYER0001
  6
CONTINUOUS
 62
     7
 10
290.9689241398734
 20
88.64933800579787
 30
0.0
 11
290.9689241398734
 21
90.64933641342854
 31
0.0
  0
ENDBLK
  5
C3
  8
0
  0
BLOCK
  8
0
  2
DC_GROUP_41
 70
     0
 10
0.0
 20
0.0
 30
0.0
  3
DC_GROUP_41
  1

  0
LINE
  5
239
  8
LAYER0001
  6
CONTINUOUS
 62
     7
 10
290.4330246049758
 20
116.6493395981672
 30
0.0
 11
290.9689241398734
 21
118.6493380057979
 31
0.0
  0
LINE
  5
23A
  8
LAYER0001
  6
CONTINUOUS
 62
     7
 10
290.9689241398734
 20
118.6493380057979
 30
0.0
 11
291.5048236747711
 21
116.6493395981672
 31
0.0
  0
LINE
  5
23B
  8
LAYER0001
  6
CONTINUOUS
 62
     7
 10
290.9689241398734
 20
118.6493380057979
 30
0.0
 11
290.9689241398734
 21
116.6493395981672
 31
0.0
  0
ENDBLK
  5
C6
  8
0
  0
BLOCK
  8
0
  2
DC_GROUP_42
 70
     0
 10
0.0
 20
0.0
 30
0.0
  3
DC_GROUP_42
  1

  0
LINE
  5
23C
  8
LAYER0001
  6
CONTINUOUS
 62
     7
 10
170.7116914738578
 20
-100.4651650518029
 30
0.0
 11
208.6285768498344
 21
-100.4651650518029
 31
0.0
  0
LINE
  5
23D
  8
LAYER0001
  6
CONTINUOUS
 62
     7
 10
170.7116914738578
 20
-66.3906543648076
 30
0.0
 11
170.7116914738578
 21
-101.4651650518029
 31
0.0
  0
LINE
  5
23E
  8
LAYER0001
  6
CONTINUOUS
 62
     7
 10
208.6285768498344
 20
-2.890650550110331
 30
0.0
 11
208.6285768498344
 21
-101.4651650518029
 31
0.0
  0
INSERT
  5
23F
  8
LAYER0001
  6
CONTINUOUS
  2
DC_GROUP_43
 10
0.0
 20
0.0
 30
0.0
  0
INSERT
  5
240
  8
LAYER0001
  6
CONTINUOUS
  2
DC_GROUP_44
 10
0.0
 20
0.0
 30
0.0
  0
TEXT
  5
241
  8
LAYER0001
 62
     7
 10
176.8701341618461
 20
-99.46516505180286
 30
0.0
 40
4.0
  1
MAX 50.7
 41
0.6952380952380963
  7
FDASTYLE1
 72
     5
 11
199.1177532094652
 21
-99.46516505180286
 31
0.0
  0
ENDBLK
  5
C9
  8
0
  0
BLOCK
  8
0
  2
DC_GROUP_43
 70
     0
 10
0.0
 20
0.0
 30
0.0
  3
DC_GROUP_43
  1

  0
LINE
  5
242
  8
LAYER0001
  6
CONTINUOUS
 62
     7
 10
172.7116898814885
 20
-101.0010645867005
 30
0.0
 11
170.7116914738578
 21
-100.4651650518029
 31
0.0
  0
LINE
  5
243
  8
LAYER0001
  6
CONTINUOUS
 62
     7
 10
170.7116914738578
 20
-100.4651650518029
 30
0.0
 11
172.7116898814885
 21
-99.92926551690529
 31
0.0
  0
LINE
  5
244
  8
LAYER0001
  6
CONTINUOUS
 62
     7
 10
170.7116914738578
 20
-100.4651650518029
 30
0.0
 11
172.7116898814885
 21
-100.4651650518029
 31
0.0
  0
ENDBLK
  5
CC
  8
0
  0
BLOCK
  8
0
  2
DC_GROUP_44
 70
     0
 10
0.0
 20
0.0
 30
0.0
  3
DC_GROUP_44
  1

  0
LINE
  5
245
  8
LAYER0001
  6
CONTINUOUS
 62
     7
 10
206.6285784422038
 20
-99.92926551690529
 30
0.0
 11
208.6285768498344
 21
-100.4651650518029
 31
0.0
  0
LINE
  5
246
  8
LAYER0001
  6
CONTINUOUS
 62
     7
 10
208.6285768498344
 20
-100.4651650518029
 30
0.0
 11
206.6285784422038
 21
-101.0010645867005
 31
0.0
  0
LINE
  5
247
  8
LAYER0001
  6
CONTINUOUS
 62
     7
 10
208.6285768498344
 20
-100.4651650518029
 30
0.0
 11
206.6285784422038
 21
-100.4651650518029
 31
0.0
  0
ENDBLK
  5
CF
  8
0
  0
BLOCK
  8
0
  2
DC_GROUP_45
 70
     0
 10
0.0
 20
0.0
 30
0.0
  3
DC_GROUP_45
  1

  0
LINE
  5
248
  8
LAYER0001
  6
CONTINUOUS
 62
     7
 10
154.0116945256156
 20
-100.4651650518029
 30
0.0
 11
170.7116914738578
 21
-100.4651650518029
 31
0.0
  0
LINE
  5
249
  8
LAYER0001
  6
CONTINUOUS
 62
     7
 10
154.0116945256156
 20
-44.06565360186814
 30
0.0
 11
154.0116945256156
 21
-101.4651650518029
 31
0.0
  0
LINE
  5
24A
  8
LAYER0001
  6
CONTINUOUS
 62
     7
 10
170.7116914738578
 20
-66.3906543648076
 30
0.0
 11
170.7116914738578
 21
-101.4651650518029
 31
0.0
  0
LINE
  5
24B
  8
LAYER0001
  6
CONTINUOUS
 62
     7
 10
137.2798445256156
 20
-100.4651650518029
 30
0.0
 11
154.0116945256156
 21
-100.4651650518029
 31
0.0
  0
INSERT
  5
24C
  8
LAYER0001
  6
CONTINUOUS
  2
DC_GROUP_46
 10
0.0
 20
0.0
 30
0.0
  0
TEXT
  5
24D
  8
LAYER0001
 62
     7
 10
138.2798445256156
 20
-99.46516505180286
 30
0.0
 40
4.0
  1
16.7
 41
0.5809523809523807
  7
FDASTYLE1
 72
     5
 11
147.5750826208537
 21
-99.46516505180286
 31
0.0
  0
ENDBLK
  5
D2
  8
0
  0
BLOCK
  8
0
  2
DC_GROUP_46
 70
     0
 10
0.0
 20
0.0
 30
0.0
  3
DC_GROUP_46
  1

  0
LINE
  5
24E
  8
LAYER0001
  6
CONTINUOUS
 62
     7
 10
152.0116961179849
 20
-99.92926551690529
 30
0.0
 11
154.0116945256156
 21
-100.4651650518029
 31
0.0
  0
LINE
  5
24F
  8
LAYER0001
  6
CONTINUOUS
 62
     7
 10
154.0116945256156
 20
-100.4651650518029
 30
0.0
 11
152.0116961179849
 21
-101.0010645867005
 31
0.0
  0
LINE
  5
250
  8
LAYER0001
  6
CONTINUOUS
 62
     7
 10
154.0116945256156
 20
-100.4651650518029
 30
0.0
 11
152.0116961179849
 21
-100.4651650518029
 31
0.0
  0
ENDBLK
  5
D5
  8
0
  0
BLOCK
  8
0
  2
DC_GROUP_47
 70
     0
 10
0.0
 20
0.0
 30
0.0
  3
DC_GROUP_47
  1

  0
LINE
  5
251
  8
LAYER0001
  6
CONTINUOUS
 62
     7
 10
208.0885768498344
 20
62.39933800579787
 30
0.0
 11
139.9689241398734
 21
62.39933800579787
 31
0.0
  0
LINE
  5
252
  8
LAYER0001
  6
CONTINUOUS
 62
     7
 10
208.0885768498344
 20
-0.1006467354130649
 30
0.0
 11
139.9689241398734
 21
-0.1006467354130649
 31
0.0
  0
LINE
  5
253
  8
LAYER0001
  6
CONTINUOUS
 62
     7
 10
140.9689241398734
 20
62.39933800579787
 30
0.0
 11
140.9689241398734
 21
-0.1006467354130649
 31
0.0
  0
INSERT
  5
254
  8
LAYER0001
  6
CONTINUOUS
  2
DC_GROUP_48
 10
0.0
 20
0.0
 30
0.0
  0
INSERT
  5
255
  8
LAYER0001
  6
CONTINUOUS
  2
DC_GROUP_49
 10
0.0
 20
0.0
 30
0.0
  0
TEXT
  5
256
  8
LAYER0001
 62
     7
 10
139.3689241398734
 20
19.94934563519242
 30
0.0
 40
4.0
  1
φ62.5H7
 50
90.0
 41
0.6265432098765423
  7
FDASTYLE1
 72
     5
 11
139.3689241398734
 21
37.99379007963684
 31
0.0
  0
ENDBLK
  5
D8
  8
0
  0
BLOCK
  8
0
  2
DC_GROUP_48
 70
     0
 10
0.0
 20
0.0
 30
0.0
  3
DC_GROUP_48
  1

  0
LINE
  5
257
  8
LAYER0001
  6
CONTINUOUS
 62
     7
 10
140.4330246049758
 20
60.39933959816722
 30
0.0
 11
140.9689241398734
 21
62.39933800579787
 31
0.0
  0
LINE
  5
258
  8
LAYER0001
  6
CONTINUOUS
 62
     7
 10
140.9689241398734
 20
62.39933800579787
 30
0.0
 11
141.504823674771
 21
60.39933959816722
 31
0.0
  0
LINE
  5
259
  8
LAYER0001
  6
CONTINUOUS
 62
     7
 10
140.9689241398734
 20
62.39933800579787
 30
0.0
 11
140.9689241398734
 21
60.39933959816722
 31
0.0
  0
ENDBLK
  5
DB
  8
0
  0
BLOCK
  8
0
  2
DC_GROUP_49
 70
     0
 10
0.0
 20
0.0
 30
0.0
  3
DC_GROUP_49
  1

  0
LINE
  5
25A
  8
LAYER0001
  6
CONTINUOUS
 62
     7
 10
141.504823674771
 20
1.899351672217597
 30
0.0
 11
140.9689241398734
 21
-0.1006467354130649
 31
0.0
  0
LINE
  5
25B
  8
LAYER0001
  6
CONTINUOUS
 62
     7
 10
140.9689241398734
 20
-0.1006467354130649
 30
0.0
 11
140.4330246049758
 21
1.899351672217597
 31
0.0
  0
LINE
  5
25C
  8
LAYER0001
  6
CONTINUOUS
 62
     7
 10
140.9689241398734
 20
-0.1006467354130649
 30
0.0
 11
140.9689241398734
 21
1.899351672217597
 31
0.0
  0
ENDBLK
  5
DE
  8
0
  0
BLOCK
  8
0
  2
DC_GROUP_50
 70
     0
 10
0.0
 20
0.0
 30
0.0
  3
DC_GROUP_50
  1

  0
LINE
  5
25D
  8
LAYER0001
  6
CONTINUOUS
 62
     7
 10
178.0885768498344
 20
56.14933800579787
 30
0.0
 11
149.9689241398734
 21
56.14933800579787
 31
0.0
  0
LINE
  5
25E
  8
LAYER0001
  6
CONTINUOUS
 62
     7
 10
178.0885768498344
 20
6.149338005797873
 30
0.0
 11
149.9689241398734
 21
6.149338005797873
 31
0.0
  0
LINE
  5
25F
  8
LAYER0001
  6
CONTINUOUS
 62
     7
 10
150.9689241398734
 20
56.14933800579787
 30
0.0
 11
150.9689241398734
 21
6.149338005797873
 31
0.0
  0
INSERT
  5
260
  8
LAYER0001
  6
CONTINUOUS
  2
DC_GROUP_51
 10
0.0
 20
0.0
 30
0.0
  0
INSERT
  5
261
  8
LAYER0001
  6
CONTINUOUS
  2
DC_GROUP_52
 10
0.0
 20
0.0
 30
0.0
  0
TEXT
  5
262
  8
LAYER0001
 62
     7
 10
149.3689241398734
 20
23.14933801771879
 30
0.0
 40
4.0
  1
φ50
 50
90.0
 41
0.6093750000000009
  7
FDASTYLE1
 72
     5
 11
149.3689241398734
 21
30.9493380177188
 31
0.0
  0
TEXT
  5
263
  8
LAYER0001
 62
     7
 10
147.1689241398734
 20
33.74933801771881
 30
0.0
 40
2.2
  1
+0.5
 50
90.0
 41
0.657142857142855
  7
FDASTYLE1
 72
     5
 11
147.1689241398734
 21
39.53219516057594
 31
0.0
  0
TEXT
  5
264
  8
LAYER0001
 62
     7
 10
149.5689241398734
 20
33.74933801771881
 30
0.0
 40
2.2
  1
 0
 50
90.0
 41
0.2666666666666696
  7
FDASTYLE1
 72
     5
 11
149.5689241398734
 21
34.92267135105216
 31
0.0
  0
ENDBLK
  5
E1
  8
0
  0
BLOCK
  8
0
  2
DC_GROUP_51
 70
     0
 10
0.0
 20
0.0
 30
0.0
  3
DC_GROUP_51
  1

  0
LINE
  5
265
  8
LAYER0001
  6
CONTINUOUS
 62
     7
 10
150.4330246049758
 20
54.14933959816721
 30
0.0
 11
150.9689241398734
 21
56.14933800579787
 31
0.0
  0
LINE
  5
266
  8
LAYER0001
  6
CONTINUOUS
 62
     7
 10
150.9689241398734
 20
56.14933800579787
 30
0.0
 11
151.504823674771
 21
54.14933959816721
 31
0.0
  0
LINE
  5
267
  8
LAYER0001
  6
CONTINUOUS
 62
     7
 10
150.9689241398734
 20
56.14933800579787
 30
0.0
 11
150.9689241398734
 21
54.14933959816721
 31
0.0
  0
ENDBLK
  5
E4
  8
0
  0
BLOCK
  8
0
  2
DC_GROUP_52
 70
     0
 10
0.0
 20
0.0
 30
0.0
  3
DC_GROUP_52
  1

  0
LINE
  5
268
  8
LAYER0001
  6
CONTINUOUS
 62
     7
 10
151.504823674771
 20
8.149336413428536
 30
0.0
 11
150.9689241398734
 21
6.149338005797873
 31
0.0
  0
LINE
  5
269
  8
LAYER0001
  6
CONTINUOUS
 62
     7
 10
150.9689241398734
 20
6.149338005797873
 30
0.0
 11
150.4330246049758
 21
8.149336413428536
 31
0.0
  0
LINE
  5
26A
  8
LAYER0001
  6
CONTINUOUS
 62
     7
 10
150.9689241398734
 20
6.149338005797873
 30
0.0
 11
150.9689241398734
 21
8.149336413428536
 31
0.0
  0
ENDBLK
  5
E7
  8
0
  0
BLOCK
  8
0
  2
DC_GROUP_53
 70
     0
 10
0.0
 20
0.0
 30
0.0
  3
DC_GROUP_53
  1

  0
LINE
  5
26B
  8
LAYER0001
  6
CONTINUOUS
 62
     7
 10
166.5116945256156
 20
-125.0912874379431
 30
0.0
 11
257.0116945256156
 21
-125.0912874379431
 31
0.0
  0
LINE
  5
26C
  8
LAYER0001
  6
CONTINUOUS
 62
     7
 10
166.5116945256156
 20
-77.85741372772083
 30
0.0
 11
166.5116945256156
 21
-126.0912874379431
 31
0.0
  0
LINE
  5
26D
  8
LAYER0001
  6
CONTINUOUS
 62
     7
 10
257.0116945256156
 20
-76.8906543648076
 30
0.0
 11
257.0116945256156
 21
-126.0912874379431
 31
0.0
  0
INSERT
  5
26E
  8
LAYER0001
  6
CONTINUOUS
  2
DC_GROUP_54
 10
0.0
 20
0.0
 30
0.0
  0
INSERT
  5
26F
  8
LAYER0001
  6
CONTINUOUS
  2
DC_GROUP_55
 10
0.0
 20
0.0
 30
0.0
  0
TEXT
  5
270
  8
LAYER0001
 62
     7
 10
205.3616945256156
 20
-123.4912874379431
 30
0.0
 40
4.0
  1
90.5
 41
0.6095238095238109
  7
FDASTYLE1
 72
     5
 11
215.1140754779966
 21
-123.4912874379431
 31
0.0
  0
ENDBLK
  5
EA
  8
0
  0
BLOCK
  8
0
  2
DC_GROUP_54
 70
     0
 10
0.0
 20
0.0
 30
0.0
  3
DC_GROUP_54
  1

  0
LINE
  5
271
  8
LAYER0001
  6
CONTINUOUS
 62
     7
 10
168.5116929332463
 20
-125.6271869728407
 30
0.0
 11
166.5116945256156
 21
-125.0912874379431
 31
0.0
  0
LINE
  5
272
  8
LAYER0001
  6
CONTINUOUS
 62
     7
 10
166.5116945256156
 20
-125.0912874379431
 30
0.0
 11
168.5116929332463
 21
-124.5553879030455
 31
0.0
  0
LINE
  5
273
  8
LAYER0001
  6
CONTINUOUS
 62
     7
 10
166.5116945256156
 20
-125.0912874379431
 30
0.0
 11
168.5116929332463
 21
-125.0912874379431
 31
0.0
  0
ENDBLK
  5
ED
  8
0
  0
BLOCK
  8
0
  2
DC_GROUP_55
 70
     0
 10
0.0
 20
0.0
 30
0.0
  3
DC_GROUP_55
  1

  0
LINE
  5
274
  8
LAYER0001
  6
CONTINUOUS
 62
     7
 10
255.011696117985
 20
-124.5553879030455
 30
0.0
 11
257.0116945256156
 21
-125.0912874379431
 31
0.0
  0
LINE
  5
275
  8
LAYER0001
  6
CONTINUOUS
 62
     7
 10
257.0116945256156
 20
-125.0912874379431
 30
0.0
 11
255.011696117985
 21
-125.6271869728407
 31
0.0
  0
LINE
  5
276
  8
LAYER0001
  6
CONTINUOUS
 62
     7
 10
257.0116945256156
 20
-125.0912874379431
 30
0.0
 11
255.011696117985
 21
-125.0912874379431
 31
0.0
  0
ENDBLK
  5
F0
  8
0
  0
BLOCK
  8
0
  2
DC_GROUP_56
 70
     0
 10
0.0
 20
0.0
 30
0.0
  3
DC_GROUP_56
  1

  0
LINE
  5
277
  8
LAYER0001
  6
CONTINUOUS
 62
     7
 10
170.7116914738578
 20
-115.9358160779342
 30
0.0
 11
257.0116945256156
 21
-115.9358160779342
 31
0.0
  0
LINE
  5
278
  8
LAYER0001
  6
CONTINUOUS
 62
     7
 10
170.7116914738578
 20
-66.3906543648076
 30
0.0
 11
170.7116914738578
 21
-116.9358160779342
 31
0.0
  0
LINE
  5
279
  8
LAYER0001
  6
CONTINUOUS
 62
     7
 10
257.0116945256156
 20
-76.8906543648076
 30
0.0
 11
257.0116945256156
 21
-116.9358160779342
 31
0.0
  0
INSERT
  5
27A
  8
LAYER0001
  6
CONTINUOUS
  2
DC_GROUP_57
 10
0.0
 20
0.0
 30
0.0
  0
INSERT
  5
27B
  8
LAYER0001
  6
CONTINUOUS
  2
DC_GROUP_58
 10
0.0
 20
0.0
 30
0.0
  0
TEXT
  5
27C
  8
LAYER0001
 62
     7
 10
207.4616853703422
 20
-114.3358160779342
 30
0.0
 40
4.0
  1
86.3
 41
0.6095238095238109
  7
FDASTYLE1
 72
     5
 11
217.2140663227232
 21
-114.3358160779342
 31
0.0
  0
ENDBLK
  5
F3
  8
0
  0
BLOCK
  8
0
  2
DC_GROUP_57
 70
     0
 10
0.0
 20
0.0
 30
0.0
  3
DC_GROUP_57
  1

  0
LINE
  5
27D
  8
LAYER0001
  6
CONTINUOUS
 62
     7
 10
172.7116898814884
 20
-116.4717156128318
 30
0.0
 11
170.7116914738578
 21
-115.9358160779342
 31
0.0
  0
LINE
  5
27E
  8
LAYER0001
  6
CONTINUOUS
 62
     7
 10
170.7116914738578
 20
-115.9358160779342
 30
0.0
 11
172.7116898814885
 21
-115.3999165430366
 31
0.0
  0
LINE
  5
27F
  8
LAYER0001
  6
CONTINUOUS
 62
     7
 10
170.7116914738578
 20
-115.9358160779342
 30
0.0
 11
172.7116898814885
 21
-115.9358160779342
 31
0.0
  0
ENDBLK
  5
F6
  8
0
  0
BLOCK
  8
0
  2
DC_GROUP_58
 70
     0
 10
0.0
 20
0.0
 30
0.0
  3
DC_GROUP_58
  1

  0
LINE
  5
280
  8
LAYER0001
  6
CONTINUOUS
 62
     7
 10
255.011696117985
 20
-115.3999165430366
 30
0.0
 11
257.0116945256156
 21
-115.9358160779342
 31
0.0
  0
LINE
  5
281
  8
LAYER0001
  6
CONTINUOUS
 62
     7
 10
257.0116945256156
 20
-115.9358160779342
 30
0.0
 11
255.011696117985
 21
-116.4717156128318
 31
0.0
  0
LINE
  5
282
  8
LAYER0001
  6
CONTINUOUS
 62
     7
 10
257.0116945256156
 20
-115.9358160779342
 30
0.0
 11
255.011696117985
 21
-115.9358160779342
 31
0.0
  0
ENDBLK
  5
F9
  8
0
  0
BLOCK
  8
0
  2
DC_GROUP_59
 70
     0
 10
0.0
 20
0.0
 30
0.0
  3
DC_GROUP_59
  1

  0
LINE
  5
283
  8
LAYER0001
  6
CONTINUOUS
 62
     7
 10
166.5116945256156
 20
-115.9358160779342
 30
0.0
 11
170.7116914738578
 21
-115.9358160779342
 31
0.0
  0
LINE
  5
284
  8
LAYER0001
  6
CONTINUOUS
 62
     7
 10
170.7116914738578
 20
-66.3906543648076
 30
0.0
 11
170.7116914738578
 21
-116.9358160779342
 31
0.0
  0
LINE
  5
285
  8
LAYER0001
  6
CONTINUOUS
 62
     7
 10
152.3604241261472
 20
-115.9358160779342
 30
0.0
 11
166.5116945256156
 21
-115.9358160779342
 31
0.0
  0
LINE
  5
286
  8
LAYER0001
  6
CONTINUOUS
 62
     7
 10
175.7116914738578
 20
-115.9358160779342
 30
0.0
 11
170.7116914738578
 21
-115.9358160779342
 31
0.0
  0
INSERT
  5
287
  8
LAYER0001
  6
CONTINUOUS
  2
DC_GROUP_60
 10
0.0
 20
0.0
 30
0.0
  0
INSERT
  5
288
  8
LAYER0001
  6
CONTINUOUS
  2
DC_GROUP_61
 10
0.0
 20
0.0
 30
0.0
  0
TEXT
  5
289
  8
LAYER0001
 62
     7
 10
153.3604241261472
 20
-114.9358160779342
 30
0.0
 40
4.0
  1
4.2
 41
0.5587301587301591
  7
FDASTYLE1
 72
     5
 11
160.0651860309091
 21
-114.9358160779342
 31
0.0
  0
ENDBLK
  5
FC
  8
0
  0
BLOCK
  8
0
  2
DC_GROUP_60
 70
     0
 10
0.0
 20
0.0
 30
0.0
  3
DC_GROUP_60
  1

  0
LINE
  5
28A
  8
LAYER0001
  6
CONTINUOUS
 62
     7
 10
164.5116961179849
 20
-115.3999165430366
 30
0.0
 11
166.5116945256156
 21
-115.9358160779342
 31
0.0
  0
LINE
  5
28B
  8
LAYER0001
  6
CONTINUOUS
 62
     7
 10
166.5116945256156
 20
-115.9358160779342
 30
0.0
 11
164.5116961179849
 21
-116.4717156128318
 31
0.0
  0
LINE
  5
28C
  8
LAYER0001
  6
CONTINUOUS
 62
     7
 10
166.5116945256156
 20
-115.9358160779342
 30
0.0
 11
164.5116961179849
 21
-115.9358160779342
 31
0.0
  0
ENDBLK
  5
FF
  8
0
  0
BLOCK
  8
0
  2
DC_GROUP_61
 70
     0
 10
0.0
 20
0.0
 30
0.0
  3
DC_GROUP_61
  1

  0
LINE
  5
28D
  8
LAYER0001
  6
CONTINUOUS
 62
     7
 10
172.7116898814884
 20
-116.4717156128318
 30
0.0
 11
170.7116914738578
 21
-115.9358160779342
 31
0.0
  0
LINE
  5
28E
  8
LAYER0001
  6
CONTINUOUS
 62
     7
 10
170.7116914738578
 20
-115.9358160779342
 30
0.0
 11
172.7116898814885
 21
-115.3999165430366
 31
0.0
  0
LINE
  5
28F
  8
LAYER0001
  6
CONTINUOUS
 62
     7
 10
170.7116914738578
 20
-115.9358160779342
 30
0.0
 11
172.7116898814885
 21
-115.9358160779342
 31
0.0
  0
ENDBLK
  5
102
  8
0
  0
BLOCK
  8
0
  2
DC_GROUP_62
 70
     0
 10
0.0
 20
0.0
 30
0.0
  3
DC_GROUP_62
  1

  0
LINE
  5
290
  8
LAYER0001
  6
CONTINUOUS
 62
     7
 10
504.2447267521781
 20
-88.66651221392868
 30
0.0
 11
504.2447267521781
 21
-82.45266699908494
 31
0.0
  0
LINE
  5
291
  8
LAYER0001
  6
CONTINUOUS
 62
     7
 10
522.2447114933891
 20
-88.66651221392868
 30
0.0
 11
522.2447114933891
 21
-82.45266699908494
 31
0.0
  0
LINE
  5
292
  8
LAYER0001
  6
CONTINUOUS
 62
     7
 10
504.2447267521781
 20
-83.45266699908494
 30
0.0
 11
522.2447114933891
 21
-83.45266699908494
 31
0.0
  0
INSERT
  5
293
  8
LAYER0001
  6
CONTINUOUS
  2
DC_GROUP_63
 10
0.0
 20
0.0
 30
0.0
  0
INSERT
  5
294
  8
LAYER0001
  6
CONTINUOUS
  2
DC_GROUP_64
 10
0.0
 20
0.0
 30
0.0
  0
TEXT
  5
295
  8
LAYER0001
 62
     7
 10
508.4773195256156
 20
-81.85266699908495
 30
0.0
 40
4.0
  1
φ18
 41
0.6093750000000053
  7
FDASTYLE1
 72
     5
 11
516.2773195256157
 21
-81.85266699908495
 31
0.0
  0
ENDBLK
  5
105
  8
0
  0
BLOCK
  8
0
  2
DC_GROUP_63
 70
     0
 10
0.0
 20
0.0
 30
0.0
  3
DC_GROUP_63
  1

  0
LINE
  5
296
  8
LAYER0001
  6
CONTINUOUS
 62
     7
 10
506.2447251598088
 20
-83.98856653398255
 30
0.0
 11
504.2447267521781
 21
-83.45266699908494
 31
0.0
  0
LINE
  5
297
  8
LAYER0001
  6
CONTINUOUS
 62
     7
 10
504.2447267521781
 20
-83.45266699908494
 30
0.0
 11
506.2447251598088
 21
-82.91676746418733
 31
0.0
  0
LINE
  5
298
  8
LAYER0001
  6
CONTINUOUS
 62
     7
 10
504.2447267521781
 20
-83.45266699908494
 30
0.0
 11
506.2447251598088
 21
-83.45266699908494
 31
0.0
  0
ENDBLK
  5
108
  8
0
  0
BLOCK
  8
0
  2
DC_GROUP_64
 70
     0
 10
0.0
 20
0.0
 30
0.0
  3
DC_GROUP_64
  1

  0
LINE
  5
299
  8
LAYER0001
  6
CONTINUOUS
 62
     7
 10
520.2447130857585
 20
-82.91676746418733
 30
0.0
 11
522.2447114933891
 21
-83.45266699908494
 31
0.0
  0
LINE
  5
29A
  8
LAYER0001
  6
CONTINUOUS
 62
     7
 10
522.2447114933891
 20
-83.45266699908494
 30
0.0
 11
520.2447130857585
 21
-83.98856653398255
 31
0.0
  0
LINE
  5
29B
  8
LAYER0001
  6
CONTINUOUS
 62
     7
 10
522.2447114933891
 20
-83.45266699908494
 30
0.0
 11
520.2447130857585
 21
-83.45266699908494
 31
0.0
  0
ENDBLK
  5
10B
  8
0
  0
BLOCK
  8
0
  2
DC_GROUP_65
 70
     0
 10
0.0
 20
0.0
 30
0.0
  3
DC_GROUP_65
  1

  0
LINE
  5
29C
  8
LAYER0001
  6
CONTINUOUS
 62
     7
 10
455.7447191227836
 20
-78.89066199420213
 30
0.0
 11
455.7447191227836
 21
-109.0128934395146
 31
0.0
  0
LINE
  5
29D
  8
LAYER0001
  6
CONTINUOUS
 62
     7
 10
490.7447114933891
 20
-78.89066199420213
 30
0.0
 11
490.7447114933891
 21
-109.0128934395146
 31
0.0
  0
LINE
  5
29E
  8
LAYER0001
  6
CONTINUOUS
 62
     7
 10
455.7447191227836
 20
-108.0128934395146
 30
0.0
 11
490.7447114933891
 21
-108.0128934395146
 31
0.0
  0
INSERT
  5
29F
  8
LAYER0001
  6
CONTINUOUS
  2
DC_GROUP_66
 10
0.0
 20
0.0
 30
0.0
  0
INSERT
  5
2A0
  8
LAYER0001
  6
CONTINUOUS
  2
DC_GROUP_67
 10
0.0
 20
0.0
 30
0.0
  0
TEXT
  5
2A1
  8
LAYER0001
 62
     7
 10
470.0447191227836
 20
-106.4128934395146
 30
0.0
 40
4.0
  1
35
 41
0.6476190476190453
  7
FDASTYLE1
 72
     5
 11
475.225671503736
 21
-106.4128934395146
 31
0.0
  0
ENDBLK
  5
10E
  8
0
  0
BLOCK
  8
0
  2
DC_GROUP_66
 70
     0
 10
0.0
 20
0.0
 30
0.0
  3
DC_GROUP_66
  1

  0
LINE
  5
2A2
  8
LAYER0001
  6
CONTINUOUS
 62
     7
 10
457.7447175304143
 20
-108.5487929744122
 30
0.0
 11
455.7447191227836
 21
-108.0128934395146
 31
0.0
  0
LINE
  5
2A3
  8
LAYER0001
  6
CONTINUOUS
 62
     7
 10
455.7447191227836
 20
-108.0128934395146
 30
0.0
 11
457.7447175304143
 21
-107.476993904617
 31
0.0
  0
LINE
  5
2A4
  8
LAYER0001
  6
CONTINUOUS
 62
     7
 10
455.7447191227836
 20
-108.0128934395146
 30
0.0
 11
457.7447175304143
 21
-108.0128934395146
 31
0.0
  0
ENDBLK
  5
111
  8
0
  0
BLOCK
  8
0
  2
DC_GROUP_67
 70
     0
 10
0.0
 20
0.0
 30
0.0
  3
DC_GROUP_67
  1

  0
LINE
  5
2A5
  8
LAYER0001
  6
CONTINUOUS
 62
     7
 10
488.7447130857584
 20
-107.476993904617
 30
0.0
 11
490.7447114933891
 21
-108.0128934395146
 31
0.0
  0
LINE
  5
2A6
  8
LAYER0001
  6
CONTINUOUS
 62
     7
 10
490.7447114933891
 20
-108.0128934395146
 30
0.0
 11
488.7447130857584
 21
-108.5487929744122
 31
0.0
  0
LINE
  5
2A7
  8
LAYER0001
  6
CONTINUOUS
 62
     7
 10
490.7447114933891
 20
-108.0128934395146
 30
0.0
 11
488.7447130857584
 21
-108.0128934395146
 31
0.0
  0
ENDBLK
  5
114
  8
0
  0
BLOCK
  8
0
  2
DC_GROUP_68
 70
     0
 10
0.0
 20
0.0
 30
0.0
  3
DC_GROUP_68
  1

  0
LINE
  5
2A8
  8
LAYER0001
  6
CONTINUOUS
 62
     7
 10
466.2447191227836
 20
-78.89066199420213
 30
0.0
 11
466.2447191227836
 21
-99.01289343951463
 31
0.0
  0
LINE
  5
2A9
  8
LAYER0001
  6
CONTINUOUS
 62
     7
 10
480.2447191227836
 20
-78.89066199420213
 30
0.0
 11
480.2447191227836
 21
-99.01289343951463
 31
0.0
  0
LINE
  5
2AA
  8
LAYER0001
  6
CONTINUOUS
 62
     7
 10
466.2447191227836
 20
-98.01289343951463
 30
0.0
 11
480.2447191227836
 21
-98.01289343951463
 31
0.0
  0
INSERT
  5
2AB
  8
LAYER0001
  6
CONTINUOUS
  2
DC_GROUP_69
 10
0.0
 20
0.0
 30
0.0
  0
INSERT
  5
2AC
  8
LAYER0001
  6
CONTINUOUS
  2
DC_GROUP_70
 10
0.0
 20
0.0
 30
0.0
  0
TEXT
  5
2AD
  8
LAYER0001
 62
     7
 10
466.8447191227836
 20
-96.41289343951463
 30
0.0
 40
4.0
  1
14H8
 41
0.6952380952380963
  7
FDASTYLE1
 72
     5
 11
477.9685286465931
 21
-96.41289343951463
 31
0.0
  0
ENDBLK
  5
117
  8
0
  0
BLOCK
  8
0
  2
DC_GROUP_69
 70
     0
 10
0.0
 20
0.0
 30
0.0
  3
DC_GROUP_69
  1

  0
LINE
  5
2AE
  8
LAYER0001
  6
CONTINUOUS
 62
     7
 10
468.2447175304143
 20
-98.54879297441225
 30
0.0
 11
466.2447191227836
 21
-98.01289343951463
 31
0.0
  0
LINE
  5
2AF
  8
LAYER0001
  6
CONTINUOUS
 62
     7
 10
466.2447191227836
 20
-98.01289343951463
 30
0.0
 11
468.2447175304143
 21
-97.47699390461702
 31
0.0
  0
LINE
  5
2B0
  8
LAYER0001
  6
CONTINUOUS
 62
     7
 10
466.2447191227836
 20
-98.01289343951463
 30
0.0
 11
468.2447175304143
 21
-98.01289343951463
 31
0.0
  0
ENDBLK
  5
11A
  8
0
  0
BLOCK
  8
0
  2
DC_GROUP_70
 70
     0
 10
0.0
 20
0.0
 30
0.0
  3
DC_GROUP_70
  1

  0
LINE
  5
2B1
  8
LAYER0001
  6
CONTINUOUS
 62
     7
 10
478.2447207151529
 20
-97.47699390461702
 30
0.0
 11
480.2447191227836
 21
-98.01289343951463
 31
0.0
  0
LINE
  5
2B2
  8
LAYER0001
  6
CONTINUOUS
 62
     7
 10
480.2447191227836
 20
-98.01289343951463
 30
0.0
 11
478.2447207151529
 21
-98.54879297441225
 31
0.0
  0
LINE
  5
2B3
  8
LAYER0001
  6
CONTINUOUS
 62
     7
 10
480.2447191227836
 20
-98.01289343951463
 30
0.0
 11
478.2447207151529
 21
-98.01289343951463
 31
0.0
  0
ENDBLK
  5
11D
  8
0
  0
BLOCK
  8
0
  2
DC_GROUP_71
 70
     0
 10
0.0
 20
0.0
 30
0.0
  3
DC_GROUP_71
  1

  0
LINE
  5
2B4
  8
LAYER0001
  6
CONTINUOUS
 62
     7
 10
433.2447191227836
 20
157.4697678338181
 30
0.0
 11
473.2447191227836
 21
157.4697678338181
 31
0.0
  0
LINE
  5
2B5
  8
LAYER0001
  6
CONTINUOUS
 62
     7
 10
433.2447191227836
 20
123.4245217216182
 30
0.0
 11
433.2447191227836
 21
158.4697678338181
 31
0.0
  0
LINE
  5
2B6
  8
LAYER0001
  6
CONTINUOUS
 62
     7
 10
473.2447191227836
 20
147.1893380057979
 30
0.0
 11
473.2447191227836
 21
158.4697678338181
 31
0.0
  0
INSERT
  5
2B7
  8
LAYER0001
  6
CONTINUOUS
  2
DC_GROUP_72
 10
0.0
 20
0.0
 30
0.0
  0
INSERT
  5
2B8
  8
LAYER0001
  6
CONTINUOUS
  2
DC_GROUP_73
 10
0.0
 20
0.0
 30
0.0
  0
TEXT
  5
2B9
  8
LAYER0001
 62
     7
 10
450.0447191227836
 20
159.0697678338181
 30
0.0
 40
4.0
  1
40
 41
0.6476190476190453
  7
FDASTYLE1
 72
     5
 11
455.225671503736
 21
159.0697678338181
 31
0.0
  0
ENDBLK
  5
120
  8
0
  0
BLOCK
  8
0
  2
DC_GROUP_72
 70
     0
 10
0.0
 20
0.0
 30
0.0
  3
DC_GROUP_72
  1

  0
LINE
  5
2BA
  8
LAYER0001
  6
CONTINUOUS
 62
     7
 10
435.2447175304142
 20
156.9338682989205
 30
0.0
 11
433.2447191227836
 21
157.4697678338181
 31
0.0
  0
LINE
  5
2BB
  8
LAYER0001
  6
CONTINUOUS
 62
     7
 10
433.2447191227836
 20
157.4697678338181
 30
0.0
 11
435.2447175304142
 21
158.0056673687157
 31
0.0
  0
LINE
  5
2BC
  8
LAYER0001
  6
CONTINUOUS
 62
     7
 10
433.2447191227836
 20
157.4697678338181
 30
0.0
 11
435.2447175304142
 21
157.4697678338181
 31
0.0
  0
ENDBLK
  5
123
  8
0
  0
BLOCK
  8
0
  2
DC_GROUP_73
 70
     0
 10
0.0
 20
0.0
 30
0.0
  3
DC_GROUP_73
  1

  0
LINE
  5
2BD
  8
LAYER0001
  6
CONTINUOUS
 62
     7
 10
471.2447207151529
 20
158.0056673687157
 30
0.0
 11
473.2447191227836
 21
157.4697678338181
 31
0.0
  0
LINE
  5
2BE
  8
LAYER0001
  6
CONTINUOUS
 62
     7
 10
473.2447191227836
 20
157.4697678338181
 30
0.0
 11
471.2447207151529
 21
156.9338682989205
 31
0.0
  0
LINE
  5
2BF
  8
LAYER0001
  6
CONTINUOUS
 62
     7
 10
473.2447191227836
 20
157.4697678338181
 30
0.0
 11
471.2447207151529
 21
157.4697678338181
 31
0.0
  0
ENDBLK
  5
126
  8
0
  0
BLOCK
  8
0
  2
DC_GROUP_74
 70
     0
 10
0.0
 20
0.0
 30
0.0
  3
DC_GROUP_74
  1

  0
LINE
  5
2C0
  8
LAYER0001
  6
CONTINUOUS
 62
     7
 10
356.9254985417289
 20
31.14933800579787
 30
0.0
 11
347.7567907322807
 21
31.14933800579787
 31
0.0
  0
LINE
  5
2C1
  8
LAYER0001
  6
CONTINUOUS
 62
     7
 10
394.9254985417289
 20
105.6493380057979
 30
0.0
 11
347.7567907322807
 21
105.6493380057979
 31
0.0
  0
LINE
  5
2C2
  8
LAYER0001
  6
CONTINUOUS
 62
     7
 10
348.7567907322807
 20
31.14933800579787
 30
0.0
 11
348.7567907322807
 21
105.6493380057979
 31
0.0
  0
INSERT
  5
2C3
  8
LAYER0001
  6
CONTINUOUS
  2
DC_GROUP_75
 10
0.0
 20
0.0
 30
0.0
  0
INSERT
  5
2C4
  8
LAYER0001
  6
CONTINUOUS
  2
DC_GROUP_76
 10
0.0
 20
0.0
 30
0.0
  0
TEXT
  5
2C5
  8
LAYER0001
 62
     7
 10
347.1567907322806
 20
61.99933800579787
 30
0.0
 40
4.0
  1
74.5
 50
90.0
 41
0.6095238095238109
  7
FDASTYLE1
 72
     5
 11
347.1567907322806
 21
71.75171895817884
 31
0.0
  0
ENDBLK
  5
129
  8
0
  0
BLOCK
  8
0
  2
DC_GROUP_75
 70
     0
 10
0.0
 20
0.0
 30
0.0
  3
DC_GROUP_75
  1

  0
LINE
  5
2C6
  8
LAYER0001
  6
CONTINUOUS
 62
     7
 10
349.2926902671783
 20
33.14933641342853
 30
0.0
 11
348.7567907322807
 21
31.14933800579787
 31
0.0
  0
LINE
  5
2C7
  8
LAYER0001
  6
CONTINUOUS
 62
     7
 10
348.7567907322807
 20
31.14933800579787
 30
0.0
 11
348.220891197383
 21
33.14933641342853
 31
0.0
  0
LINE
  5
2C8
  8
LAYER0001
  6
CONTINUOUS
 62
     7
 10
348.7567907322807
 20
31.14933800579787
 30
0.0
 11
348.7567907322807
 21
33.14933641342853
 31
0.0
  0
ENDBLK
  5
12C
  8
0
  0
BLOCK
  8
0
  2
DC_GROUP_76
 70
     0
 10
0.0
 20
0.0
 30
0.0
  3
DC_GROUP_76
  1

  0
LINE
  5
2C9
  8
LAYER0001
  6
CONTINUOUS
 62
     7
 10
348.220891197383
 20
103.6493395981672
 30
0.0
 11
348.7567907322807
 21
105.6493380057979
 31
0.0
  0
LINE
  5
2CA
  8
LAYER0001
  6
CONTINUOUS
 62
     7
 10
348.7567907322807
 20
105.6493380057979
 30
0.0
 11
349.2926902671783
 21
103.6493395981672
 31
0.0
  0
LINE
  5
2CB
  8
LAYER0001
  6
CONTINUOUS
 62
     7
 10
348.7567907322807
 20
105.6493380057979
 30
0.0
 11
348.7567907322807
 21
103.6493395981672
 31
0.0
  0
ENDBLK
  5
12F
  8
0
  0
BLOCK
  8
0
  2
DC_GROUP_77
 70
     0
 10
0.0
 20
0.0
 30
0.0
  3
DC_GROUP_77
  1

  0
LINE
  5
2CC
  8
LAYER0001
  6
CONTINUOUS
 62
     7
 10
514.2008933264917
 20
5.230817058758603
 30
0.0
 11
550.3594705526431
 21
-60.35919459901002
 31
0.0
  0
LINE
  5
2CD
  8
LAYER0001
  6
CONTINUOUS
 62
     7
 10
550.3594728459281
 20
-60.35919547198533
 30
0.0
 11
597.217108343975
 21
-60.35919547198533
 31
0.0
  0
INSERT
  5
2CE
  8
LAYER0001
  6
CONTINUOUS
  2
DC_GROUP_78
 10
0.0
 20
0.0
 30
0.0
  0
TEXT
  5
2CF
  8
LAYER0001
 62
     7
 10
553.7885347355766
 20
-58.75918402789353
 30
0.0
 40
4.0
  1
4-M8×15 PCD90
 41
0.6326905417814503
  7
FDASTYLE1
 72
     5
 11
587.1945953416372
 21
-58.75918402789353
 31
0.0
  0
ENDBLK
  5
132
  8
0
  0
BLOCK
  8
0
  2
DC_GROUP_78
 70
     0
 10
0.0
 20
0.0
 30
0.0
  3
DC_GROUP_78
  1

  0
LINE
  5
2D0
  8
LAYER0001
  6
CONTINUOUS
 62
     7
 10
514.6971437278903
 20
3.220613715526795
 30
0.0
 11
514.2008933264917
 21
5.230817058758603
 31
0.0
  0
LINE
  5
2D1
  8
LAYER0001
  6
CONTINUOUS
 62
     7
 10
514.2008933264917
 20
5.230817058758603
 30
0.0
 11
515.6357626483439
 21
3.738057208268231
 31
0.0
  0
LINE
  5
2D2
  8
LAYER0001
  6
CONTINUOUS
 62
     7
 10
514.2008933264917
 20
5.230817058758603
 30
0.0
 11
515.1664531881171
 21
3.479335461897506
 31
0.0
  0
ENDBLK
  5
135
  8
0
  0
BLOCK
  8
0
  2
DC_GROUP_79
 70
     0
 10
0.0
 20
0.0
 30
0.0
  3
DC_GROUP_79
  1

  0
LINE
  5
2D3
  8
LAYER0001
  6
CONTINUOUS
 62
     7
 10
411.743304459328
 20
-11.48788783492283
 30
0.0
 11
375.9457162604314
 21
-97.6884793054703
 31
0.0
  0
LINE
  5
2D4
  8
LAYER0001
  6
CONTINUOUS
 62
     7
 10
375.9457155217094
 20
-97.68847632525682
 30
0.0
 11
343.6026187886161
 21
-97.68847632525682
 31
0.0
  0
INSERT
  5
2D5
  8
LAYER0001
  6
CONTINUOUS
  2
DC_GROUP_80
 10
0.0
 20
0.0
 30
0.0
  0
TEXT
  5
2D6
  8
LAYER0001
 62
     7
 10
345.4311883915824
 20
-96.08848395465135
 30
0.0
 40
4.0
  1
PCD133.35
 41
0.7026455026455033
  7
FDASTYLE1
 72
     5
 11
370.7264264868205
 21
-96.08848395465135
 31
0.0
  0
ENDBLK
  5
138
  8
0
  0
BLOCK
  8
0
  2
DC_GROUP_80
 70
     0
 10
0.0
 20
0.0
 30
0.0
  3
DC_GROUP_80
  1

  0
LINE
  5
2D7
  8
LAYER0001
  6
CONTINUOUS
 62
     7
 10
410.481334056811
 20
-13.12941536902016
 30
0.0
 11
411.743304459328
 21
-11.48788783492283
 31
0.0
  0
LINE
  5
2D8
  8
LAYER0001
  6
CONTINUOUS
 62
     7
 10
411.743304459328
 20
-11.48788783492283
 30
0.0
 11
411.4711728185191
 21
-13.54047798205384
 31
0.0
  0
LINE
  5
2D9
  8
LAYER0001
  6
CONTINUOUS
 62
     7
 10
411.743304459328
 20
-11.48788783492283
 30
0.0
 11
410.976253437665
 21
-13.334946675537
 31
0.0
  0
ENDBLK
  5
13B
  8
0
  0
BLOCK
  8
0
  2
DC_GROUP_81
 70
     0
 10
0.0
 20
0.0
 30
0.0
  3
DC_GROUP_81
  1

  0
LINE
  5
2DA
  8
LAYER0001
  6
CONTINUOUS
 62
     7
 10
547.0431078821032
 20
73.75685069270541
 30
0.0
 11
584.5911700081858
 21
95.43524817894958
 31
0.0
  0
LINE
  5
2DB
  8
LAYER0001
  6
CONTINUOUS
 62
     7
 10
473.2442995060844
 20
147.1893380057979
 30
0.0
 11
473.2442995060844
 21
159.721145867126
 31
0.0
  0
ARC
  5
2DC
  8
LAYER0001
  6
CONTINUOUS
 62
     7
 10
473.2447191227836
 20
31.14935326458694
 30
0.0
 40
126.2857971191406
 50
29.99999741973148
 51
89.99998201391065
  0
INSERT
  5
2DD
  8
LAYER0001
  6
CONTINUOUS
  2
DC_GROUP_82
 10
0.0
 20
0.0
 30
0.0
  0
INSERT
  5
2DE
  8
LAYER0001
  6
CONTINUOUS
  2
DC_GROUP_83
 10
0.0
 20
0.0
 30
0.0
  0
TEXT
  5
2DF
  8
LAYER0001
 62
     7
 10
533.030703373583
 20
144.301677870603
 30
0.0
 40
4.0
  1
60ﾟ
 50
-30.00000000000003
 41
0.4499999999999987
  7
FDASTYLE1
 72
     5
 11
537.707240554019
 21
141.601677870603
 31
0.0
  0
ENDBLK
  5
13E
  8
0
  0
BLOCK
  8
0
  2
DC_GROUP_82
 70
     0
 10
0.0
 20
0.0
 30
0.0
  3
DC_GROUP_82
  1

  0
LINE
  5
2E0
  8
LAYER0001
  6
CONTINUOUS
 62
     7
 10
582.0597137939449
 20
96.28793994119943
 30
0.0
 11
582.6114304087157
 21
94.292246898917
 31
0.0
  0
LINE
  5
2E1
  8
LAYER0001
  6
CONTINUOUS
 62
     7
 10
582.6114304087157
 20
94.292246898917
 30
0.0
 11
581.1357811467902
 21
95.7447072934915
 31
0.0
  0
LINE
  5
2E2
  8
LAYER0001
  6
CONTINUOUS
 62
     7
 10
582.6114304087157
 20
94.292246898917
 30
0.0
 11
581.5977474703675
 21
96.01632361734546
 31
0.0
  0
ENDBLK
  5
141
  8
0
  0
BLOCK
  8
0
  2
DC_GROUP_83
 70
     0
 10
0.0
 20
0.0
 30
0.0
  3
DC_GROUP_83
  1

  0
LINE
  5
2E3
  8
LAYER0001
  6
CONTINUOUS
 62
     7
 10
475.240450798591
 20
156.8834301167505
 30
0.0
 11
473.2447587659763
 21
157.4351503837214
 31
0.0
  0
LINE
  5
2E4
  8
LAYER0001
  6
CONTINUOUS
 62
     7
 10
473.2447587659763
 20
157.4351503837214
 30
0.0
 11
475.2489381328048
 21
157.9551955813797
 31
0.0
  0
LINE
  5
2E5
  8
LAYER0001
  6
CONTINUOUS
 62
     7
 10
473.2447587659763
 20
157.4351503837214
 30
0.0
 11
475.2446944656979
 21
157.4193128490651
 31
0.0
  0
ENDBLK
  5
144
  8
0
  0
BLOCK
  8
0
  2
DC_GROUP_84
 70
     0
 10
0.0
 20
0.0
 30
0.0
  3
DC_GROUP_84
  1

  0
LINE
  5
2E6
  8
LAYER0001
  6
CONTINUOUS
 62
     7
 10
589.2847114933891
 20
31.14930367352248
 30
0.0
 11
601.8165193547172
 21
31.14930367352248
 31
0.0
  0
LINE
  5
2E7
  8
LAYER0001
  6
CONTINUOUS
 62
     7
 10
547.2564442340041
 20
73.88001372733575
 30
0.0
 11
584.5911556900168
 21
95.43523712201171
 31
0.0
  0
ARC
  5
2E8
  8
LAYER0001
  6
CONTINUOUS
 62
     7
 10
473.2446886052055
 20
31.14933800579787
 30
0.0
 40
126.2858352661133
 50
0.0
 51
29.99999400463689
  0
INSERT
  5
2E9
  8
LAYER0001
  6
CONTINUOUS
  2
DC_GROUP_85
 10
0.0
 20
0.0
 30
0.0
  0
INSERT
  5
2EA
  8
LAYER0001
  6
CONTINUOUS
  2
DC_GROUP_86
 10
0.0
 20
0.0
 30
0.0
  0
TEXT
  5
2EB
  8
LAYER0001
 62
     7
 10
595.5305884497407
 20
68.88506547881741
 30
0.0
 40
4.0
  1
30ﾟ
 50
-75.00000000000003
 41
0.4499999999999961
  7
FDASTYLE1
 72
     5
 11
596.9282112932942
 21
63.66906601685648
 31
0.0
  0
ENDBLK
  5
147
  8
0
  0
BLOCK
  8
0
  2
DC_GROUP_85
 70
     0
 10
0.0
 20
0.0
 30
0.0
  3
DC_GROUP_85
  1

  0
LINE
  5
2EC
  8
LAYER0001
  6
CONTINUOUS
 62
     7
 10
600.0505697029158
 20
33.15351720813163
 30
0.0
 11
599.5305238713188
 21
31.14933800579787
 31
0.0
  0
LINE
  5
2ED
  8
LAYER0001
  6
CONTINUOUS
 62
     7
 10
599.5305238713188
 20
31.14933800579787
 30
0.0
 11
598.9788042356021
 21
33.14503021292633
 31
0.0
  0
LINE
  5
2EE
  8
LAYER0001
  6
CONTINUOUS
 62
     7
 10
599.5305238713188
 20
31.14933800579787
 30
0.0
 11
599.514686969259
 21
33.14927371052897
 31
0.0
  0
ENDBLK
  5
14A
  8
0
  0
BLOCK
  8
0
  2
DC_GROUP_86
 70
     0
 10
0.0
 20
0.0
 30
0.0
  3
DC_GROUP_86
  1

  0
LINE
  5
2EF
  8
LAYER0001
  6
CONTINUOUS
 62
     7
 10
583.1314793645483
 20
92.28806417306382
 30
0.0
 11
582.6114366909965
 21
94.29224419484672
 31
0.0
  0
LINE
  5
2F0
  8
LAYER0001
  6
CONTINUOUS
 62
     7
 10
582.6114366909965
 20
94.29224419484672
 30
0.0
 11
584.0638990390486
 21
92.81659685570378
 31
0.0
  0
LINE
  5
2F1
  8
LAYER0001
  6
CONTINUOUS
 62
     7
 10
582.6114366909965
 20
94.29224419484672
 30
0.0
 11
583.5976892017984
 21
92.55233051438378
 31
0.0
  0
ENDBLK
  5
14D
  8
0
  0
BLOCK
  8
0
  2
DC_GROUP_87
 70
     0
 10
0.0
 20
0.0
 30
0.0
  3
DC_GROUP_87
  1

  0
TEXT
  5
2F2
  8
LAYER0001
 62
     7
 10
142.8143466836917
 20
153.1522621593643
 30
0.0
 40
4.0
  1
MIN-3.3
 41
0.6693877551020394
  7
FDASTYLE1
 72
     5
 11
161.5572038265488
 21
153.1522621593643
 31
0.0
  0
ENDBLK
  5
150
  8
0
  0
BLOCK
  8
0
  2
DC_GROUP_88
 70
     0
 10
0.0
 20
0.0
 30
0.0
  3
DC_GROUP_88
  1

  0
TEXT
  5
2F3
  8
LAYER0001
 62
     7
 10
176.5360614997581
 20
-105.2811605053911
 30
0.0
 40
4.0
  1
MIN 25.7
 41
0.6571428571428575
  7
FDASTYLE1
 72
     5
 11
197.5646329283295
 21
-105.2811605053911
 31
0.0
  0
ENDBLK
  5
153
  8
0
  0
BLOCK
  8
0
  2
DC_GROUP_89
 70
     0
 10
0.0
 20
0.0
 30
0.0
  3
DC_GROUP_89
  1

  0
LINE
  5
2F4
  8
0
  6
CONTINUOUS
 62
     9
 10
179.6285768498344
 20
17.99958626238306
 30
0.0
 11
208.6285768498344
 21
17.99958626238306
 31
0.0
  0
LINE
  5
2F5
  8
0
  6
CONTINUOUS
 62
     9
 10
208.6285768498344
 20
17.99958626238306
 30
0.0
 11
220.6285768498344
 21
17.99958626238306
 31
0.0
  0
LINE
  5
2F6
  8
0
  6
CONTINUOUS
 62
     9
 10
220.6285768498344
 20
17.99958626238306
 30
0.0
 11
229.6285768498344
 21
17.99958626238306
 31
0.0
  0
INSERT
  5
2F7
  8
0
  6
CONTINUOUS
  2
DC_GROUP_90
 10
0.0
 20
0.0
 30
0.0
  0
INSERT
  5
2F8
  8
0
  6
CONTINUOUS
  2
DC_GROUP_91
 10
0.0
 20
0.0
 30
0.0
  0
INSERT
  5
2F9
  8
0
  6
CONTINUOUS
  2
DC_GROUP_92
 10
0.0
 20
0.0
 30
0.0
  0
INSERT
  5
2FA
  8
0
  6
CONTINUOUS
  2
DC_GROUP_93
 10
0.0
 20
0.0
 30
0.0
  0
INSERT
  5
2FB
  8
0
  6
CONTINUOUS
  2
DC_GROUP_94
 10
0.0
 20
0.0
 30
0.0
  0
INSERT
  5
2FC
  8
0
  6
CONTINUOUS
  2
DC_GROUP_95
 10
0.0
 20
0.0
 30
0.0
  0
TEXT
  5
2FD
  8
0
 62
     7
 10
190.9285768498344
 20
18.99958626238306
 30
0.0
 40
4.0
  1
29
 41
0.6285714285714263
  7
FDASTYLE1
 72
     5
 11
195.9571482784058
 21
18.99958626238306
 31
0.0
  0
TEXT
  5
2FE
  8
0
 62
     7
 10
211.4285768498344
 20
18.99958626238306
 30
0.0
 40
4.0
  1
12
 41
0.5904761904761884
  7
FDASTYLE1
 72
     5
 11
216.1523863736439
 21
18.99958626238306
 31
0.0
  0
TEXT
  5
2FF
  8
0
 62
     7
 10
223.5285768498344
 20
18.99958626238306
 30
0.0
 40
4.0
  1
9
 41
0.4952380952380935
  7
FDASTYLE1
 72
     5
 11
225.5095292307868
 21
18.99958626238306
 31
0.0
  0
ENDBLK
  5
156
  8
0
  0
BLOCK
  8
0
  2
DC_GROUP_90
 70
     0
 10
0.0
 20
0.0
 30
0.0
  3
DC_GROUP_90
  1

  0
LINE
  5
300
  8
0
  6
CONTINUOUS
 62
     9
 10
181.6285752574651
 20
17.46368672748545
 30
0.0
 11
179.6285768498344
 21
17.99958626238306
 31
0.0
  0
LINE
  5
301
  8
0
  6
CONTINUOUS
 62
     9
 10
179.6285768498344
 20
17.99958626238306
 30
0.0
 11
181.6285752574651
 21
18.53548579728066
 31
0.0
  0
LINE
  5
302
  8
0
  6
CONTINUOUS
 62
     9
 10
179.6285768498344
 20
17.99958626238306
 30
0.0
 11
181.6285752574651
 21
17.99958626238306
 31
0.0
  0
ENDBLK
  5
159
  8
0
  0
BLOCK
  8
0
  2
DC_GROUP_91
 70
     0
 10
0.0
 20
0.0
 30
0.0
  3
DC_GROUP_91
  1

  0
LINE
  5
303
  8
0
  6
CONTINUOUS
 62
     9
 10
206.6285784422038
 20
18.53548579728066
 30
0.0
 11
208.6285768498344
 21
17.99958626238306
 31
0.0
  0
LINE
  5
304
  8
0
  6
CONTINUOUS
 62
     9
 10
208.6285768498344
 20
17.99958626238306
 30
0.0
 11
206.6285784422038
 21
17.46368672748545
 31
0.0
  0
LINE
  5
305
  8
0
  6
CONTINUOUS
 62
     9
 10
208.6285768498344
 20
17.99958626238306
 30
0.0
 11
206.6285784422038
 21
17.99958626238306
 31
0.0
  0
ENDBLK
  5
15C
  8
0
  0
BLOCK
  8
0
  2
DC_GROUP_92
 70
     0
 10
0.0
 20
0.0
 30
0.0
  3
DC_GROUP_92
  1

  0
LINE
  5
306
  8
0
  6
CONTINUOUS
 62
     9
 10
210.6285752574651
 20
17.46368672748545
 30
0.0
 11
208.6285768498344
 21
17.99958626238306
 31
0.0
  0
LINE
  5
307
  8
0
  6
CONTINUOUS
 62
     9
 10
208.6285768498344
 20
17.99958626238306
 30
0.0
 11
210.6285752574651
 21
18.53548579728066
 31
0.0
  0
LINE
  5
308
  8
0
  6
CONTINUOUS
 62
     9
 10
208.6285768498344
 20
17.99958626238306
 30
0.0
 11
210.6285752574651
 21
17.99958626238306
 31
0.0
  0
ENDBLK
  5
15F
  8
0
  0
BLOCK
  8
0
  2
DC_GROUP_93
 70
     0
 10
0.0
 20
0.0
 30
0.0
  3
DC_GROUP_93
  1

  0
LINE
  5
309
  8
0
  6
CONTINUOUS
 62
     9
 10
218.6285784422037
 20
18.53548579728066
 30
0.0
 11
220.6285768498344
 21
17.99958626238306
 31
0.0
  0
LINE
  5
30A
  8
0
  6
CONTINUOUS
 62
     9
 10
220.6285768498344
 20
17.99958626238306
 30
0.0
 11
218.6285784422037
 21
17.46368672748545
 31
0.0
  0
LINE
  5
30B
  8
0
  6
CONTINUOUS
 62
     9
 10
220.6285768498344
 20
17.99958626238306
 30
0.0
 11
218.6285784422037
 21
17.99958626238306
 31
0.0
  0
ENDBLK
  5
162
  8
0
  0
BLOCK
  8
0
  2
DC_GROUP_94
 70
     0
 10
0.0
 20
0.0
 30
0.0
  3
DC_GROUP_94
  1

  0
LINE
  5
30C
  8
0
  6
CONTINUOUS
 62
     9
 10
222.6285752574651
 20
17.46368672748545
 30
0.0
 11
220.6285768498344
 21
17.99958626238306
 31
0.0
  0
LINE
  5
30D
  8
0
  6
CONTINUOUS
 62
     9
 10
220.6285768498344
 20
17.99958626238306
 30
0.0
 11
222.6285752574651
 21
18.53548579728066
 31
0.0
  0
LINE
  5
30E
  8
0
  6
CONTINUOUS
 62
     9
 10
220.6285768498344
 20
17.99958626238306
 30
0.0
 11
222.6285752574651
 21
17.99958626238306
 31
0.0
  0
ENDBLK
  5
165
  8
0
  0
BLOCK
  8
0
  2
DC_GROUP_95
 70
     0
 10
0.0
 20
0.0
 30
0.0
  3
DC_GROUP_95
  1

  0
LINE
  5
30F
  8
0
  6
CONTINUOUS
 62
     9
 10
227.6285784422037
 20
18.53548579728066
 30
0.0
 11
229.6285768498344
 21
17.99958626238306
 31
0.0
  0
LINE
  5
310
  8
0
  6
CONTINUOUS
 62
     9
 10
229.6285768498344
 20
17.99958626238306
 30
0.0
 11
227.6285784422037
 21
17.46368672748545
 31
0.0
  0
LINE
  5
311
  8
0
  6
CONTINUOUS
 62
     9
 10
229.6285768498344
 20
17.99958626238306
 30
0.0
 11
227.6285784422037
 21
17.99958626238306
 31
0.0
  0
ENDBLK
  5
168
  8
0
  0
BLOCK
  8
0
  2
DC_GROUP_96
 70
     0
 10
0.0
 20
0.0
 30
0.0
  3
DC_GROUP_96
  1

  0
LINE
  5
312
  8
0
  6
CONTINUOUS
 62
     9
 10
254.5116945256156
 20
17.99958626238306
 30
0.0
 11
257.0116945256156
 21
17.99958626238306
 31
0.0
  0
LINE
  5
313
  8
0
  6
CONTINUOUS
 62
     9
 10
240.9798445256156
 20
17.99958626238306
 30
0.0
 11
254.5116945256156
 21
17.99958626238306
 31
0.0
  0
LINE
  5
314
  8
0
  6
CONTINUOUS
 62
     9
 10
262.0116945256156
 20
17.99958626238306
 30
0.0
 11
257.0116945256156
 21
17.99958626238306
 31
0.0
  0
INSERT
  5
315
  8
0
  6
DASHDOT2
  2
DC_GROUP_97
 10
0.0
 20
0.0
 30
0.0
  0
INSERT
  5
316
  8
0
  6
CONTINUOUS
  2
DC_GROUP_98
 10
0.0
 20
0.0
 30
0.0
  0
TEXT
  5
317
  8
0
 62
     7
 10
241.9798445256156
 20
18.99958626238306
 30
0.0
 40
4.0
  1
2.5
 41
0.5587301587301568
  7
FDASTYLE1
 72
     5
 11
248.6846064303775
 21
18.99958626238306
 31
0.0
  0
ENDBLK
  5
16B
  8
0
  0
BLOCK
  8
0
  2
DC_GROUP_97
 70
     0
 10
0.0
 20
0.0
 30
0.0
  3
DC_GROUP_97
  1

  0
LINE
  5
318
  8
0
  6
CONTINUOUS
 62
     9
 10
252.5116961179849
 20
18.53548579728066
 30
0.0
 11
254.5116945256156
 21
17.99958626238306
 31
0.0
  0
LINE
  5
319
  8
0
  6
CONTINUOUS
 62
     9
 10
254.5116945256156
 20
17.99958626238306
 30
0.0
 11
252.5116961179849
 21
17.46368672748545
 31
0.0
  0
LINE
  5
31A
  8
0
  6
CONTINUOUS
 62
     9
 10
254.5116945256156
 20
17.99958626238306
 30
0.0
 11
252.5116961179849
 21
17.99958626238306
 31
0.0
  0
ENDBLK
  5
16E
  8
0
  0
BLOCK
  8
0
  2
DC_GROUP_98
 70
     0
 10
0.0
 20
0.0
 30
0.0
  3
DC_GROUP_98
  1

  0
LINE
  5
31B
  8
0
  6
CONTINUOUS
 62
     9
 10
259.0116929332463
 20
17.46368672748545
 30
0.0
 11
257.0116945256156
 21
17.99958626238306
 31
0.0
  0
LINE
  5
31C
  8
0
  6
CONTINUOUS
 62
     9
 10
257.0116945256156
 20
17.99958626238306
 30
0.0
 11
259.0116929332463
 21
18.53548579728066
 31
0.0
  0
LINE
  5
31D
  8
0
  6
CONTINUOUS
 62
     9
 10
257.0116945256156
 20
17.99958626238306
 30
0.0
 11
259.0116929332463
 21
17.99958626238306
 31
0.0
  0
ENDBLK
  5
171
  8
0
  0
BLOCK
  8
0
  2
DC_GROUP_99
 70
     0
 10
0.0
 20
0.0
 30
0.0
  3
DC_GROUP_99
  1

  0
LINE
  5
31E
  8
0
  6
CONTINUOUS
 62
     7
 10
213.7989622040743
 20
-76.35066199420213
 30
0.0
 11
228.742075514618
 21
-91.39329402899919
 31
0.0
  0
LINE
  5
31F
  8
0
  6
CONTINUOUS
 62
     7
 10
228.742075514618
 20
-91.39329402899919
 30
0.0
 11
244.742075514618
 21
-91.39329402899919
 31
0.0
  0
INSERT
  5
320
  8
0
  6
CONTINUOUS
  2
DC_GROUP_100
 10
0.0
 20
0.0
 30
0.0
  0
TEXT
  5
321
  8
0
 62
     7
 10
228.742075514618
 20
-91.39329402899919
 30
0.0
 40
4.0
  1
M8×16
 41
0.6213017751479295
  7
FDASTYLE1
 72
     5
 11
241.6651524376949
 21
-91.39329402899919
 31
0.0
  0
ENDBLK
  5
174
  8
0
  0
BLOCK
  8
0
  2
DC_GROUP_100
 70
     0
 10
0.0
 20
0.0
 30
0.0
  3
DC_GROUP_100
  1

  0
LINE
  5
322
  8
0
  6
CONTINUOUS
 62
     7
 10
214.828279546556
 20
-78.14723866957533
 30
0.0
 11
213.7989622040743
 21
-76.35066199420213
 31
0.0
  0
LINE
  5
323
  8
0
  6
CONTINUOUS
 62
     7
 10
213.7989622040743
 20
-76.35066199420213
 30
0.0
 11
215.5886670406367
 21
-77.39188173086383
 31
0.0
  0
LINE
  5
324
  8
0
  6
CONTINUOUS
 62
     7
 10
213.7989622040743
 20
-76.35066199420213
 30
0.0
 11
215.2084732935963
 21
-77.76956020021959
 31
0.0
  0
ENDBLK
  5
177
  8
0
  0
BLOCK
  8
0
  2
DC_GROUP_101
 70
     0
 10
0.0
 20
0.0
 30
0.0
  3
DC_GROUP_101
  1

  0
LINE
  5
325
  8
0
  6
CONTINUOUS
 62
     9
 10
213.7116914738578
 20
-80.36845786204833
 30
0.0
 11
213.7116914738578
 21
-88.48451523195543
 31
0.0
  0
LINE
  5
326
  8
0
  6
CONTINUOUS
 62
     9
 10
170.7116914738578
 20
-64.85066199420213
 30
0.0
 11
170.7116914738578
 21
-88.48451523195543
 31
0.0
  0
LINE
  5
327
  8
0
  6
CONTINUOUS
 62
     9
 10
170.7116914738578
 20
-87.48451523195543
 30
0.0
 11
213.7116914738578
 21
-87.48451523195543
 31
0.0
  0
INSERT
  5
328
  8
0
  6
CONTINUOUS
  2
DC_GROUP_102
 10
0.0
 20
0.0
 30
0.0
  0
INSERT
  5
329
  8
0
  6
CONTINUOUS
  2
DC_GROUP_103
 10
0.0
 20
0.0
 30
0.0
  0
TEXT
  5
32A
  8
0
 62
     7
 10
189.0116914738578
 20
-86.48451523195543
 30
0.0
 40
4.0
  1
43
 41
0.6476190476190453
  7
FDASTYLE1
 72
     5
 11
194.1926438548101
 21
-86.48451523195543
 31
0.0
  0
ENDBLK
  5
17A
  8
0
  0
BLOCK
  8
0
  2
DC_GROUP_102
 70
     0
 10
0.0
 20
0.0
 30
0.0
  3
DC_GROUP_102
  1

  0
LINE
  5
32B
  8
0
  6
CONTINUOUS
 62
     9
 10
172.7116898814885
 20
-88.02041476685304
 30
0.0
 11
170.7116914738578
 21
-87.48451523195543
 31
0.0
  0
LINE
  5
32C
  8
0
  6
CONTINUOUS
 62
     9
 10
170.7116914738578
 20
-87.48451523195543
 30
0.0
 11
172.7116898814885
 21
-86.94861569705782
 31
0.0
  0
LINE
  5
32D
  8
0
  6
CONTINUOUS
 62
     9
 10
170.7116914738578
 20
-87.48451523195543
 30
0.0
 11
172.7116898814885
 21
-87.48451523195543
 31
0.0
  0
ENDBLK
  5
17D
  8
0
  0
BLOCK
  8
0
  2
DC_GROUP_103
 70
     0
 10
0.0
 20
0.0
 30
0.0
  3
DC_GROUP_103
  1

  0
LINE
  5
32E
  8
0
  6
CONTINUOUS
 62
     9
 10
211.7116930662272
 20
-86.94861569705782
 30
0.0
 11
213.7116914738578
 21
-87.48451523195543
 31
0.0
  0
LINE
  5
32F
  8
0
  6
CONTINUOUS
 62
     9
 10
213.7116914738578
 20
-87.48451523195543
 30
0.0
 11
211.7116930662272
 21
-88.02041476685304
 31
0.0
  0
LINE
  5
330
  8
0
  6
CONTINUOUS
 62
     9
 10
213.7116914738578
 20
-87.48451523195543
 30
0.0
 11
211.7116930662272
 21
-87.48451523195543
 31
0.0
  0
ENDBLK
  5
180
  8
0
  0
BLOCK
  8
0
  2
DC_GROUP_104
 70
     0
 10
0.0
 20
0.0
 30
0.0
  3
DC_GROUP_104
  1

  0
LINE
  5
331
  8
0
  6
CONTINUOUS
 62
     3
 10
223.8906463394862
 20
-26.42099036138552
 30
0.0
 11
223.2453946695943
 21
-27.63068528608118
 31
0.0
  0
LINE
  5
332
  8
0
  6
CONTINUOUS
 62
     3
 10
223.2453946695943
 20
-27.63068528608118
 30
0.0
 11
222.6834207022987
 21
-28.8395950683356
 31
0.0
  0
LINE
  5
333
  8
0
  6
CONTINUOUS
 62
     3
 10
222.6834207022987
 20
-28.8395950683356
 30
0.0
 11
222.2880021401959
 21
-30.04693456570755
 31
0.0
  0
LINE
  5
334
  8
0
  6
CONTINUOUS
 62
     3
 10
222.2880021401959
 20
-30.04693456570755
 30
0.0
 11
222.1424166858822
 21
-31.2519186357558
 31
0.0
  0
LINE
  5
335
  8
0
  6
CONTINUOUS
 62
     3
 10
222.1424166858822
 20
-31.2519186357558
 30
0.0
 11
222.3188753415072
 21
-32.45386146703734
 31
0.0
  0
LINE
  5
336
  8
0
  6
CONTINUOUS
 62
     3
 10
222.3188753415072
 20
-32.45386146703734
 30
0.0
 11
222.7514261911057
 21
-33.6533173522067
 31
0.0
  0
LINE
  5
337
  8
0
  6
CONTINUOUS
 62
     3
 10
222.7514261911057
 20
-33.6533173522067
 30
0.0
 11
223.2802447275644
 21
-34.85168315286914
 31
0.0
  0
LINE
  5
338
  8
0
  6
CONTINUOUS
 62
     3
 10
223.2802447275644
 20
-34.85168315286914
 30
0.0
 11
223.7437147103499
 21
-36.05037181262919
 31
0.0
  0
LINE
  5
339
  8
0
  6
CONTINUOUS
 62
     3
 10
223.7437147103499
 20
-36.05037181262919
 30
0.0
 11
223.9856495527253
 21
-37.25074979907709
 31
0.0
  0
LINE
  5
33A
  8
0
  6
CONTINUOUS
 62
     3
 10
223.9856495527253
 20
-37.25074979907709
 30
0.0
 11
223.9544046017263
 21
-38.45328873593418
 31
0.0
  0
LINE
  5
33B
  8
0
  6
CONTINUOUS
 62
     3
 10
223.9544046017263
 20
-38.45328873593418
 30
0.0
 11
223.6926887713484
 21
-39.6576526120536
 31
0.0
  0
LINE
  5
33C
  8
0
  6
CONTINUOUS
 62
     3
 10
223.6926887713484
 20
-39.6576526120536
 30
0.0
 11
223.2465962374674
 21
-40.86347643958288
 31
0.0
  0
LINE
  5
33D
  8
0
  6
CONTINUOUS
 62
     3
 10
223.2465962374674
 20
-40.86347643958288
 30
0.0
 11
222.662221175959
 21
-42.07039523066954
 31
0.0
  0
LINE
  5
33E
  8
0
  6
CONTINUOUS
 62
     3
 10
222.662221175959
 20
-42.07039523066954
 30
0.0
 11
221.9856577626991
 21
-43.27804399746114
 31
0.0
  0
LINE
  5
33F
  8
0
  6
CONTINUOUS
 62
     3
 10
221.9856577626991
 20
-43.27804399746114
 30
0.0
 11
221.2630001735634
 21
-44.48605775210521
 31
0.0
  0
ENDBLK
  5
183
  8
0
  0
BLOCK
  8
0
  2
DC_GROUP_105
 70
     0
 10
0.0
 20
0.0
 30
0.0
  3
DC_GROUP_105
  1

  0
LINE
  5
340
  8
0
  6
CONTINUOUS
 62
     7
 10
558.2251066460302
 20
44.72843766456931
 30
0.0
 11
558.2251058150603
 21
40.22843194252341
 31
0.0
  0
LINE
  5
341
  8
0
  6
CONTINUOUS
 62
     7
 10
558.9750935046117
 20
43.97847080232717
 30
0.0
 11
558.2250981152703
 21
44.72846627899688
 31
0.0
  0
LINE
  5
342
  8
0
  6
CONTINUOUS
 62
     7
 10
557.4751331817336
 20
43.9783986045058
 30
0.0
 11
558.2251393215558
 21
44.72840490988171
 31
0.0
  0
LINE
  5
343
  8
0
  6
CONTINUOUS
 62
     7
 10
558.2251593743549
 20
40.22836892298857
 30
0.0
 11
558.9751655141771
 21
40.97837522836448
 31
0.0
  0
LINE
  5
344
  8
0
  6
CONTINUOUS
 62
     7
 10
558.225110665926
 20
40.22846333523103
 30
0.0
 11
557.4751044869917
 21
40.97846960149485
 31
0.0
  0
LINE
  5
345
  8
0
  6
CONTINUOUS
 62
     7
 10
550.7250846749294
 20
45.47845120886898
 30
0.0
 11
565.7250846749294
 21
45.47844843897288
 31
0.0
  0
LINE
  5
346
  8
0
  6
CONTINUOUS
 62
     7
 10
560.1008681449246
 20
51.00550499301323
 30
0.0
 11
559.1264421708052
 21
50.85117122776861
 31
0.0
  0
LINE
  5
347
  8
0
  6
CONTINUOUS
 62
     7
 10
560.1008940723236
 20
51.00551126146182
 30
0.0
 11
559.9465625176673
 21
51.97992210584908
 31
0.0
  0
LINE
  5
348
  8
0
  6
CONTINUOUS
 62
     7
 10
565.7250923043241
 20
45.47844963106437
 30
0.0
 11
565.7250936892723
 21
52.97845058473869
 31
0.0
  0
LINE
  5
349
  8
0
  6
CONTINUOUS
 62
     7
 10
550.7250851062017
 20
52.97844381789321
 30
0.0
 11
565.7250851062017
 21
52.97844104799711
 31
0.0
  0
LINE
  5
34A
  8
0
  6
CONTINUOUS
 62
     7
 10
550.7250818139055
 20
45.47844667891651
 30
0.0
 11
550.7250838913274
 21
56.72844572524219
 31
0.0
  0
LINE
  5
34B
  8
0
  6
CONTINUOUS
 62
     7
 10
550.7250853218388
 20
56.72844524840477
 30
0.0
 11
552.9750853218388
 21
56.72844483292035
 31
0.0
  0
LINE
  5
34C
  8
0
  6
CONTINUOUS
 62
     7
 10
552.9750932203267
 20
55.60343624985001
 30
0.0
 11
552.9750934280675
 21
56.72842862045548
 31
0.0
  0
LINE
  5
34D
  8
0
  6
CONTINUOUS
 62
     7
 10
552.9750851140965
 20
55.6034443560832
 30
0.0
 11
554.4750851140965
 21
55.60344407909359
 31
0.0
  0
LINE
  5
34E
  8
0
  6
CONTINUOUS
 62
     7
 10
554.4750763232858
 20
54.47844550960664
 30
0.0
 11
554.4750765310279
 21
55.60344550960664
 31
0.0
  0
LINE
  5
34F
  8
0
  6
CONTINUOUS
 62
     7
 10
554.4751001651415
 20
54.47843406551044
 30
0.0
 11
555.9751001651415
 21
54.47843378852083
 31
0.0
  0
LINE
  5
350
  8
0
  6
CONTINUOUS
 62
     7
 10
555.9750708010874
 20
52.97844547103658
 30
0.0
 11
555.975071078077
 21
54.478445232618
 31
0.0
  0
LINE
  5
351
  8
0
  6
CONTINUOUS
 62
     7
 10
557.4751224881284
 20
55.32868815472628
 30
0.0
 11
558.2251286279507
 21
56.0786944601022
 31
0.0
  0
LINE
  5
352
  8
0
  6
CONTINUOUS
 62
     7
 10
555.265463533996
 20
56.07870419086348
 30
0.0
 11
558.2250887949006
 21
56.07870364433985
 31
0.0
  0
LINE
  5
353
  8
0
  6
CONTINUOUS
 62
     7
 10
558.225099787598
 20
56.07873121545784
 30
0.0
 11
557.4751043982565
 21
56.82872669212755
 31
0.0
  0
ARC
  5
354
  8
0
  6
CONTINUOUS
 62
     7
 10
558.2447114933891
 20
49.14933800579787
 30
0.0
 40
2.625001907348633
 50
45.00008720528022
 51
339.9999394584169
  0
TEXT
  5
355
  8
0
 62
     7
 10
556.3452047085611
 20
41.52443861157258
 30
0.0
 40
2.5
  1
F
 50
89.99998941977626
 41
0.5442179498218145
  7
FDASTYLE1
 72
     5
 11
556.3452049597991
 21
42.88498348612709
 31
0.0
  0
TEXT
  5
356
  8
0
 62
     7
 10
563.8643127743062
 20
49.31841734470884
 30
0.0
 40
2.5
  1
N min
 50
89.99998941977626
 41
0.6995393319099822
  7
FDASTYLE1
 72
     5
 11
563.8643143890156
 21
58.06265899358347
 31
0.0
  0
TEXT
  5
357
  8
0
 62
     7
 10
562.085468899456
 20
62.25591700263787
 30
0.0
 40
1.25
  1
-1
 50
89.99998941977626
 41
0.6149070012128496
  7
FDASTYLE1
 72
     5
 11
562.0854691833274
 21
63.79318450566997
 31
0.0
  0
TEXT
  5
358
  8
0
 62
     7
 10
558.0476540523233
 20
57.78270665352252
 30
0.0
 40
2.5
  1
ΣS
 50
89.99998941977626
 41
0.7846700504791737
  7
FDASTYLE1
 72
     5
 11
558.0476548492567
 21
62.0983919311579
 31
0.0
  0
ENDBLK
  5
186
  8
0
  0
BLOCK
  8
0
  2
DC_GROUP_106
 70
     0
 10
0.0
 20
0.0
 30
0.0
  3
DC_GROUP_106
  1

  0
LINE
  5
359
  8
0
  6
CONTINUOUS
 62
     9
 10
500.2447114933891
 20
37.67599892498733
 30
0.0
 11
500.2447114933891
 21
43.75487501635914
 31
0.0
  0
LINE
  5
35A
  8
0
  6
CONTINUOUS
 62
     9
 10
446.2447038639945
 20
37.87323021771194
 30
0.0
 11
446.2447038639945
 21
43.75487501635914
 31
0.0
  0
LINE
  5
35B
  8
0
  6
CONTINUOUS
 62
     9
 10
446.2447038639945
 20
42.75487501635914
 30
0.0
 11
500.2447114933891
 21
42.75487501635914
 31
0.0
  0
INSERT
  5
35C
  8
0
  6
CONTINUOUS
  2
DC_GROUP_107
 10
0.0
 20
0.0
 30
0.0
  0
INSERT
  5
35D
  8
0
  6
CONTINUOUS
  2
DC_GROUP_108
 10
0.0
 20
0.0
 30
0.0
  0
TEXT
  5
35E
  8
0
 62
     7
 10
465.2447076786918
 20
43.75487501635914
 30
0.0
 40
4.0
  1
PCD54
 41
0.7390476190476193
  7
FDASTYLE1
 72
     5
 11
480.0256600596442
 21
43.75487501635914
 31
0.0
  0
ENDBLK
  5
189
  8
0
  0
BLOCK
  8
0
  2
DC_GROUP_107
 70
     0
 10
0.0
 20
0.0
 30
0.0
  3
DC_GROUP_107
  1

  0
LINE
  5
35F
  8
0
  6
CONTINUOUS
 62
     9
 10
448.2447022716252
 20
42.21897548146152
 30
0.0
 11
446.2447038639945
 21
42.75487501635914
 31
0.0
  0
LINE
  5
360
  8
0
  6
CONTINUOUS
 62
     9
 10
446.2447038639945
 20
42.75487501635914
 30
0.0
 11
448.2447022716252
 21
43.29077455125675
 31
0.0
  0
LINE
  5
361
  8
0
  6
CONTINUOUS
 62
     9
 10
446.2447038639945
 20
42.75487501635914
 30
0.0
 11
448.2447022716252
 21
42.75487501635914
 31
0.0
  0
ENDBLK
  5
18C
  8
0
  0
BLOCK
  8
0
  2
DC_GROUP_108
 70
     0
 10
0.0
 20
0.0
 30
0.0
  3
DC_GROUP_108
  1

  0
LINE
  5
362
  8
0
  6
CONTINUOUS
 62
     9
 10
498.2447130857584
 20
43.29077455125675
 30
0.0
 11
500.2447114933891
 21
42.75487501635914
 31
0.0
  0
LINE
  5
363
  8
0
  6
CONTINUOUS
 62
     9
 10
500.2447114933891
 20
42.75487501635914
 30
0.0
 11
498.2447130857584
 21
42.21897548146152
 31
0.0
  0
LINE
  5
364
  8
0
  6
CONTINUOUS
 62
     9
 10
500.2447114933891
 20
42.75487501635914
 30
0.0
 11
498.2447130857584
 21
42.75487501635914
 31
0.0
  0
ENDBLK
  5
18F
  8
0
  0
BLOCK
  8
0
  2
DC_GROUP_109
 70
     0
 10
0.0
 20
0.0
 30
0.0
  3
DC_GROUP_109
  1

  0
LINE
  5
365
  8
0
  6
CONTINUOUS
 62
     7
 10
444.7449243012703
 20
33.33409468988928
 30
0.0
 11
409.7617668641785
 21
135.9782750948829
 31
0.0
  0
LINE
  5
366
  8
0
  6
CONTINUOUS
 62
     7
 10
409.7617668641785
 20
135.9782750948829
 30
0.0
 11
390.5617668641785
 21
135.9782750948829
 31
0.0
  0
INSERT
  5
367
  8
0
  6
CONTINUOUS
  2
DC_GROUP_110
 10
0.0
 20
0.0
 30
0.0
  0
TEXT
  5
368
  8
0
 62
     7
 10
390.5617668641785
 20
135.9782750948829
 30
0.0
 40
4.0
  1
2-φ5.3
 41
0.6243496357960464
  7
FDASTYLE1
 72
     5
 11
406.0456378319204
 21
135.9782750948829
 31
0.0
  0
ENDBLK
  5
192
  8
0
  0
BLOCK
  8
0
  2
DC_GROUP_110
 70
     0
 10
0.0
 20
0.0
 30
0.0
  3
DC_GROUP_110
  1

  0
LINE
  5
369
  8
0
  6
CONTINUOUS
 62
     7
 10
444.6069768061899
 20
35.40004542275532
 30
0.0
 11
444.7449243012703
 21
33.33409468988928
 31
0.0
  0
LINE
  5
36A
  8
0
  6
CONTINUOUS
 62
     7
 10
444.7449243012703
 20
33.33409468988928
 30
0.0
 11
443.5924803691517
 21
35.05428506463034
 31
0.0
  0
LINE
  5
36B
  8
0
  6
CONTINUOUS
 62
     7
 10
444.7449243012703
 20
33.33409468988928
 30
0.0
 11
444.0997285876708
 21
35.22716524369282
 31
0.0
  0
ENDBLK
  5
195
  8
0
  0
ENDSEC
  0
SECTION
  2
ENTITIES
  0
LINE
  5
36C
  8
LAYER0002
  6
CONTINUOUS
 62
     3
 10
79.57239374547669
 20
-190.0
 30
0.0
 11
79.57239374547669
 21
190.0
 31
0.0
  0
LINE
  5
36D
  8
LAYER0002
  6
CONTINUOUS
 62
     3
 10
633.5723937454767
 20
-190.0
 30
0.0
 11
633.5723937454767
 21
190.0
 31
0.0
  0
LINE
  5
36E
  8
LAYER0002
  6
CONTINUOUS
 62
     3
 10
79.57239374547669
 20
-190.0
 30
0.0
 11
633.5723937454767
 21
-190.0
 31
0.0
  0
LINE
  5
36F
  8
LAYER0002
  6
CONTINUOUS
 62
     3
 10
79.57239374547669
 20
189.9999999999999
 30
0.0
 11
633.5723937454767
 21
189.9999999999999
 31
0.0
  0
LINE
  5
370
  8
LAYER0002
  6
CONTINUOUS
 62
     3
 10
453.5723937454767
 20
-190.0
 30
0.0
 11
453.5723937454767
 21
-130.0
 31
0.0
  0
LINE
  5
371
  8
LAYER0002
  6
CONTINUOUS
 62
     3
 10
453.5723937454767
 20
-176.0
 30
0.0
 11
633.5723937454767
 21
-176.0
 31
0.0
  0
LINE
  5
372
  8
LAYER0002
  6
CONTINUOUS
 62
     3
 10
502.5723937454767
 20
-162.0
 30
0.0
 11
633.5723937454767
 21
-162.0
 31
0.0
  0
LINE
  5
373
  8
LAYER0002
  6
CONTINUOUS
 62
     3
 10
502.5723937454767
 20
-148.0
 30
0.0
 11
633.5723937454767
 21
-148.0
 31
0.0
  0
LINE
  5
374
  8
LAYER0002
  6
CONTINUOUS
 62
     3
 10
502.5723937454767
 20
-138.0
 30
0.0
 11
633.5723937454767
 21
-138.0
 31
0.0
  0
LINE
  5
375
  8
LAYER0002
  6
CONTINUOUS
 62
     3
 10
502.5723937454767
 20
-176.0
 30
0.0
 11
502.5723937454767
 21
-130.0
 31
0.0
  0
LINE
  5
376
  8
LAYER0002
  6
CONTINUOUS
 62
     3
 10
611.5723937454767
 20
-176.0
 30
0.0
 11
611.5723937454767
 21
-130.0
 31
0.0
  0
LINE
  5
377
  8
LAYER0002
  6
CONTINUOUS
 62
     3
 10
527.5723937454767
 20
-190.0
 30
0.0
 11
527.5723937454767
 21
-176.0
 31
0.0
  0
LINE
  5
378
  8
LAYER0002
  6
CONTINUOUS
 62
     3
 10
618.5723937454767
 20
-188.0
 30
0.0
 11
628.5723937454767
 21
-188.0
 31
0.0
  0
LINE
  5
379
  8
LAYER0002
  6
CONTINUOUS
 62
     3
 10
623.5723937454767
 20
-178.0
 30
0.0
 11
618.5723937454767
 21
-188.0
 31
0.0
  0
LINE
  5
37A
  8
LAYER0002
  6
CONTINUOUS
 62
     3
 10
623.5723937454767
 20
-178.0
 30
0.0
 11
628.5723937454767
 21
-188.0
 31
0.0
  0
LINE
  5
37B
  8
LAYER0002
  6
CONTINUOUS
 62
     3
 10
453.5723937454767
 20
-130.0
 30
0.0
 11
633.5723937454767
 21
-130.0
 31
0.0
  0
LINE
  5
37C
  8
LAYER0002
  6
CONTINUOUS
 62
     3
 10
582.5723937454767
 20
-176.0
 30
0.0
 11
582.5723937454767
 21
-148.0
 31
0.0
  0
LINE
  5
37D
  8
LAYER0002
  6
CONTINUOUS
 62
     4
 10
461.5723937454767
 20
-172.0
 30
0.0
 11
461.5723937454767
 21
-130.0
 31
0.0
  0
LINE
  5
37E
  8
LAYER0002
  6
CONTINUOUS
 62
     4
 10
465.5723937454767
 20
-172.0
 30
0.0
 11
465.5723937454767
 21
-130.0
 31
0.0
  0
LINE
  5
37F
  8
LAYER0002
  6
CONTINUOUS
 62
     4
 10
478.0723937454767
 20
-176.0
 30
0.0
 11
478.0723937454767
 21
-130.0
 31
0.0
  0
LINE
  5
380
  8
LAYER0002
  6
CONTINUOUS
 62
     4
 10
453.5723937454767
 20
-137.0
 30
0.0
 11
502.5723937454767
 21
-137.0
 31
0.0
  0
LINE
  5
381
  8
LAYER0002
  6
CONTINUOUS
 62
     4
 10
453.5723937454767
 20
-144.0
 30
0.0
 11
502.5723937454767
 21
-144.0
 31
0.0
  0
LINE
  5
382
  8
LAYER0002
  6
CONTINUOUS
 62
     4
 10
453.5723937454767
 20
-165.0
 30
0.0
 11
502.5723937454767
 21
-165.0
 31
0.0
  0
LINE
  5
383
  8
LAYER0002
  6
CONTINUOUS
 62
     4
 10
453.5723937454767
 20
-172.0
 30
0.0
 11
502.5723937454767
 21
-172.0
 31
0.0
  0
LINE
  5
384
  8
LAYER0002
  6
CONTINUOUS
 62
     4
 10
611.5723937454767
 20
-166.0
 30
0.0
 11
633.5723937454767
 21
-166.0
 31
0.0
  0
LINE
  5
385
  8
LAYER0002
  6
CONTINUOUS
 62
     4
 10
509.5723937454767
 20
-139.5
 30
0.0
 11
509.5723937454767
 21
-130.0
 31
0.0
  0
LINE
  5
386
  8
LAYER0002
  6
CONTINUOUS
 62
     4
 10
558.5723937454767
 20
-148.0
 30
0.0
 11
558.5723937454767
 21
-146.5
 31
0.0
  0
LINE
  5
387
  8
LAYER0002
  6
CONTINUOUS
 62
     4
 10
582.5723937454767
 20
-148.0
 30
0.0
 11
582.5723937454767
 21
-146.5
 31
0.0
  0
LINE
  5
388
  8
LAYER0002
  6
CONTINUOUS
 62
     4
 10
599.5723937454767
 20
-148.0
 30
0.0
 11
599.5723937454767
 21
-146.5
 31
0.0
  0
LINE
  5
389
  8
LAYER0002
  6
CONTINUOUS
 62
     4
 10
558.5723937454767
 20
-139.5
 30
0.0
 11
558.5723937454767
 21
-130.0
 31
0.0
  0
LINE
  5
38A
  8
LAYER0002
  6
CONTINUOUS
 62
     4
 10
582.5723937454767
 20
-139.5
 30
0.0
 11
582.5723937454767
 21
-130.0
 31
0.0
  0
LINE
  5
38B
  8
LAYER0002
  6
CONTINUOUS
 62
     4
 10
599.5723937454767
 20
-139.5
 30
0.0
 11
599.5723937454767
 21
-130.0
 31
0.0
  0
LINE
  5
38C
  8
LAYER0002
  6
CONTINUOUS
 62
     4
 10
453.5723937454767
 20
-151.0
 30
0.0
 11
502.5723937454767
 21
-151.0
 31
0.0
  0
LINE
  5
38D
  8
LAYER0002
  6
CONTINUOUS
 62
     4
 10
453.5723937454767
 20
-158.0
 30
0.0
 11
502.5723937454767
 21
-158.0
 31
0.0
  0
LINE
  5
38E
  8
LAYER0002
  6
CONTINUOUS
 62
     4
 10
457.5723937454767
 20
-130.5
 30
0.0
 11
454.5723937454767
 21
-136.5
 31
0.0
  0
LINE
  5
38F
  8
LAYER0002
  6
CONTINUOUS
 62
     4
 10
457.5723937454767
 20
-130.5
 30
0.0
 11
460.5723937454767
 21
-136.5
 31
0.0
  0
LINE
  5
390
  8
LAYER0002
  6
CONTINUOUS
 62
     4
 10
454.5723937454767
 20
-136.5
 30
0.0
 11
460.5723937454767
 21
-136.5
 31
0.0
  0
LINE
  5
391
  8
LAYER0002
  6
CONTINUOUS
 62
     4
 10
457.5723937454767
 20
-158.5
 30
0.0
 11
454.5723937454767
 21
-164.5
 31
0.0
  0
LINE
  5
392
  8
LAYER0002
  6
CONTINUOUS
 62
     4
 10
457.5723937454767
 20
-158.5
 30
0.0
 11
460.5723937454767
 21
-164.5
 31
0.0
  0
LINE
  5
393
  8
LAYER0002
  6
CONTINUOUS
 62
     4
 10
454.5723937454767
 20
-164.5
 30
0.0
 11
460.5723937454767
 21
-164.5
 31
0.0
  0
LINE
  5
394
  8
LAYER0002
  6
CONTINUOUS
 62
     4
 10
457.5723937454767
 20
-151.5
 30
0.0
 11
454.5723937454767
 21
-157.5
 31
0.0
  0
LINE
  5
395
  8
LAYER0002
  6
CONTINUOUS
 62
     4
 10
457.5723937454767
 20
-151.5
 30
0.0
 11
460.5723937454767
 21
-157.5
 31
0.0
  0
LINE
  5
396
  8
LAYER0002
  6
CONTINUOUS
 62
     4
 10
454.5723937454767
 20
-157.5
 30
0.0
 11
460.5723937454767
 21
-157.5
 31
0.0
  0
LINE
  5
397
  8
LAYER0002
  6
CONTINUOUS
 62
     4
 10
457.5723937454767
 20
-144.5
 30
0.0
 11
454.5723937454767
 21
-150.5
 31
0.0
  0
LINE
  5
398
  8
LAYER0002
  6
CONTINUOUS
 62
     4
 10
457.5723937454767
 20
-144.5
 30
0.0
 11
460.5723937454767
 21
-150.5
 31
0.0
  0
LINE
  5
399
  8
LAYER0002
  6
CONTINUOUS
 62
     4
 10
454.5723937454767
 20
-150.5
 30
0.0
 11
460.5723937454767
 21
-150.5
 31
0.0
  0
LINE
  5
39A
  8
LAYER0002
  6
CONTINUOUS
 62
     4
 10
457.5723937454767
 20
-137.5
 30
0.0
 11
454.5723937454767
 21
-143.5
 31
0.0
  0
LINE
  5
39B
  8
LAYER0002
  6
CONTINUOUS
 62
     4
 10
457.5723937454767
 20
-137.5
 30
0.0
 11
460.5723937454767
 21
-143.5
 31
0.0
  0
LINE
  5
39C
  8
LAYER0002
  6
CONTINUOUS
 62
     4
 10
454.5723937454767
 20
-143.5
 30
0.0
 11
460.5723937454767
 21
-143.5
 31
0.0
  0
LINE
  5
39D
  8
LAYER0002
  6
CONTINUOUS
 62
     4
 10
529.2390604121433
 20
-176.0
 30
0.0
 11
529.2390604121433
 21
-162.0
 31
0.0
  0
LINE
  5
39E
  8
LAYER0002
  6
CONTINUOUS
 62
     4
 10
555.90572707881
 20
-176.0
 30
0.0
 11
555.90572707881
 21
-161.9509415757253
 31
0.0
  0
LINE
  5
39F
  8
LAYER0002
  6
CONTINUOUS
 62
     4
 10
569.2390604121433
 20
-167.5
 30
0.0
 11
569.2390604121433
 21
-161.9509415757253
 31
0.0
  0
LINE
  5
3A0
  8
LAYER0002
  6
CONTINUOUS
 62
     4
 10
582.5723937454767
 20
-155.0
 30
0.0
 11
611.5723937454767
 21
-155.0
 31
0.0
  0
LINE
  5
3A1
  8
LAYER0002
  6
CONTINUOUS
 62
     4
 10
502.5723937454767
 20
-166.0
 30
0.0
 11
582.5723937454767
 21
-166.0
 31
0.0
  0
TEXT
  5
3A3
  8
LAYER0002
 62
     7
 10
503.5661518929514
 20
-130.821188728956
 30
0.0
 40
2.44248928
  1
符号
 41
0.8
  7
FDASTYLE0
  0
TEXT
  5
3A4
  8
LAYER0002
 62
     7
 10
518.9865248673825
 20
-135.8245525019963
 30
0.0
 40
4.0
  1
品       名
 41
0.6192847442281572
  7
FDASTYLE1
 72
     5
 11
542.2716312503612
 21
-135.8245525019963
 31
0.0
  0
TEXT
  5
3A5
  8
LAYER0002
 62
     7
 10
563.8055501867863
 20
-135.8245525019963
 30
0.0
 40
4.0
  1
材  料
 41
0.5950413223140509
  7
FDASTYLE1
 72
     5
 11
574.2782774595136
 21
-135.8245525019963
 31
0.0
  0
TEXT
  5
3A6
  8
LAYER0002
 62
     7
 10
586.0884554303317
 20
-135.8245525019963
 30
0.0
 40
4.0
  1
個 数
 41
0.5813148788927315
  7
FDASTYLE1
 72
     5
 11
593.9943377832728
 21
-135.8245525019963
 31
0.0
  0
TEXT
  5
3A7
  8
LAYER0002
 62
     7
 10
602.2942046983646
 20
-133.5649080050572
 30
0.0
 40
2.5
  1
単重量
 41
0.6666666666666666
  7
FDASTYLE1
 72
     5
 11
608.2942046983646
 21
-133.5649080050572
 31
0.0
  0
TEXT
  5
3A8
  8
LAYER0002
 62
     7
 10
601.2813453691126
 20
-137.3631304897525
 30
0.0
 40
2.5
  1
(kg)
 41
0.5333333333333371
  7
FDASTYLE1
 72
     5
 11
606.614678702446
 21
-137.3631304897525
 31
0.0
  0
TEXT
  5
3A9
  8
LAYER0002
 62
     7
 10
615.7145908109544
 20
-135.8245525019963
 30
0.0
 40
4.0
  1
記  事
 41
0.5950413223140509
  7
FDASTYLE1
 72
     5
 11
626.1873180836817
 21
-135.8245525019963
 31
0.0
  0
TEXT
  5
3AA
  8
LAYER0002
 62
     7
 10
615.4174732006412
 20
-165.4873041997729
 30
0.0
 40
3.0
  1
コード番号
 41
0.6666666666666666
  7
FDASTYLE1
 72
     5
 11
627.4174732006412
 21
-165.4873041997729
 31
0.0
  0
TEXT
  5
3AB
  8
LAYER0002
 62
     7
 10
458.4843857613084
 20
-175.1879010540338
 30
0.0
 40
2.5
  1
訂 正 来 歴
 41
0.5890861275476669
  7
FDASTYLE1
 72
     5
 11
469.9715652484879
 21
-175.1879010540338
 31
0.0
  0
TEXT
  5
3AC
  8
LAYER0002
 62
     7
 10
482.4627285922417
 20
-175.2166697391651
 30
0.0
 40
2.5
  1
工 事 番 号
 41
0.5890861275476669
  7
FDASTYLE1
 72
     5
 11
493.9499080794212
 21
-175.2166697391651
 31
0.0
  0
TEXT
  5
3AD
  8
LAYER0002
 62
     7
 10
455.5063940920796
 20
-165.9634530565915
 30
0.0
 40
1.90819475
  1
記号
 41
0.8
  7
FDASTYLE0
  0
TEXT
  5
3AE
  8
LAYER0002
 62
     7
 10
461.4457811522385
 20
-165.9634530565915
 30
0.0
 40
1.90819475
  1
理由
 41
0.8
  7
FDASTYLE0
  0
TEXT
  5
3AF
  8
LAYER0002
 62
     7
 10
468.191760536461
 20
-169.8786046700178
 30
0.0
 40
3.0
  1
日 付
 41
0.5813148788927344
  7
FDASTYLE1
 72
     5
 11
474.1211723011669
 21
-169.8786046700178
 31
0.0
  0
TEXT
  5
3B0
  8
LAYER0002
 62
     7
 10
510.0205627274419
 20
-165.7187911464244
 30
0.0
 40
3.0
  1
承   認
 41
0.6035665294924586
  7
FDASTYLE1
 72
     5
 11
519.7983405052197
 21
-165.7187911464244
 31
0.0
  0
TEXT
  5
3B1
  8
LAYER0002
 62
     7
 10
536.4356217787107
 20
-165.4873041997729
 30
0.0
 40
3.0
  1
検   図
 41
0.6035665294924586
  7
FDASTYLE1
 72
     5
 11
546.2133995564885
 21
-165.4873041997729
 31
0.0
  0
TEXT
  5
3B2
  8
LAYER0002
 62
     7
 10
558.0495858438518
 20
-165.4873041997729
 30
0.0
 40
3.0
  1
担  当
 41
0.5950413223140511
  7
FDASTYLE1
 72
     5
 11
565.9041312983973
 21
-165.4873041997729
 31
0.0
  0
TEXT
  5
3B3
  8
LAYER0002
 62
     7
 10
571.2494512295879
 20
-165.4873041997729
 30
0.0
 40
3.0
  1
製  図
 41
0.5950413223140511
  7
FDASTYLE1
 72
     5
 11
579.1039966841333
 21
-165.4873041997729
 31
0.0
  0
TEXT
  5
3B4
  8
LAYER0002
 62
     7
 10
583.5186309758966
 20
-153.2184960272417
 30
0.0
 40
3.0
  1
作図
 41
0.6666666666666762
  7
FDASTYLE1
 72
     5
 11
588.3186309758967
 21
-153.2184960272417
 31
0.0
  0
TEXT
  5
3B5
  8
LAYER0002
 62
     7
 10
584.6760657091543
 20
-160.2371566401815
 30
0.0
 40
4.0
  1
第 三 角 法
 41
0.5890861275476675
  7
FDASTYLE1
 72
     5
 11
603.0555528886415
 21
-160.2371566401815
 31
0.0
  0
TEXT
  5
3B6
  8
LAYER0002
 62
     7
 10
583.9816048691997
 20
-166.413251986379
 30
0.0
 40
3.0
  1
尺度
 41
0.6666666666666762
  7
FDASTYLE1
 72
     5
 11
588.7816048691998
 21
-166.413251986379
 31
0.0
  0
TEXT
  5
3B8
  8
LAYER0002
 62
     3
 10
461.9515481155107
 20
-185.9272077185017
 30
0.0
 40
7.0
  1
株式会社 野村製作所
 41
0.5976394989045255
  7
FDASTYLE2
 72
     5
 11
517.8344271000773
 21
-185.9272077185017
 31
0.0
  0
TEXT
  5
3BA
  8
LAYER0002
 62
     3
 10
533.6311292844923
 20
-187.1216685584563
 30
0.0
 40
8.0
  1
２－
 41
0.7699296059137625
  7
FDASTYLE3
 72
     5
 11
547.5206593751766
 21
-187.1216685584563
 31
0.0
  0
TEXT
  5
3BB
  8
LAYER0002
 62
     3
 10
550.5430869088992
 20
-187.1216685584563
 30
0.0
 40
8.0
  1
9308095
 41
1.375217071789327
  7
FDASTYLE3
 72
     5
 11
605.716795829087
 21
-187.1216685584563
 31
0.0
  0
TEXT
  5
3BC
  8
LAYER0002
 62
     4
 10
590.1032971299989
 20
-145.0216474852281
 30
0.0
 40
3.0
  1
1式
 41
0.520661157024785
  7
FDASTYLE1
 72
     5
 11
593.5396607663624
 21
-145.0216474852281
 31
0.0
  0
TEXT
  5
3BD
  8
LAYER0002
 62
     4
 10
595.8735726361166
 20
-172.297487439201
 30
0.0
 40
3.0
  1
1/1
 41
0.5222222222222273
  7
FDASTYLE1
 72
     5
 11
600.5735726361166
 21
-172.297487439201
 31
0.0
  0
TEXT
  5
3BE
  8
LAYER0002
 62
     6
 10
521.6085333514537
 20
-145.7243747487088
 30
0.0
 40
5.0
  1
外　形　図
 41
0.5833333333333334
  7
FDASTYLE1
 72
     5
 11
539.1085333514537
 21
-145.7243747487088
 31
0.0
  0
TEXT
  5
3BF
  8
LAYER0002
 62
     6
 10
508.9768756015056
 20
-154.3920863201719
 30
0.0
 40
5.0
  1
日鋼プレシジォン
 41
0.5833333333333322
  7
FDASTYLE1
 72
     5
 11
536.9768756015055
 21
-154.3920863201719
 31
0.0
  0
TEXT
  5
3C0
  8
LAYER0002
 62
     6
 10
517.4424132567851
 20
-160.8053724226564
 30
0.0
 40
5.0
  1
  MO2-8型 ﾁｬｯｸ
 41
0.553604224058769
  7
FDASTYLE1
 72
     5
 11
553.9802920446639
 21
-160.8053724226564
 31
0.0
  0
LINE
  5
3C1
  8
0
  6
CONTINUOUS
 62
     3
 10
166.5116945256156
 20
138.6493380057979
 30
0.0
 11
166.5116945256156
 21
-28.52565360186814
 31
0.0
  0
LINE
  5
3C2
  8
0
  6
CONTINUOUS
 62
     3
 10
257.0116945256156
 20
77.34933495404006
 30
0.0
 11
257.0116945256156
 21
-74.3506543648076
 31
0.0
  0
LINE
  5
3C3
  8
0
  6
CONTINUOUS
 62
     3
 10
166.5116945256156
 20
138.6493380057979
 30
0.0
 11
189.0116945256156
 21
138.6493380057979
 31
0.0
  0
LINE
  5
3C4
  8
0
  6
CONTINUOUS
 62
     3
 10
166.5116945256156
 20
-76.35066199420213
 30
0.0
 11
255.0117097844047
 21
-76.35066199420213
 31
0.0
  0
LINE
  5
3C5
  8
0
  6
CONTINUOUS
 62
     3
 10
170.7116914738578
 20
126.1493380057979
 30
0.0
 11
170.7116914738578
 21
-29.52565360186814
 31
0.0
  0
LINE
  5
3C6
  8
0
  6
CONTINUOUS
 62
     3
 10
166.5116945256156
 20
-63.85066199420213
 30
0.0
 11
170.7116914738578
 21
-63.85066199420213
 31
0.0
  0
LINE
  5
3C7
  8
0
  6
CONTINUOUS
 62
     3
 10
166.5116945256156
 20
126.1493380057979
 30
0.0
 11
170.7116914738578
 21
126.1493380057979
 31
0.0
  0
LINE
  5
3C8
  8
0
  6
CONTINUOUS
 62
     3
 10
170.7116914738578
 20
-5.850646735413065
 30
0.0
 11
202.6285768498344
 21
-5.850646735413065
 31
0.0
  0
LINE
  5
3C9
  8
0
  6
CONTINUOUS
 62
     3
 10
254.5116945256156
 20
-8.850646735413065
 30
0.0
 11
257.0116945256156
 21
-8.850646735413065
 31
0.0
  0
LINE
  5
3CA
  8
0
  6
CONTINUOUS
 62
     3
 10
254.5116945256156
 20
67.11808800579787
 30
0.0
 11
254.5116945256156
 21
-8.850650550110331
 31
0.0
  0
LINE
  5
3CB
  8
0
  6
CONTINUOUS
 62
     3
 10
255.0117146654708
 20
-76.35065813668494
 30
0.0
 11
257.0117006042603
 21
-74.35067219789549
 31
0.0
  0
LINE
  5
3CC
  8
0
  6
CONTINUOUS
 62
     3
 10
257.0116695841803
 20
136.6493481439206
 30
0.0
 11
256.0116685225908
 21
137.6493492055101
 31
0.0
  0
LINE
  5
3CD
  8
0
  6
CONTINUOUS
 62
     3
 10
189.0116945256156
 20
138.6493380057979
 30
0.0
 11
189.0116945256156
 21
108.8328487759661
 31
0.0
  0
LINE
  5
3CE
  8
0
  6
CONTINUOUS
 62
     3
 10
223.0116945256156
 20
86.1493456351924
 30
0.0
 11
223.0116945256156
 21
68.14935326458694
 31
0.0
  0
LINE
  5
3CF
  8
0
  6
CONTINUOUS
 62
     3
 10
215.5116945256156
 20
80.14935326458694
 30
0.0
 11
215.5116945256156
 21
68.14935326458694
 31
0.0
  0
LINE
  5
3D0
  8
0
  6
CONTINUOUS
 62
     3
 10
215.5116945256156
 20
-17.85064673541307
 30
0.0
 11
223.0116945256156
 21
-17.85064673541307
 31
0.0
  0
LINE
  5
3D1
  8
0
  6
CONTINUOUS
 62
     3
 10
215.5116945256156
 20
80.14933800579787
 30
0.0
 11
223.0116945256156
 21
80.14933800579787
 31
0.0
  0
LINE
  5
3D2
  8
0
  6
CONTINUOUS
 62
     3
 10
215.5116945256156
 20
-5.850650550110331
 30
0.0
 11
215.5116945256156
 21
-17.85065055011033
 31
0.0
  0
LINE
  5
3D3
  8
0
  6
CONTINUOUS
 62
     3
 10
223.0116945256156
 20
-5.850650550110331
 30
0.0
 11
223.0116945256156
 21
-17.85065055011033
 31
0.0
  0
LINE
  5
3D4
  8
0
  6
CONTINUOUS
 62
     3
 10
237.0116945256156
 20
-10.85065055011033
 30
0.0
 11
237.0116945256156
 21
-16.85065055011033
 31
0.0
  0
LINE
  5
3D5
  8
0
  6
CONTINUOUS
 62
     3
 10
237.0116945256156
 20
-10.85064673541307
 30
0.0
 11
257.0116945256156
 21
-10.85064673541307
 31
0.0
  0
LINE
  5
3D6
  8
0
  6
CONTINUOUS
 62
     3
 10
237.0116945256156
 20
-16.85064673541307
 30
0.0
 11
257.0116945256156
 21
-16.85064673541307
 31
0.0
  0
LINE
  5
3D7
  8
0
  6
CONTINUOUS
 62
     3
 10
235.2796279300216
 20
-13.85066141412823
 30
0.0
 11
237.0116838005612
 21
-10.85065305627937
 31
0.0
  0
LINE
  5
3D8
  8
0
  6
CONTINUOUS
 62
     3
 10
235.2796307467326
 20
-13.85064945338569
 30
0.0
 11
237.0116789878768
 21
-16.85064459673582
 31
0.0
  0
LINE
  5
3D9
  8
0
  6
CONTINUOUS
 62
     3
 10
189.0116945256156
 20
138.6493380057979
 30
0.0
 11
256.0116945256156
 21
138.6493380057979
 31
0.0
  0
LINE
  5
3DA
  8
0
  6
CONTINUOUS
 62
     3
 10
242.5116945256156
 20
63.74919152142287
 30
0.0
 11
242.5116945256156
 21
55.90313744427444
 31
0.0
  0
LINE
  5
3DB
  8
0
  6
CONTINUOUS
 62
     3
 10
254.5116945256156
 20
67.11808800579787
 30
0.0
 11
257.0116945256156
 21
67.11808800579787
 31
0.0
  0
LINE
  5
3DC
  8
0
  6
CONTINUOUS
 62
     3
 10
233.8282533635062
 20
55.90312218548537
 30
0.0
 11
242.5116945256156
 21
55.90312218548537
 31
0.0
  0
LINE
  5
3DD
  8
0
  6
CONTINUOUS
 62
     3
 10
242.5116945256156
 20
63.74919152142287
 30
0.0
 11
254.5116945256156
 21
63.74919152142287
 31
0.0
  0
LINE
  5
3DE
  8
0
  6
CONTINUOUS
 62
     3
 10
154.0116945256156
 20
-29.52565360186814
 30
0.0
 11
154.0116945256156
 21
-41.52565360186814
 31
0.0
  0
LINE
  5
3DF
  8
0
  6
CONTINUOUS
 62
     3
 10
170.7116914738578
 20
-42.52564978717088
 30
0.0
 11
222.4071730318973
 21
-42.52564978717088
 31
0.0
  0
LINE
  5
3E0
  8
0
  6
CONTINUOUS
 62
     3
 10
170.7116914738578
 20
-28.52564978717088
 30
0.0
 11
222.8293613487884
 21
-28.52564978717088
 31
0.0
  0
LINE
  5
3E1
  8
0
  6
CONTINUOUS
 62
     3
 10
154.0116945256156
 20
-41.52564978717088
 30
0.0
 11
222.9259801416839
 21
-41.52564978717088
 31
0.0
  0
LINE
  5
3E2
  8
0
  6
CONTINUOUS
 62
     3
 10
154.0116945256156
 20
-29.52564978717088
 30
0.0
 11
222.4606843937797
 21
-29.52564978717088
 31
0.0
  0
LINE
  5
3E3
  8
0
  6
CONTINUOUS
 62
     3
 10
170.7116914738578
 20
-41.52565360186814
 30
0.0
 11
170.7116914738578
 21
-63.8506543648076
 31
0.0
  0
LINE
  5
3E4
  8
0
  6
CONTINUOUS
 62
     3
 10
166.5116945256156
 20
-42.52565360186814
 30
0.0
 11
166.5116945256156
 21
-76.3506543648076
 31
0.0
  0
LINE
  5
3E5
  8
0
  6
CONTINUOUS
 62
     3
 10
215.1117006291312
 20
91.46631272911148
 30
0.0
 11
215.1117006291312
 21
80.14935326458694
 31
0.0
  0
LINE
  5
3E6
  8
0
  6
CONTINUOUS
 62
     3
 10
215.1117006291312
 20
86.14933800579787
 30
0.0
 11
223.0116945256156
 21
86.14933800579787
 31
0.0
  0
LINE
  5
3E7
  8
0
  6
CONTINUOUS
 62
     3
 10
248.0116945256156
 20
138.6493380057979
 30
0.0
 11
248.0116945256156
 21
128.6493380057979
 31
0.0
  0
LINE
  5
3E8
  8
0
  6
CONTINUOUS
 62
     3
 10
241.0116945256156
 20
138.6493380057979
 30
0.0
 11
241.0116945256156
 21
72.4561312186885
 31
0.0
  0
LINE
  5
3E9
  8
0
  6
CONTINUOUS
 62
     3
 10
243.7116914738578
 20
75.6493456351924
 30
0.0
 11
243.7116914738578
 21
65.6493456351924
 31
0.0
  0
LINE
  5
3EA
  8
0
  6
CONTINUOUS
 62
     3
 10
243.7116914738578
 20
75.64933800579787
 30
0.0
 11
256.0116945256156
 21
75.64933800579787
 31
0.0
  0
LINE
  5
3EB
  8
0
  6
CONTINUOUS
 62
     3
 10
233.8991609562797
 20
65.64933800579787
 30
0.0
 11
243.7116914738578
 21
65.64933800579787
 31
0.0
  0
LINE
  5
3EC
  8
0
  6
CONTINUOUS
 62
     3
 10
223.0116945256156
 20
73.64933800579787
 30
0.0
 11
241.0116945256156
 21
73.64933800579787
 31
0.0
  0
LINE
  5
3ED
  8
0
  6
CONTINUOUS
 62
     3
 10
241.0116945256156
 20
72.4561312186885
 30
0.0
 11
243.7116914738578
 21
72.4561312186885
 31
0.0
  0
LINE
  5
3EE
  8
0
  6
CONTINUOUS
 62
     3
 10
242.0116945256156
 20
128.6493380057979
 30
0.0
 11
257.0116945256156
 21
128.6493380057979
 31
0.0
  0
LINE
  5
3EF
  8
0
  6
CONTINUOUS
 62
     3
 10
242.0116945256156
 20
78.64933800579787
 30
0.0
 11
257.0116945256156
 21
78.64933800579787
 31
0.0
  0
LINE
  5
3F0
  8
0
  6
CONTINUOUS
 62
     3
 10
242.0116945256156
 20
128.6493380057979
 30
0.0
 11
242.0116945256156
 21
78.64933800579787
 31
0.0
  0
LINE
  5
3F1
  8
0
  6
CONTINUOUS
 62
     3
 10
257.0116945256156
 20
136.6493380057979
 30
0.0
 11
257.0116945256156
 21
129.9660036552119
 31
0.0
  0
LINE
  5
3F2
  8
0
  6
CONTINUOUS
 62
     3
 10
257.0116945256156
 20
113.6493456351924
 30
0.0
 11
257.0116945256156
 21
93.64933800579787
 31
0.0
  0
LINE
  5
3F3
  8
0
  6
CONTINUOUS
 62
     3
 10
257.0116945256156
 20
83.6493456351924
 30
0.0
 11
257.0116945256156
 21
78.6493456351924
 31
0.0
  0
LINE
  5
3F4
  8
0
  6
CONTINUOUS
 62
     3
 10
248.0116945256156
 20
78.6493456351924
 30
0.0
 11
248.0116945256156
 21
75.6493456351924
 31
0.0
  0
LINE
  5
3F5
  8
0
  6
CONTINUOUS
 62
     3
 10
257.0116945256156
 20
128.6493380057979
 30
0.0
 11
257.0116945256156
 21
123.6493380057979
 31
0.0
  0
LINE
  5
3F6
  8
0
  6
CONTINUOUS
 62
     3
 10
265.0116945256156
 20
126.6493380057979
 30
0.0
 11
265.0116945256156
 21
110.6493456351924
 31
0.0
  0
LINE
  5
3F7
  8
0
  6
CONTINUOUS
 62
     3
 10
275.0116945256156
 20
126.6493380057979
 30
0.0
 11
275.0116945256156
 21
110.6493456351924
 31
0.0
  0
LINE
  5
3F8
  8
0
  6
CONTINUOUS
 62
     3
 10
265.0116945256156
 20
96.6493456351924
 30
0.0
 11
265.0116945256156
 21
80.6493456351924
 31
0.0
  0
LINE
  5
3F9
  8
0
  6
CONTINUOUS
 62
     3
 10
275.0116945256156
 20
96.6493456351924
 30
0.0
 11
275.0116945256156
 21
80.6493456351924
 31
0.0
  0
LINE
  5
3FA
  8
0
  6
CONTINUOUS
 62
     3
 10
245.0116945256156
 20
93.6493456351924
 30
0.0
 11
245.0116945256156
 21
83.6493456351924
 31
0.0
  0
LINE
  5
3FB
  8
0
  6
CONTINUOUS
 62
     3
 10
245.0116945256156
 20
123.6493380057979
 30
0.0
 11
245.0116945256156
 21
113.6493456351924
 31
0.0
  0
LINE
  5
3FC
  8
0
  6
CONTINUOUS
 62
     3
 10
242.0116945256156
 20
83.64933800579787
 30
0.0
 11
265.0116945256156
 21
83.64933800579787
 31
0.0
  0
LINE
  5
3FD
  8
0
  6
CONTINUOUS
 62
     3
 10
242.0116945256156
 20
93.64933800579787
 30
0.0
 11
265.0116945256156
 21
93.64933800579787
 31
0.0
  0
LINE
  5
3FE
  8
0
  6
CONTINUOUS
 62
     3
 10
242.0116945256156
 20
113.6493380057979
 30
0.0
 11
265.0116945256156
 21
113.6493380057979
 31
0.0
  0
LINE
  5
3FF
  8
0
  6
CONTINUOUS
 62
     3
 10
242.0116945256156
 20
123.6493380057979
 30
0.0
 11
265.0116945256156
 21
123.6493380057979
 31
0.0
  0
LINE
  5
400
  8
0
  6
CONTINUOUS
 62
     3
 10
265.0116945256156
 20
110.6493380057979
 30
0.0
 11
275.0116945256156
 21
110.6493380057979
 31
0.0
  0
LINE
  5
401
  8
0
  6
CONTINUOUS
 62
     3
 10
265.0116945256156
 20
126.6493380057979
 30
0.0
 11
275.0116945256156
 21
126.6493380057979
 31
0.0
  0
LINE
  5
402
  8
0
  6
CONTINUOUS
 62
     3
 10
265.0116945256156
 20
80.64933800579787
 30
0.0
 11
275.0116945256156
 21
80.64933800579787
 31
0.0
  0
LINE
  5
403
  8
0
  6
CONTINUOUS
 62
     3
 10
265.0116945256156
 20
96.64933800579787
 30
0.0
 11
275.0116945256156
 21
96.64933800579787
 31
0.0
  0
LINE
  5
404
  8
0
  6
CONTINUOUS
 62
     3
 10
180.1285768498344
 20
68.14933800579787
 30
0.0
 11
204.6285768498344
 21
68.14933800579787
 31
0.0
  0
LINE
  5
405
  8
0
  6
CONTINUOUS
 62
     3
 10
179.6285768498344
 20
67.64935326458694
 30
0.0
 11
179.6285768498344
 21
-5.350650550110331
 31
0.0
  0
LINE
  5
406
  8
0
  6
CONTINUOUS
 62
     3
 10
229.6285768498344
 20
67.6493456351924
 30
0.0
 11
229.6285768498344
 21
-5.350650550110331
 31
0.0
  0
LINE
  5
407
  8
0
  6
CONTINUOUS
 62
     3
 10
179.6285829143605
 20
67.64932209871462
 30
0.0
 11
180.1285834451552
 21
68.14932262950937
 31
0.0
  0
LINE
  5
408
  8
0
  6
CONTINUOUS
 62
     3
 10
229.1285654843343
 20
68.14935111490071
 30
0.0
 11
229.6285641185188
 21
67.64934864534884
 31
0.0
  0
LINE
  5
409
  8
0
  6
CONTINUOUS
 62
     3
 10
229.6285820458704
 20
-5.350669080574662
 30
0.0
 11
229.1285815150756
 21
-5.850669611369412
 31
0.0
  0
LINE
  5
40A
  8
0
  6
CONTINUOUS
 62
     3
 10
179.6286085090866
 20
-5.350631468036553
 30
0.0
 11
180.1286274582269
 21
-5.85063515967191
 31
0.0
  0
LINE
  5
40B
  8
0
  6
CONTINUOUS
 62
     3
 10
204.6285768498344
 20
68.14933800579787
 30
0.0
 11
229.1285768498344
 21
68.14933800579787
 31
0.0
  0
LINE
  5
40C
  8
0
  6
CONTINUOUS
 62
     3
 10
180.6285768498344
 20
6.149338005797873
 30
0.0
 11
207.6285768498344
 21
6.149338005797873
 31
0.0
  0
LINE
  5
40D
  8
0
  6
CONTINUOUS
 62
     3
 10
208.6285768498344
 20
-0.3506467354130649
 30
0.0
 11
210.6285768498344
 21
-0.3506467354130649
 31
0.0
  0
LINE
  5
40E
  8
0
  6
CONTINUOUS
 62
     3
 10
208.6285768498344
 20
62.64933800579787
 30
0.0
 11
210.6285768498344
 21
62.64933800579787
 31
0.0
  0
LINE
  5
40F
  8
0
  6
CONTINUOUS
 62
     3
 10
218.6285768498344
 20
64.14933800579787
 30
0.0
 11
220.6285768498344
 21
64.14933800579787
 31
0.0
  0
LINE
  5
410
  8
0
  6
CONTINUOUS
 62
     3
 10
218.6285768498344
 20
-1.850646735413065
 30
0.0
 11
220.6285768498344
 21
-1.850646735413065
 31
0.0
  0
LINE
  5
411
  8
0
  6
CONTINUOUS
 62
     3
 10
208.6285768498344
 20
62.64935326458694
 30
0.0
 11
208.6285768498344
 21
-0.3506505501103305
 31
0.0
  0
LINE
  5
412
  8
0
  6
CONTINUOUS
 62
     3
 10
218.6285768498344
 20
64.14935326458694
 30
0.0
 11
218.6285768498344
 21
26.64491486431838
 31
0.0
  0
LINE
  5
413
  8
0
  6
CONTINUOUS
 62
     3
 10
210.6285768498344
 20
62.64935326458694
 30
0.0
 11
210.6285768498344
 21
25.11959862591506
 31
0.0
  0
LINE
  5
414
  8
0
  6
CONTINUOUS
 62
     3
 10
220.6285768498344
 20
64.14935326458694
 30
0.0
 11
220.6285768498344
 21
-1.850650550110331
 31
0.0
  0
LINE
  5
415
  8
0
  6
CONTINUOUS
 62
     3
 10
180.6285768498344
 20
13.09909176708938
 30
0.0
 11
180.6285768498344
 21
6.14934944988967
 31
0.0
  0
LINE
  5
416
  8
0
  6
CONTINUOUS
 62
     3
 10
207.6285768498344
 20
12.91648697735549
 30
0.0
 11
207.6285768498344
 21
6.14934944988967
 31
0.0
  0
LINE
  5
417
  8
0
  6
CONTINUOUS
 62
     3
 10
207.6285974194336
 20
6.149338402784579
 30
0.0
 11
208.6286008412491
 21
5.149339701421141
 31
0.0
  0
LINE
  5
418
  8
0
  6
CONTINUOUS
 62
     3
 10
180.6285984481162
 20
6.149335015355646
 30
0.0
 11
179.6286016855099
 21
5.14932965478296
 31
0.0
  0
LINE
  5
419
  8
0
  6
CONTINUOUS
 62
     3
 10
220.6285768498344
 20
-1.350646735413065
 30
0.0
 11
229.6285768498344
 21
-1.350646735413065
 31
0.0
  0
LINE
  5
41A
  8
0
  6
CONTINUOUS
 62
     3
 10
220.6285768498344
 20
63.64933800579787
 30
0.0
 11
229.6285768498344
 21
63.64933800579787
 31
0.0
  0
LINE
  5
41B
  8
0
  6
CONTINUOUS
 62
     3
 10
202.6285768498344
 20
-5.850646735413065
 30
0.0
 11
254.5116945256156
 21
-5.850646735413065
 31
0.0
  0
LINE
  5
41C
  8
0
  6
CONTINUOUS
 62
     3
 10
170.7116914738578
 20
68.14933800579787
 30
0.0
 11
180.1285834451552
 21
68.14933800579787
 31
0.0
  0
LINE
  5
41D
  8
0
  6
CONTINUOUS
 62
     3
 10
218.6285768498344
 20
15.16648697735549
 30
0.0
 11
218.6285768498344
 21
-1.850650550110331
 31
0.0
  0
LINE
  5
41E
  8
0
  6
CONTINUOUS
 62
     3
 10
210.6285768498344
 20
14.98388314129592
 30
0.0
 11
210.6285768498344
 21
-0.3506505501103305
 31
0.0
  0
LINE
  5
41F
  8
0
  6
CONTINUOUS
 62
     3
 10
210.6285768498344
 20
62.39933800579787
 30
0.0
 11
218.6285768498344
 21
62.39933800579787
 31
0.0
  0
LINE
  5
420
  8
0
  6
CONTINUOUS
 62
     3
 10
210.6285768498344
 20
-0.1006467354130649
 30
0.0
 11
218.6285768498344
 21
-0.1006467354130649
 31
0.0
  0
LINE
  5
421
  8
0
  6
CONTINUOUS
 62
     3
 10
180.6286064178627
 20
56.14933418821751
 30
0.0
 11
179.6286096552564
 21
57.1493395487902
 31
0.0
  0
LINE
  5
422
  8
0
  6
CONTINUOUS
 62
     3
 10
207.628594813492
 20
56.1493361948725
 30
0.0
 11
208.6285982353076
 21
57.14933489623594
 31
0.0
  0
LINE
  5
423
  8
0
  6
CONTINUOUS
 62
     3
 10
207.6285768498344
 20
49.38218712689162
 30
0.0
 11
207.6285768498344
 21
56.14932656170608
 31
0.0
  0
LINE
  5
424
  8
0
  6
CONTINUOUS
 62
     3
 10
180.6285768498344
 20
49.19958519818069
 30
0.0
 11
180.6285768498344
 21
56.14932656170608
 31
0.0
  0
LINE
  5
425
  8
0
  6
CONTINUOUS
 62
     3
 10
180.6285768498344
 20
56.14933800579787
 30
0.0
 11
207.6285768498344
 21
56.14933800579787
 31
0.0
  0
LINE
  5
426
  8
0
  6
CONTINUOUS
 62
     3
 10
220.6285768498344
 20
7.149338005797873
 30
0.0
 11
229.6285768498344
 21
7.149338005797873
 31
0.0
  0
LINE
  5
427
  8
0
  6
CONTINUOUS
 62
     3
 10
220.6285768498344
 20
55.14933800579787
 30
0.0
 11
229.6285768498344
 21
55.14933800579787
 31
0.0
  0
LINE
  5
428
  8
0
  6
CONTINUOUS
 62
     3
 10
220.6285768498344
 20
55.14934182049514
 30
0.0
 11
229.6285768498344
 21
55.14934182049514
 31
0.0
  0
LINE
  5
429
  8
0
  6
CONTINUOUS
 62
     3
 10
220.6285768498344
 20
56.14934182049514
 30
0.0
 11
228.6285768498344
 21
56.14934182049514
 31
0.0
  0
LINE
  5
42A
  8
0
  6
CONTINUOUS
 62
     3
 10
220.6285768498344
 20
60.14934182049514
 30
0.0
 11
228.6285768498344
 21
60.14934182049514
 31
0.0
  0
LINE
  5
42B
  8
0
  6
CONTINUOUS
 62
     3
 10
224.6285768498344
 20
60.14934182049514
 30
0.0
 11
224.6285768498344
 21
56.14934182049514
 31
0.0
  0
LINE
  5
42C
  8
0
  6
CONTINUOUS
 62
     3
 10
228.6285768498344
 20
60.14934182049514
 30
0.0
 11
228.6285768498344
 21
56.14934182049514
 31
0.0
  0
LINE
  5
42D
  8
0
  6
CONTINUOUS
 62
     3
 10
228.6285768498344
 20
59.64934182049514
 30
0.0
 11
229.6285768498344
 21
59.64934182049514
 31
0.0
  0
LINE
  5
42E
  8
0
  6
CONTINUOUS
 62
     3
 10
228.6285768498344
 20
56.64934182049514
 30
0.0
 11
229.6285768498344
 21
56.64934182049514
 31
0.0
  0
LINE
  5
42F
  8
0
  6
CONTINUOUS
 62
     3
 10
224.6285848301176
 20
59.39933761718557
 30
0.0
 11
225.3785856263098
 21
60.14933841337769
 31
0.0
  0
LINE
  5
430
  8
0
  6
CONTINUOUS
 62
     3
 10
224.6285794353211
 20
56.89934035800833
 30
0.0
 11
225.3785748367167
 21
56.14934495661272
 31
0.0
  0
LINE
  5
431
  8
0
  6
CONTINUOUS
 62
     3
 10
225.3785768498344
 20
60.14934182049514
 30
0.0
 11
225.3785768498344
 21
56.14934182049514
 31
0.0
  0
LINE
  5
432
  8
0
  6
CONTINUOUS
 62
     3
 10
220.6285805837596
 20
59.14934274658471
 30
0.0
 11
221.6285789479509
 21
60.14934111077595
 31
0.0
  0
LINE
  5
433
  8
0
  6
CONTINUOUS
 62
     3
 10
220.6285805837596
 20
57.14934062340571
 30
0.0
 11
221.6285816453491
 21
56.14933956181621
 31
0.0
  0
LINE
  5
434
  8
0
  6
CONTINUOUS
 62
     3
 10
221.6285768498344
 20
60.14934182049514
 30
0.0
 11
221.6285768498344
 21
56.14934182049514
 31
0.0
  0
LINE
  5
435
  8
0
  6
CONTINUOUS
 62
     3
 10
430.3947345022485
 20
110.5857116765958
 30
0.0
 11
427.5447235647926
 21
105.6493501245224
 31
0.0
  0
LINE
  5
436
  8
0
  6
CONTINUOUS
 62
     3
 10
436.0947175969047
 20
110.5856935966182
 30
0.0
 11
430.3947206486625
 21
110.5856935966182
 31
0.0
  0
LINE
  5
437
  8
0
  6
CONTINUOUS
 62
     3
 10
438.9447465048272
 20
105.6493481460142
 30
0.0
 11
436.0947441772685
 21
110.585701485949
 31
0.0
  0
LINE
  5
438
  8
0
  6
CONTINUOUS
 62
     3
 10
436.0947205126102
 20
100.7130047379068
 30
0.0
 11
438.9447185694924
 21
105.6493381622553
 31
0.0
  0
LINE
  5
439
  8
0
  6
CONTINUOUS
 62
     3
 10
430.3947206486625
 20
100.7129976737666
 30
0.0
 11
436.0947175969047
 21
100.7129976737666
 31
0.0
  0
LINE
  5
43A
  8
0
  6
CONTINUOUS
 62
     3
 10
427.5447333615586
 20
105.6493645212332
 30
0.0
 11
430.3947304766945
 21
100.7130217716678
 31
0.0
  0
LINE
  5
43B
  8
0
  6
CONTINUOUS
 62
     3
 10
495.7447267521781
 20
-91.20651984332322
 30
0.0
 11
529.8109193791313
 21
-91.20651984332322
 31
0.0
  0
LINE
  5
43C
  8
0
  6
CONTINUOUS
 62
     3
 10
504.2447267521781
 20
-104.2065122139287
 30
0.0
 11
504.2447267521781
 21
-91.20651221392869
 31
0.0
  0
LINE
  5
43D
  8
0
  6
CONTINUOUS
 62
     3
 10
522.2447114933891
 20
-104.2065122139287
 30
0.0
 11
522.2447114933891
 21
-91.20651221392869
 31
0.0
  0
LINE
  5
43E
  8
0
  6
CONTINUOUS
 62
     3
 10
504.2447267521781
 20
-104.2065198433232
 30
0.0
 11
522.2447114933891
 21
-104.2065198433232
 31
0.0
  0
LINE
  5
43F
  8
0
  6
CONTINUOUS
 62
     3
 10
515.6447053898734
 20
-92.20651221392869
 30
0.0
 11
510.8447023381156
 21
-92.20651221392869
 31
0.0
  0
LINE
  5
440
  8
0
  6
CONTINUOUS
 62
     3
 10
507.5447298039359
 20
-100.6452634346318
 30
0.0
 11
507.5447298039359
 21
-103.7677609932256
 31
0.0
  0
LINE
  5
441
  8
0
  6
CONTINUOUS
 62
     3
 10
518.9447084416313
 20
-100.6452634346318
 30
0.0
 11
518.9447084416313
 21
-103.7677609932256
 31
0.0
  0
LINE
  5
442
  8
0
  6
CONTINUOUS
 62
     3
 10
509.9447158477514
 20
-94.90650877808376
 30
0.0
 11
510.8447158733495
 21
-92.20650836201399
 31
0.0
  0
LINE
  5
443
  8
0
  6
CONTINUOUS
 62
     3
 10
516.5447237609772
 20
-94.90651328486557
 30
0.0
 11
515.6447272694998
 21
-92.20652372561482
 31
0.0
  0
LINE
  5
444
  8
0
  6
CONTINUOUS
 62
     3
 10
517.6947084416313
 20
-100.2065122139287
 30
0.0
 11
508.7947145451469
 21
-100.2065122139287
 31
0.0
  0
LINE
  5
445
  8
0
  6
CONTINUOUS
 62
     3
 10
516.1383729924125
 20
-100.9504010689092
 30
0.0
 11
516.1383729924125
 21
-103.4626233589482
 31
0.0
  0
LINE
  5
446
  8
0
  6
CONTINUOUS
 62
     3
 10
510.3510499943656
 20
-100.9504010689092
 30
0.0
 11
510.3510499943656
 21
-103.4626233589482
 31
0.0
  0
LINE
  5
447
  8
0
  6
CONTINUOUS
 62
     3
 10
509.1192723136979
 20
-114.2065131765126
 30
0.0
 11
508.9447217775641
 21
-104.206518056889
 31
0.0
  0
LINE
  5
448
  8
0
  6
CONTINUOUS
 62
     3
 10
517.37016974984
 20
-114.20651979114
 30
0.0
 11
517.5447206240473
 21
-104.2065170432836
 31
0.0
  0
LINE
  5
449
  8
0
  6
CONTINUOUS
 62
     3
 10
466.2447191227836
 20
-66.35066199420213
 30
0.0
 11
480.2447191227836
 21
-66.35066199420213
 31
0.0
  0
LINE
  5
44A
  8
0
  6
CONTINUOUS
 62
     3
 10
466.2447191227836
 20
-16.35066199420213
 30
0.0
 11
480.2447191227836
 21
-16.35066199420213
 31
0.0
  0
LINE
  5
44B
  8
0
  6
CONTINUOUS
 62
     3
 10
480.2447191227836
 20
-30.22364783404588
 30
0.0
 11
480.2447191227836
 21
-52.47767996905564
 31
0.0
  0
LINE
  5
44C
  8
0
  6
CONTINUOUS
 62
     3
 10
466.2447191227836
 20
-60.22364783404588
 30
0.0
 11
466.2447191227836
 21
-76.35066199420213
 31
0.0
  0
LINE
  5
44D
  8
0
  6
CONTINUOUS
 62
     3
 10
480.2447191227836
 20
-60.22364783404588
 30
0.0
 11
480.2447191227836
 21
-76.35066199420213
 31
0.0
  0
LINE
  5
44E
  8
0
  6
CONTINUOUS
 62
     3
 10
466.2447191227836
 20
-30.22364783404588
 30
0.0
 11
466.2447191227836
 21
-52.47767996905564
 31
0.0
  0
LINE
  5
44F
  8
0
  6
CONTINUOUS
 62
     3
 10
483.2447191227836
 20
-10.15744185565232
 30
0.0
 11
483.2447191227836
 21
-13.35066294787644
 31
0.0
  0
LINE
  5
450
  8
0
  6
CONTINUOUS
 62
     3
 10
480.2447191227836
 20
-13.35066294787644
 30
0.0
 11
490.7447114933891
 21
-13.35066294787644
 31
0.0
  0
LINE
  5
451
  8
0
  6
CONTINUOUS
 62
     3
 10
463.2447191227836
 20
-10.15744185565232
 30
0.0
 11
463.2447191227836
 21
-13.35066294787644
 31
0.0
  0
LINE
  5
452
  8
0
  6
CONTINUOUS
 62
     3
 10
480.2447191227836
 20
-13.35066294787644
 30
0.0
 11
480.2447191227836
 21
-22.47767996905564
 31
0.0
  0
LINE
  5
453
  8
0
  6
CONTINUOUS
 62
     3
 10
466.2447191227836
 20
-13.35066294787644
 30
0.0
 11
466.2447191227836
 21
-22.47767996905564
 31
0.0
  0
LINE
  5
454
  8
0
  6
CONTINUOUS
 62
     3
 10
455.7447038639945
 20
-13.35066294787644
 30
0.0
 11
466.2447191227836
 21
-13.35066294787644
 31
0.0
  0
LINE
  5
455
  8
0
  6
CONTINUOUS
 62
     3
 10
455.7447038639945
 20
-76.35066199420213
 30
0.0
 11
490.7447114933891
 21
-76.35066199420213
 31
0.0
  0
LINE
  5
456
  8
0
  6
CONTINUOUS
 62
     3
 10
445.4947205515525
 20
-74.5432992834893
 30
0.0
 11
455.7447243066924
 21
-76.35065155010476
 31
0.0
  0
LINE
  5
457
  8
0
  6
CONTINUOUS
 62
     3
 10
490.7447203768167
 20
-76.35065461210648
 30
0.0
 11
500.9947241319566
 21
-74.54330234549103
 31
0.0
  0
LINE
  5
458
  8
0
  6
CONTINUOUS
 62
     3
 10
445.4947191227836
 20
-72.70723700640916
 30
0.0
 11
445.4947191227836
 21
-74.54331183551072
 31
0.0
  0
LINE
  5
459
  8
0
  6
CONTINUOUS
 62
     3
 10
500.9947114933891
 20
-72.70723700640916
 30
0.0
 11
500.9947114933891
 21
-74.54331183551072
 31
0.0
  0
LINE
  5
45A
  8
0
  6
CONTINUOUS
 62
     3
 10
490.7447114933891
 20
-1.450509072525492
 30
0.0
 11
490.7447114933891
 21
-76.35066199420213
 31
0.0
  0
LINE
  5
45B
  8
0
  6
CONTINUOUS
 62
     3
 10
455.7447191227836
 20
-1.450509072525492
 30
0.0
 11
455.7447191227836
 21
-76.35066199420213
 31
0.0
  0
LINE
  5
45C
  8
0
  6
CONTINUOUS
 62
     3
 10
480.2447191227836
 20
114.7763521659541
 30
0.0
 11
480.2447191227836
 21
92.52232384564162
 31
0.0
  0
LINE
  5
45D
  8
0
  6
CONTINUOUS
 62
     3
 10
466.2447191227836
 20
114.7763521659541
 30
0.0
 11
466.2447191227836
 21
92.52232384564162
 31
0.0
  0
LINE
  5
45E
  8
0
  6
CONTINUOUS
 62
     3
 10
480.2447191227836
 20
84.77635216595412
 30
0.0
 11
480.2447191227836
 21
75.64933800579787
 31
0.0
  0
LINE
  5
45F
  8
0
  6
CONTINUOUS
 62
     3
 10
466.2447191227836
 20
84.77635216595412
 30
0.0
 11
466.2447191227836
 21
75.64933800579787
 31
0.0
  0
LINE
  5
460
  8
0
  6
CONTINUOUS
 62
     3
 10
480.2447191227836
 20
75.64933800579787
 30
0.0
 11
490.7447114933891
 21
75.64933800579787
 31
0.0
  0
LINE
  5
461
  8
0
  6
CONTINUOUS
 62
     3
 10
466.2447191227836
 20
78.64933800579787
 30
0.0
 11
480.2447191227836
 21
78.64933800579787
 31
0.0
  0
LINE
  5
462
  8
0
  6
CONTINUOUS
 62
     3
 10
466.2447191227836
 20
128.6493303764033
 30
0.0
 11
480.2447191227836
 21
128.6493303764033
 31
0.0
  0
LINE
  5
463
  8
0
  6
CONTINUOUS
 62
     3
 10
483.2447191227836
 20
75.64933800579787
 30
0.0
 11
483.2447191227836
 21
72.45611595989944
 31
0.0
  0
LINE
  5
464
  8
0
  6
CONTINUOUS
 62
     3
 10
463.2447191227836
 20
75.64933800579787
 30
0.0
 11
463.2447191227836
 21
72.45611595989944
 31
0.0
  0
LINE
  5
465
  8
0
  6
CONTINUOUS
 62
     3
 10
466.2447191227836
 20
138.6493380057979
 30
0.0
 11
466.2447191227836
 21
122.5223238456416
 31
0.0
  0
LINE
  5
466
  8
0
  6
CONTINUOUS
 62
     3
 10
480.2447191227836
 20
138.6493380057979
 30
0.0
 11
480.2447191227836
 21
122.5223238456416
 31
0.0
  0
LINE
  5
467
  8
0
  6
CONTINUOUS
 62
     3
 10
455.7447038639945
 20
75.64933800579787
 30
0.0
 11
466.2447191227836
 21
75.64933800579787
 31
0.0
  0
LINE
  5
468
  8
0
  6
CONTINUOUS
 62
     3
 10
490.7447114933891
 20
138.6493380057979
 30
0.0
 11
490.7447114933891
 21
63.74918389202834
 31
0.0
  0
LINE
  5
469
  8
0
  6
CONTINUOUS
 62
     3
 10
455.7447191227836
 20
138.6493380057979
 30
0.0
 11
455.7447191227836
 21
63.74918389202834
 31
0.0
  0
LINE
  5
46A
  8
0
  6
CONTINUOUS
 62
     3
 10
490.7447177087222
 20
138.6493161142408
 30
0.0
 11
500.7447177071578
 21
136.8860462564845
 31
0.0
  0
LINE
  5
46B
  8
0
  6
CONTINUOUS
 62
     3
 10
445.7446995720654
 20
136.8860228681875
 30
0.0
 11
455.744699570501
 21
138.6492927259438
 31
0.0
  0
LINE
  5
46C
  8
0
  6
CONTINUOUS
 62
     3
 10
455.7447038639945
 20
138.6493380057979
 30
0.0
 11
490.7447114933891
 21
138.6493380057979
 31
0.0
  0
LINE
  5
46D
  8
0
  6
CONTINUOUS
 62
     3
 10
500.7447114933891
 20
136.8860628593135
 30
0.0
 11
500.7447114933891
 21
135.0723726737666
 31
0.0
  0
LINE
  5
46E
  8
0
  6
CONTINUOUS
 62
     3
 10
445.7447038639945
 20
136.8860628593135
 30
0.0
 11
445.7447038639945
 21
135.0723726737666
 31
0.0
  0
LINE
  5
46F
  8
0
  6
CONTINUOUS
 62
     3
 10
516.0947120937251
 20
-48.28702842399103
 30
0.0
 11
518.9447192164823
 21
-43.35067347916662
 31
0.0
  0
LINE
  5
470
  8
0
  6
CONTINUOUS
 62
     3
 10
510.3947206486625
 20
-48.28701758502244
 30
0.0
 11
516.0947175969047
 21
-48.28701758502244
 31
0.0
  0
LINE
  5
471
  8
0
  6
CONTINUOUS
 62
     3
 10
507.5446958994125
 20
-43.35066930207118
 30
0.0
 11
510.3947001343185
 21
-48.28702594563161
 31
0.0
  0
LINE
  5
472
  8
0
  6
CONTINUOUS
 62
     3
 10
510.3947112688072
 20
-38.41432572237441
 30
0.0
 11
507.5447093972231
 21
-43.35066575396955
 31
0.0
  0
LINE
  5
473
  8
0
  6
CONTINUOUS
 62
     3
 10
516.0947175969047
 20
-38.41432166217088
 30
0.0
 11
510.3947206486625
 21
-38.41432166217088
 31
0.0
  0
LINE
  5
474
  8
0
  6
CONTINUOUS
 62
     3
 10
518.944700048489
 20
-43.35069441285746
 30
0.0
 11
516.0947029333531
 21
-38.41435166329198
 31
0.0
  0
CIRCLE
  5
475
  8
0
  6
CONTINUOUS
 62
     3
 10
433.2447191227836
 20
105.6493380057979
 30
0.0
 40
9.0
  0
CIRCLE
  5
476
  8
0
  6
CONTINUOUS
 62
     3
 10
433.2447191227836
 20
105.6493380057979
 30
0.0
 40
0.75
  0
CIRCLE
  5
477
  8
0
  6
CONTINUOUS
 62
     3
 10
433.2447191227836
 20
105.6493380057979
 30
0.0
 40
3.299999952316284
  0
CIRCLE
  5
478
  8
0
  6
CONTINUOUS
 62
     3
 10
433.2447191227836
 20
105.6493380057979
 30
0.0
 40
2.400000095367432
  0
ARC
  5
479
  8
0
  6
CONTINUOUS
 62
     3
 10
513.2447267521781
 20
-94.90650916217088
 30
0.0
 40
3.299999952316284
 50
343.4828250301777
 51
359.9999846699699
  0
ARC
  5
47A
  8
0
  6
CONTINUOUS
 62
     3
 10
513.2447267521781
 20
-94.90650916217088
 30
0.0
 40
3.299999952316284
 50
180.0000223118003
 51
196.517181913697
  0
ARC
  5
47B
  8
0
  6
CONTINUOUS
 62
     3
 10
517.6947237004204
 20
-102.2065122139287
 30
0.0
 40
2.0
 50
270.0000043257107
 51
308.6821932938098
  0
ARC
  5
47C
  8
0
  6
CONTINUOUS
 62
     3
 10
508.7947145451469
 20
-102.2065198433232
 30
0.0
 40
2.0
 50
270.0000043257107
 51
321.0931661100998
  0
ARC
  5
47D
  8
0
  6
CONTINUOUS
 62
     3
 10
513.2447267521781
 20
-98.20651984332322
 30
0.0
 40
6.0
 50
270.000004325711
 51
298.8342353031886
  0
ARC
  5
47E
  8
0
  6
CONTINUOUS
 62
     3
 10
513.2447267521781
 20
-106.2065122139287
 30
0.0
 40
6.0
 50
61.16577152700082
 51
118.8342129913882
  0
ARC
  5
47F
  8
0
  6
CONTINUOUS
 62
     3
 10
513.2447267521781
 20
-98.20651984332322
 30
0.0
 40
6.0
 50
241.1657596878553
 51
270.000004325711
  0
ARC
  5
480
  8
0
  6
CONTINUOUS
 62
     3
 10
517.6947237004204
 20
-102.2065122139287
 30
0.0
 40
2.0
 50
218.9068425413222
 51
269.9999974955215
  0
ARC
  5
481
  8
0
  6
CONTINUOUS
 62
     3
 10
517.6947237004204
 20
-102.2065122139287
 30
0.0
 40
2.0
 50
51.31783061185255
 51
141.093116477543
  0
ARC
  5
482
  8
0
  6
CONTINUOUS
 62
     3
 10
508.7947145451469
 20
-102.2065198433232
 30
0.0
 40
2.0
 50
38.90685779556247
 51
128.6821573216311
  0
ARC
  5
483
  8
0
  6
CONTINUOUS
 62
     3
 10
508.7947145451469
 20
-102.2065198433232
 30
0.0
 40
2.0
 50
231.3178153576123
 51
269.9999974955215
  0
ARC
  5
484
  8
0
  6
CONTINUOUS
 62
     3
 10
522.0447145451469
 20
-96.23970770953416
 30
0.0
 40
5.650000095367432
 50
175.9910937775089
 51
225.0592547371508
  0
ARC
  5
485
  8
0
  6
CONTINUOUS
 62
     3
 10
504.4447237004203
 20
-96.23971533892869
 30
0.0
 40
5.650000095367432
 50
314.9407502718058
 51
364.0089061088054
  0
ARC
  5
486
  8
0
  6
CONTINUOUS
 62
     3
 10
513.2447267521781
 20
-92.90651679156541
 30
0.0
 40
1.5
 50
27.8181532535261
 51
152.1818466327883
  0
CIRCLE
  5
487
  8
0
  6
CONTINUOUS
 62
     3
 10
415.5024629582328
 20
-2.188149214966288
 30
0.0
 40
10.0
  0
CIRCLE
  5
488
  8
0
  6
CONTINUOUS
 62
     3
 10
530.9869905461234
 20
-2.188141585571756
 30
0.0
 40
10.0
  0
CIRCLE
  5
489
  8
0
  6
CONTINUOUS
 62
     3
 10
530.9869600285454
 20
64.48684716107131
 30
0.0
 40
10.0
  0
CIRCLE
  5
48A
  8
0
  6
CONTINUOUS
 62
     3
 10
415.5024782170219
 20
64.48685479046584
 30
0.0
 40
10.0
  0
CIRCLE
  5
48B
  8
0
  6
CONTINUOUS
 62
     3
 10
415.5024782170219
 20
64.48685479046584
 30
0.0
 40
7.0
  0
CIRCLE
  5
48C
  8
0
  6
CONTINUOUS
 62
     3
 10
530.9869600285454
 20
64.48684716107131
 30
0.0
 40
7.0
  0
CIRCLE
  5
48D
  8
0
  6
CONTINUOUS
 62
     3
 10
530.9869905461234
 20
-2.188141585571756
 30
0.0
 40
7.0
  0
CIRCLE
  5
48E
  8
0
  6
CONTINUOUS
 62
     3
 10
434.2735658635062
 20
8.649350403563986
 30
0.0
 40
3.0
  0
CIRCLE
  5
48F
  8
0
  6
CONTINUOUS
 62
     3
 10
512.2158723820609
 20
8.649356125609884
 30
0.0
 40
3.0
  0
ARC
  5
490
  8
0
  6
CONTINUOUS
 62
     3
 10
473.2447191227836
 20
31.14933800579787
 30
0.0
 40
105.5
 50
279.5481716532819
 51
440.4518283467181
  0
CIRCLE
  5
491
  8
0
  6
CONTINUOUS
 62
     3
 10
434.2735811222953
 20
53.6493570792842
 30
0.0
 40
3.0
  0
CIRCLE
  5
492
  8
0
  6
CONTINUOUS
 62
     3
 10
512.2158723820609
 20
53.64934944988967
 30
0.0
 40
3.0
  0
CIRCLE
  5
493
  8
0
  6
CONTINUOUS
 62
     3
 10
473.2447191227836
 20
31.14933800579787
 30
0.0
 40
32.5
  0
CIRCLE
  5
494
  8
0
  6
CONTINUOUS
 62
     3
 10
446.2447038639945
 20
31.14933800579787
 30
0.0
 40
2.650000095367432
  0
CIRCLE
  5
495
  8
0
  6
CONTINUOUS
 62
     3
 10
500.2447114933891
 20
31.14933800579787
 30
0.0
 40
2.650000095367432
  0
ARC
  5
496
  8
0
  6
CONTINUOUS
 62
     3
 10
473.2447191227836
 20
31.14933800579787
 30
0.0
 40
40.0
 50
115.9444965573391
 51
244.0554998001952
  0
ARC
  5
497
  8
0
  6
CONTINUOUS
 62
     3
 10
473.2447191227836
 20
31.14933800579787
 30
0.0
 40
42.5
 50
245.6842440125205
 51
294.3157373181448
  0
ARC
  5
498
  8
0
  6
CONTINUOUS
 62
     3
 10
473.2447191227836
 20
31.14933800579787
 30
0.0
 40
42.5
 50
65.68426268185513
 51
114.3157559874795
  0
CIRCLE
  5
499
  8
0
  6
CONTINUOUS
 62
     3
 10
473.2447191227836
 20
31.14933800579787
 30
0.0
 40
37.0
  0
ARC
  5
49A
  8
0
  6
CONTINUOUS
 62
     3
 10
473.2447191227836
 20
31.14933800579787
 30
0.0
 40
40.0
 50
295.9444778880044
 51
424.0555221119956
  0
ARC
  5
49B
  8
0
  6
CONTINUOUS
 62
     3
 10
473.2447191227836
 20
31.14933800579787
 30
0.0
 40
107.5
 50
279.368913338515
 51
360.0
  0
ARC
  5
49C
  8
0
  6
CONTINUOUS
 62
     3
 10
473.2447191227836
 20
31.14933800579787
 30
0.0
 40
107.5
 50
99.36893200784964
 51
260.6310575194955
  0
ARC
  5
49D
  8
0
  6
CONTINUOUS
 62
     3
 10
473.2447191227836
 20
31.14933800579787
 30
0.0
 40
105.5
 50
99.54819032261662
 51
260.451778714161
  0
ARC
  5
49E
  8
0
  6
CONTINUOUS
 62
     3
 10
473.2447191227836
 20
31.14933800579787
 30
0.0
 40
107.5
 50
0.0
 51
80.63108666148504
  0
CIRCLE
  5
49F
  8
0
  6
CONTINUOUS
 62
     3
 10
473.2447191227836
 20
31.14933800579787
 30
0.0
 40
24.0
  0
CIRCLE
  5
4A0
  8
0
  6
CONTINUOUS
 62
     3
 10
513.2447114933891
 20
-43.35066199420213
 30
0.0
 40
9.0
  0
CIRCLE
  5
4A1
  8
0
  6
CONTINUOUS
 62
     3
 10
513.2447114933891
 20
-43.35066199420213
 30
0.0
 40
0.75
  0
CIRCLE
  5
4A2
  8
0
  6
CONTINUOUS
 62
     3
 10
513.2447114933891
 20
-43.35066199420213
 30
0.0
 40
3.299999952316284
  0
CIRCLE
  5
4A3
  8
0
  6
CONTINUOUS
 62
     3
 10
513.2447114933891
 20
-43.35066199420213
 30
0.0
 40
2.400000095367432
  0
CIRCLE
  5
4A4
  8
0
  6
CONTINUOUS
 62
     3
 10
473.2447191227836
 20
58.14934182049514
 30
0.0
 40
2.0
  0
CIRCLE
  5
4A5
  8
0
  6
CONTINUOUS
 62
     3
 10
449.8620286930961
 20
17.64933609844924
 30
0.0
 40
2.0
  0
CIRCLE
  5
4A6
  8
0
  6
CONTINUOUS
 62
     3
 10
496.6274019230766
 20
17.64933609844924
 30
0.0
 40
2.0
  0
LINE
  5
4A7
  8
0
  6
CENTER
 62
     7
 10
359.4654985417289
 20
31.14933800579787
 30
0.0
 11
586.7447114933891
 21
31.14933800579787
 31
0.0
  0
LINE
  5
4A8
  8
0
  6
CENTER
 62
     7
 10
156.2698122013969
 20
31.14933800579787
 30
0.0
 11
261.9681039714939
 21
31.14933800579787
 31
0.0
  0
LINE
  5
4A9
  8
0
  6
CENTER
 62
     7
 10
230.7950349797172
 20
-13.85064673541307
 30
0.0
 11
263.0116945256156
 21
-13.85064673541307
 31
0.0
  0
LINE
  5
4AA
  8
0
  6
CENTER
 62
     7
 10
147.1950288762016
 20
-35.52564978717088
 30
0.0
 11
229.0485750187797
 21
-35.52564978717088
 31
0.0
  0
LINE
  5
4AB
  8
0
  6
CENTER
 62
     7
 10
237.9324861515922
 20
118.6493380057979
 30
0.0
 11
280.570021246807
 21
118.6493380057979
 31
0.0
  0
LINE
  5
4AC
  8
0
  6
CENTER
 62
     7
 10
237.1991640080375
 20
88.64933800579787
 30
0.0
 11
280.3866868962211
 21
88.64933800579787
 31
0.0
  0
LINE
  5
4AD
  8
0
  6
CENTER
 62
     7
 10
218.9331422795219
 20
58.14933800579787
 30
0.0
 11
233.6615816105766
 21
58.14933800579787
 31
0.0
  0
LINE
  5
4AE
  8
0
  6
CENTER
 62
     7
 10
433.2447191227836
 20
120.8845217216182
 30
0.0
 11
433.2447191227836
 21
91.99808525921584
 31
0.0
  0
LINE
  5
4AF
  8
0
  6
CENTER
 62
     7
 10
504.3976095690109
 20
13.16323983267957
 30
0.0
 11
544.8433805576774
 21
-10.18813435530397
 31
0.0
  0
LINE
  5
4B0
  8
0
  6
CENTER
 62
     7
 10
504.3488001512656
 20
49.10729659978473
 30
0.0
 11
544.8433656798212
 21
72.48684232539576
 31
0.0
  0
LINE
  5
4B1
  8
0
  6
CENTER
 62
     7
 10
460.8491502751273
 20
-26.35066390155076
 30
0.0
 11
485.4119096745414
 21
-26.35066390155076
 31
0.0
  0
LINE
  5
4B2
  8
0
  6
CENTER
 62
     7
 10
461.1766496647758
 20
-56.35066199420213
 30
0.0
 11
485.4119096745414
 21
-56.35066199420213
 31
0.0
  0
LINE
  5
4B3
  8
0
  6
CENTER
 62
     7
 10
461.1321779240531
 20
88.64933800579787
 30
0.0
 11
485.465513800518
 21
88.64933800579787
 31
0.0
  0
LINE
  5
4B4
  8
0
  6
CENTER
 62
     7
 10
461.1321779240531
 20
118.6493380057979
 30
0.0
 11
485.465513800518
 21
118.6493380057979
 31
0.0
  0
LINE
  5
4B5
  8
0
  6
CENTER
 62
     7
 10
500.2447114933891
 20
36.67599892498733
 30
0.0
 11
500.2447114933891
 21
25.14934754254104
 31
0.0
  0
LINE
  5
4B6
  8
0
  6
CENTER
 62
     7
 10
446.2447038639945
 20
36.87323021771194
 30
0.0
 11
446.2447038639945
 21
25.14934754254104
 31
0.0
  0
LINE
  5
4B7
  8
0
  6
CENTER
 62
     7
 10
397.4655061711234
 20
105.6493380057979
 30
0.0
 11
446.9841218937797
 21
105.6493380057979
 31
0.0
  0
LINE
  5
4B8
  8
0
  6
CENTER
 62
     7
 10
401.6460711872089
 20
72.48686162287257
 30
0.0
 11
442.4076055352402
 21
48.95318139450104
 31
0.0
  0
LINE
  5
4B9
  8
0
  6
CENTER
 62
     7
 10
401.646057548212
 20
-10.18815293752509
 30
0.0
 11
439.144203900904
 21
11.46140956142803
 31
0.0
  0
LINE
  5
4BA
  8
0
  6
CENTER
 62
     7
 10
529.279120062725
 20
-43.35066199420213
 30
0.0
 11
499.5053163517875
 21
-43.35066199420213
 31
0.0
  0
LINE
  5
4BB
  8
0
  6
CENTER
 62
     7
 10
513.2447114933891
 20
-58.58584952471971
 30
0.0
 11
513.2447114933891
 21
-29.69941115496873
 31
0.0
  0
LINE
  5
4BC
  8
0
  6
CENTER
 62
     7
 10
445.6270193808401
 20
15.20426441035797
 30
0.0
 11
454.231687066595
 21
20.17217106615193
 31
0.0
  0
LINE
  5
4BD
  8
0
  6
CENTER
 62
     7
 10
500.862415970718
 20
15.20424301342258
 30
0.0
 11
492.2577488771837
 21
20.17215055754754
 31
0.0
  0
ARC
  5
4BE
  8
0
  6
CENTER
 62
     7
 10
473.2447191227836
 20
31.14933800579787
 30
0.0
 40
45.0
 50
319.8006552625124
 51
340.19940966218
  0
ARC
  5
4BF
  8
0
  6
CENTER
 62
     7
 10
473.2447191227836
 20
31.14933800579787
 30
0.0
 40
45.0
 50
19.85369505861688
 51
40.20351798307053
  0
ARC
  5
4C0
  8
0
  6
CENTER
 62
     7
 10
473.2447191227836
 20
31.14933800579787
 30
0.0
 40
45.0
 50
199.8005904515056
 51
220.1993328983422
  0
ARC
  5
4C1
  8
0
  6
CENTER
 62
     7
 10
473.2447191227836
 20
31.14933800579787
 30
0.0
 40
66.67500305175781
 50
16.21753627848116
 51
43.78247905154928
  0
ARC
  5
4C2
  8
0
  6
CENTER
 62
     7
 10
473.2447191227836
 20
31.14933800579787
 30
0.0
 40
66.67500305175781
 50
316.217551684302
 51
343.7824961649174
  0
ARC
  5
4C3
  8
0
  6
CENTER
 62
     7
 10
473.2447191227836
 20
31.14933800579787
 30
0.0
 40
66.67500305175781
 50
196.2174868732952
 51
223.7824364765525
  0
ARC
  5
4C4
  8
0
  6
CENTER
 62
     7
 10
473.2447191227836
 20
31.14933800579787
 30
0.0
 40
66.67500305175781
 50
136.2175362026908
 51
163.7824721455698
  0
ARC
  5
4C5
  8
0
  6
CENTER
 62
     7
 10
473.2447191227836
 20
31.14933800579787
 30
0.0
 40
45.0
 50
139.4828857203338
 51
159.8102663507221
  0
ARC
  5
4C6
  8
0
  6
CENTER
 62
     7
 10
473.2447191227836
 20
31.14933800579787
 30
0.0
 40
27.0
 50
76.14660301850812
 51
102.6533104325203
  0
ARC
  5
4C7
  8
0
  6
CENTER
 62
     7
 10
473.2447191227836
 20
31.14933800579787
 30
0.0
 40
27.0
 50
196.1466031700888
 51
222.653310584101
  0
ARC
  5
4C8
  8
0
  6
CENTER
 62
     7
 10
473.2447191227836
 20
31.14933800579787
 30
0.0
 40
27.0
 50
316.1465996792039
 51
342.6533088007635
  0
LINE
  5
4C9
  8
0
  6
CENTER
 62
     7
 10
513.2447267521781
 20
-118.1458356392217
 30
0.0
 11
513.2447267521781
 21
-87.26262641070603
 31
0.0
  0
LINE
  5
4CA
  8
0
  6
CENTER
 62
     7
 10
473.2447191227836
 20
144.6493380057979
 30
0.0
 11
473.2447191227836
 21
49.49744797801338
 31
0.0
  0
LINE
  5
4CB
  8
0
  6
CENTER
 62
     7
 10
473.2447191227836
 20
41.1425206124853
 30
0.0
 11
473.2447191227836
 21
-82.3506543648076
 31
0.0
  0
LINE
  5
4CC
  8
0
  6
CENTER
 62
     7
 10
213.7116914738578
 20
-52.45083082045994
 30
0.0
 11
213.7116914738578
 21
-79.36845786204833
 31
0.0
  0
LINE
  5
4CD
  8
0
  6
CONTINUOUS
 62
     7
 10
258.2668628972402
 20
78.64933800579787
 30
0.0
 11
278.0999282762595
 21
78.64933800579787
 31
0.0
  0
LINE
  5
4CE
  8
0
  6
DASHED2
 62
     7
 10
221.2059303168778
 20
58.14933621845206
 30
0.0
 11
220.6285797004227
 21
59.14933680198523
 31
0.0
  0
LINE
  5
4CF
  8
0
  6
DASHED2
 62
     7
 10
221.2059324046192
 20
58.14934038517971
 30
0.0
 11
220.6285827418384
 21
57.14934145345889
 31
0.0
  0
LINE
  5
4D0
  8
0
  6
DASHED2
 62
     7
 10
210.311691473858
 20
-55.35066199420201
 30
0.0
 11
213.7116914738577
 21
-53.38767107895746
 31
0.0
  0
LINE
  5
4D1
  8
0
  6
DASHED2
 62
     7
 10
210.3116914738578
 20
-55.35066199420213
 30
0.0
 11
217.1116914738578
 21
-55.35066199420213
 31
0.0
  0
LINE
  5
4D2
  8
0
  6
DASHED2
 62
     7
 10
209.7116914738578
 20
-60.35066199420213
 30
0.0
 11
209.7116914738578
 21
-76.35066199420213
 31
0.0
  0
LINE
  5
4D3
  8
0
  6
DASHED2
 62
     7
 10
210.3116914738578
 20
-55.35066199420213
 30
0.0
 11
210.3116914738578
 21
-76.35066199420213
 31
0.0
  0
LINE
  5
4D4
  8
0
  6
DASHED2
 62
     7
 10
217.1116914738576
 20
-55.35066199420201
 30
0.0
 11
213.7116914738579
 21
-53.38767107895746
 31
0.0
  0
LINE
  5
4D5
  8
0
  6
DASHED2
 62
     7
 10
209.7116914738578
 20
-60.35066199420213
 30
0.0
 11
217.7116914738578
 21
-60.35066199420213
 31
0.0
  0
LINE
  5
4D6
  8
0
  6
DASHED2
 62
     7
 10
217.1116914738578
 20
-55.35066199420213
 30
0.0
 11
217.1116914738578
 21
-76.35066199420213
 31
0.0
  0
LINE
  5
4D7
  8
0
  6
DASHED2
 62
     7
 10
217.7116914738578
 20
-60.35066199420213
 30
0.0
 11
217.7116914738578
 21
-76.35066199420213
 31
0.0
  0
LINE
  5
4D8
  8
0
  6
DASHED2
 62
     7
 10
415.2447038639945
 20
97.64933800579787
 30
0.0
 11
426.7988420475883
 21
97.64933800579787
 31
0.0
  0
LINE
  5
4D9
  8
0
  6
DASHED2
 62
     7
 10
415.2447038639945
 20
113.6493380057979
 30
0.0
 11
427.465513800518
 21
113.6493380057979
 31
0.0
  0
LINE
  5
4DA
  8
0
  6
DASHED2
 62
     7
 10
411.2447038639945
 20
110.0993425834346
 30
0.0
 11
411.2447038639945
 21
101.1993486869502
 31
0.0
  0
LINE
  5
4DB
  8
0
  6
DASHED2
 62
     7
 10
415.2167911014617
 20
102.0991095912709
 30
0.0
 11
422.654108160538
 21
102.2289284364885
 31
0.0
  0
LINE
  5
4DC
  8
0
  6
DASHED2
 62
     7
 10
415.216770564804
 20
109.1996141164863
 30
0.0
 11
422.6689855622493
 21
109.0695352268011
 31
0.0
  0
LINE
  5
4DD
  8
0
  6
DASHED2
 62
     7
 10
411.988592718975
 20
102.7556917655635
 30
0.0
 11
414.5008150090141
 21
102.7556917655635
 31
0.0
  0
LINE
  5
4DE
  8
0
  6
DASHED2
 62
     7
 10
411.988592718975
 20
108.5430147636104
 30
0.0
 11
414.5008150090141
 21
108.5430147636104
 31
0.0
  0
LINE
  5
4DF
  8
0
  6
DASHED2
 62
     7
 10
406.9447008122367
 20
108.3946764457393
 30
0.0
 11
406.9447008122367
 21
102.8538668143916
 31
0.0
  0
LINE
  5
4E0
  8
0
  6
DASHED2
 62
     7
 10
411.6834550846976
 20
111.3493502128291
 30
0.0
 11
414.8059526432914
 21
111.3493502128291
 31
0.0
  0
LINE
  5
4E1
  8
0
  6
DASHED2
 62
     7
 10
405.9447354185624
 20
108.9493022538337
 30
0.0
 11
403.244731383553
 21
108.0493010219226
 31
0.0
  0
LINE
  5
4E2
  8
0
  6
DASHED2
 62
     7
 10
405.9446693983846
 20
102.3492607882964
 30
0.0
 11
403.2446644586402
 21
103.2492623217858
 31
0.0
  0
LINE
  5
4E3
  8
0
  6
DASHED2
 62
     7
 10
411.6834550846976
 20
99.94935631634475
 30
0.0
 11
414.8059526432914
 21
99.94935631634475
 31
0.0
  0
LINE
  5
4E4
  8
0
  6
DASHED2
 62
     7
 10
405.9447008122367
 20
108.9493486869502
 30
0.0
 11
405.9447008122367
 21
102.3493425834346
 31
0.0
  0
LINE
  5
4E5
  8
0
  6
DASHED2
 62
     7
 10
403.2447038639945
 20
108.0493471610713
 30
0.0
 11
403.2447038639945
 21
103.2493441093135
 31
0.0
  0
LINE
  5
4E6
  8
0
  6
DASHED2
 62
     7
 10
415.230738089172
 20
101.2992128491039
 30
0.0
 11
422.6680551482484
 21
101.4290316943214
 31
0.0
  0
LINE
  5
4E7
  8
0
  6
DASHED2
 62
     7
 10
415.230725180747
 20
109.999510725502
 30
0.0
 11
422.6829478064249
 21
109.8694317026656
 31
0.0
  0
LINE
  5
4E8
  8
0
  6
DASHED2
 62
     7
 10
386.5037046421928
 20
94.64933800579787
 30
0.0
 11
415.2447038639945
 21
94.64933800579787
 31
0.0
  0
LINE
  5
4E9
  8
0
  6
DASHED2
 62
     7
 10
415.2447038639945
 20
121.6603853690791
 30
0.0
 11
415.2447038639945
 21
94.6493456351924
 31
0.0
  0
ARC
  5
4EA
  8
0
  6
DASHED2
 62
     7
 10
413.2447038639945
 20
101.1993563163448
 30
0.0
 40
2.0
 50
128.9068568849459
 51
218.6821529959199
  0
ARC
  5
4EB
  8
0
  6
DASHED2
 62
     7
 10
403.9447008122367
 20
105.6493380057979
 30
0.0
 40
1.5
 50
117.818154050457
 51
242.1818423070773
  0
ARC
  5
4EC
  8
0
  6
DASHED2
 62
     7
 10
407.2778917302055
 20
96.84935021282912
 30
0.0
 40
5.650000095367432
 50
44.94074594609459
 51
94.00890690573625
  0
ARC
  5
4ED
  8
0
  6
DASHED2
 62
     7
 10
407.2778917302055
 20
114.4493563163448
 30
0.0
 40
5.650000095367432
 50
265.9910930942637
 51
315.0592540539054
  0
ARC
  5
4EE
  8
0
  6
DASHED2
 62
     7
 10
413.2447038639945
 20
101.1993563163448
 30
0.0
 40
2.0
 50
321.3178110319012
 51
360.0
  0
ARC
  5
4EF
  8
0
  6
DASHED2
 62
     7
 10
413.2447038639945
 20
110.0993502128291
 30
0.0
 40
2.0
 50
141.3178297012362
 51
231.0931121518319
  0
ARC
  5
4F0
  8
0
  6
DASHED2
 62
     7
 10
413.2447038639945
 20
101.1993563163448
 30
0.0
 40
2.0
 50
0.0
 51
51.09316519948326
  0
ARC
  5
4F1
  8
0
  6
DASHED2
 62
     7
 10
413.2447038639945
 20
110.0993502128291
 30
0.0
 40
2.0
 50
308.9068348005167
 51
360.0
  0
ARC
  5
4F2
  8
0
  6
DASHED2
 62
     7
 10
409.2447038639945
 20
105.6493380057979
 30
0.0
 40
6.0
 50
331.1657621923334
 51
360.0
  0
ARC
  5
4F3
  8
0
  6
DASHED2
 62
     7
 10
417.2447038639945
 20
105.6493380057979
 30
0.0
 40
6.0
 50
151.1657740314788
 51
208.8342086656771
  0
ARC
  5
4F4
  8
0
  6
DASHED2
 62
     7
 10
409.2447038639945
 20
105.6493380057979
 30
0.0
 40
6.0
 50
0.0
 51
28.83423780766658
  0
ARC
  5
4F5
  8
0
  6
DASHED2
 62
     7
 10
413.2447038639945
 20
110.0993502128291
 30
0.0
 40
2.0
 50
0.0
 51
38.68218896809866
  0
ARC
  5
4F6
  8
0
  6
DASHED2
 62
     7
 10
405.9447008122367
 20
105.6493380057979
 30
0.0
 40
3.299999952316284
 50
270.0000179860894
 51
286.5171775879861
  0
ARC
  5
4F7
  8
0
  6
DASHED2
 62
     7
 10
405.9447008122367
 20
105.6493380057979
 30
0.0
 40
3.299999952316284
 50
73.48282241201397
 51
89.99998201391068
  0
LINE
  5
4F8
  8
0
  6
DASHED2
 62
     7
 10
386.7447191227837
 20
34.54933800579768
 30
0.0
 11
388.7077100380283
 21
31.14933800579799
 31
0.0
  0
LINE
  5
4F9
  8
0
  6
DASHED2
 62
     7
 10
386.7447191227836
 20
34.54933800579791
 30
0.0
 11
386.7447191227836
 21
27.74933800579787
 31
0.0
  0
LINE
  5
4FA
  8
0
  6
DASHED2
 62
     7
 10
381.7447191227836
 20
35.14933800579787
 30
0.0
 11
365.7447191227836
 21
35.14933800579787
 31
0.0
  0
LINE
  5
4FB
  8
0
  6
DASHED2
 62
     7
 10
386.7447191227836
 20
34.54933800579791
 30
0.0
 11
365.7447191227836
 21
34.54933800579791
 31
0.0
  0
LINE
  5
4FC
  8
0
  6
DASHED2
 62
     7
 10
381.7447191227836
 20
35.14933800579787
 30
0.0
 11
381.7447191227836
 21
27.14933800579788
 31
0.0
  0
LINE
  5
4FD
  8
0
  6
DASHED2
 62
     7
 10
386.7447191227837
 20
27.74933800579807
 30
0.0
 11
388.7077100380283
 21
31.14933800579776
 31
0.0
  0
LINE
  5
4FE
  8
0
  6
DASHED2
 62
     7
 10
386.7447191227836
 20
27.74933800579787
 30
0.0
 11
365.7447191227836
 21
27.74933800579787
 31
0.0
  0
LINE
  5
4FF
  8
0
  6
DASHED2
 62
     7
 10
381.7447191227836
 20
27.14933800579788
 30
0.0
 11
365.7447191227836
 21
27.14933800579787
 31
0.0
  0
LINE
  5
500
  8
0
  6
DIVIDE
 62
     9
 10
167.9117036808891
 20
68.14933800579787
 30
0.0
 11
169.4361787785453
 21
68.14933800579787
 31
0.0
  0
LINE
  5
501
  8
0
  6
DIVIDE
 62
     9
 10
167.4116884221
 20
67.64933800579787
 30
0.0
 11
167.4116884221
 21
46.15360283734084
 31
0.0
  0
LINE
  5
502
  8
0
  6
DIVIDE
 62
     9
 10
242.4116884221
 20
67.64933800579787
 30
0.0
 11
242.4116884221
 21
64.66853737713576
 31
0.0
  0
LINE
  5
503
  8
0
  6
DIVIDE
 62
     9
 10
167.4116923032067
 20
67.64934681487161
 30
0.0
 11
167.9117058574681
 21
68.14934511179276
 31
0.0
  0
LINE
  5
504
  8
0
  6
DIVIDE
 62
     9
 10
241.911692126974
 20
68.14934420869544
 30
0.0
 11
242.4116926577687
 21
67.64934367790069
 31
0.0
  0
LINE
  5
505
  8
0
  6
DIVIDE
 62
     9
 10
236.5492845524711
 20
68.14933800579787
 30
0.0
 11
241.9116884221
 21
68.14933800579787
 31
0.0
  0
LINE
  5
506
  8
0
  6
CONTINUOUS
 62
     4
 10
242.0116945256156
 20
-9.850650550110331
 30
0.0
 11
242.0116945256156
 21
-17.85065055011033
 31
0.0
  0
LINE
  5
507
  8
0
  6
CONTINUOUS
 62
     4
 10
242.0116945256156
 20
-9.850646735413065
 30
0.0
 11
257.0116945256156
 21
-9.850646735413065
 31
0.0
  0
LINE
  5
508
  8
0
  6
CONTINUOUS
 62
     4
 10
242.0116945256156
 20
-17.85064673541307
 30
0.0
 11
257.0116945256156
 21
-17.85064673541307
 31
0.0
  0
LINE
  5
509
  8
0
  6
CONTINUOUS
 62
     4
 10
190.0116945256156
 20
-29.52565360186814
 30
0.0
 11
190.0116945256156
 21
-41.52565360186814
 31
0.0
  0
LINE
  5
50A
  8
0
  6
CONTINUOUS
 62
     4
 10
154.0116945256156
 20
-30.52564978717088
 30
0.0
 11
190.0116945256156
 21
-30.52564978717088
 31
0.0
  0
LINE
  5
50B
  8
0
  6
CONTINUOUS
 62
     4
 10
154.0116945256156
 20
-40.52564978717088
 30
0.0
 11
190.0116945256156
 21
-40.52564978717088
 31
0.0
  0
LINE
  5
50C
  8
0
  6
CONTINUOUS
 62
     4
 10
256.0116945256156
 20
138.6493380057979
 30
0.0
 11
256.0116945256156
 21
128.6493380057979
 31
0.0
  0
LINE
  5
50D
  8
0
  6
CONTINUOUS
 62
     4
 10
255.0116945256156
 20
138.6493380057979
 30
0.0
 11
255.0116945256156
 21
128.6493380057979
 31
0.0
  0
LINE
  5
50E
  8
0
  6
CONTINUOUS
 62
     4
 10
256.0116945256156
 20
78.6493456351924
 30
0.0
 11
256.0116945256156
 21
75.6493456351924
 31
0.0
  0
LINE
  5
50F
  8
0
  6
CONTINUOUS
 62
     4
 10
255.0116945256156
 20
78.6493456351924
 30
0.0
 11
255.0116945256156
 21
75.6493456351924
 31
0.0
  0
LINE
  5
510
  8
0
  6
CONTINUOUS
 62
     4
 10
242.0116945256156
 20
122.6493380057979
 30
0.0
 11
265.0116945256156
 21
122.6493380057979
 31
0.0
  0
LINE
  5
511
  8
0
  6
CONTINUOUS
 62
     4
 10
242.0116945256156
 20
114.6493380057979
 30
0.0
 11
265.0116945256156
 21
114.6493380057979
 31
0.0
  0
LINE
  5
512
  8
0
  6
CONTINUOUS
 62
     4
 10
242.0116945256156
 20
84.64933800579787
 30
0.0
 11
265.0116945256156
 21
84.64933800579787
 31
0.0
  0
LINE
  5
513
  8
0
  6
CONTINUOUS
 62
     4
 10
242.0116945256156
 20
92.64933800579787
 30
0.0
 11
265.0116945256156
 21
92.64933800579787
 31
0.0
  0
LINE
  5
514
  8
0
  6
CONTINUOUS
 62
     4
 10
220.6285768498344
 20
-0.3506467354130649
 30
0.0
 11
229.6285768498344
 21
-0.3506467354130649
 31
0.0
  0
LINE
  5
515
  8
0
  6
CONTINUOUS
 62
     4
 10
220.6285768498344
 20
62.64933800579787
 30
0.0
 11
229.6285768498344
 21
62.64933800579787
 31
0.0
  0
LINE
  5
516
  8
0
  6
CONTINUOUS
 62
     4
 10
221.1285768498344
 20
59.64934182049514
 30
0.0
 11
224.6285768498344
 21
59.64934182049514
 31
0.0
  0
LINE
  5
517
  8
0
  6
CONTINUOUS
 62
     4
 10
221.1285768498344
 20
56.64934182049514
 30
0.0
 11
224.6285768498344
 21
56.64934182049514
 31
0.0
  0
LINE
  5
518
  8
0
  6
CONTINUOUS
 62
     4
 10
228.6285768498344
 20
60.14934182049514
 30
0.0
 11
229.6285768498344
 21
60.14934182049514
 31
0.0
  0
LINE
  5
519
  8
0
  6
CONTINUOUS
 62
     4
 10
228.6285768498344
 20
56.14934182049514
 30
0.0
 11
229.6285768498344
 21
56.14934182049514
 31
0.0
  0
LINE
  5
51A
  8
0
  6
CONTINUOUS
 62
     4
 10
224.8785768498344
 20
59.64934182049514
 30
0.0
 11
228.6285768498344
 21
59.64934182049514
 31
0.0
  0
LINE
  5
51B
  8
0
  6
CONTINUOUS
 62
     4
 10
224.8785768498344
 20
56.64934182049514
 30
0.0
 11
228.6285768498344
 21
56.64934182049514
 31
0.0
  0
LINE
  5
51C
  8
0
  6
CONTINUOUS
 62
     4
 10
516.5447145451469
 20
-94.90651679156541
 30
0.0
 11
509.9447084416313
 21
-94.90651679156541
 31
0.0
  0
LINE
  5
51D
  8
0
  6
CONTINUOUS
 62
     4
 10
515.9900423039359
 20
-95.90651679156541
 30
0.0
 11
510.4492250431938
 21
-95.90651679156541
 31
0.0
  0
LINE
  5
51E
  8
0
  6
CONTINUOUS
 62
     4
 10
509.9192751482077
 20
-114.2065129963029
 30
0.0
 11
509.7447246120739
 21
-104.2065178766792
 31
0.0
  0
LINE
  5
51F
  8
0
  6
CONTINUOUS
 62
     4
 10
516.5701669150442
 20
-114.2065195945414
 30
0.0
 11
516.7447177892515
 21
-104.206516846685
 31
0.0
  0
LINE
  5
520
  8
0
  6
CONTINUOUS
 62
     4
 10
456.7447191227836
 20
129.6493303764033
 30
0.0
 11
465.2447191227836
 21
129.6493303764033
 31
0.0
  0
LINE
  5
521
  8
0
  6
CONTINUOUS
 62
     4
 10
456.7447191227836
 20
131.1493380057979
 30
0.0
 11
465.2447191227836
 21
131.1493380057979
 31
0.0
  0
LINE
  5
522
  8
0
  6
CONTINUOUS
 62
     4
 10
481.2447191227836
 20
131.1493380057979
 30
0.0
 11
489.7447114933891
 21
131.1493380057979
 31
0.0
  0
LINE
  5
523
  8
0
  6
CONTINUOUS
 62
     4
 10
456.7447191227836
 20
132.6493380057979
 30
0.0
 11
465.2447191227836
 21
132.6493380057979
 31
0.0
  0
LINE
  5
524
  8
0
  6
CONTINUOUS
 62
     4
 10
456.7447191227836
 20
134.1493380057979
 30
0.0
 11
465.2447191227836
 21
134.1493380057979
 31
0.0
  0
LINE
  5
525
  8
0
  6
CONTINUOUS
 62
     4
 10
456.7447191227836
 20
135.6493380057979
 30
0.0
 11
465.2447191227836
 21
135.6493380057979
 31
0.0
  0
LINE
  5
526
  8
0
  6
CONTINUOUS
 62
     4
 10
481.2447191227836
 20
129.6493303764033
 30
0.0
 11
489.7447114933891
 21
129.6493303764033
 31
0.0
  0
LINE
  5
527
  8
0
  6
CONTINUOUS
 62
     4
 10
481.2447191227836
 20
132.6493380057979
 30
0.0
 11
489.7447114933891
 21
132.6493380057979
 31
0.0
  0
LINE
  5
528
  8
0
  6
CONTINUOUS
 62
     4
 10
481.2447191227836
 20
81.64933800579787
 30
0.0
 11
489.7447114933891
 21
81.64933800579787
 31
0.0
  0
LINE
  5
529
  8
0
  6
CONTINUOUS
 62
     4
 10
481.2447191227836
 20
134.1493380057979
 30
0.0
 11
489.7447114933891
 21
134.1493380057979
 31
0.0
  0
LINE
  5
52A
  8
0
  6
CONTINUOUS
 62
     4
 10
481.2447191227836
 20
135.6493380057979
 30
0.0
 11
489.7447114933891
 21
135.6493380057979
 31
0.0
  0
LINE
  5
52B
  8
0
  6
CONTINUOUS
 62
     4
 10
481.2447191227836
 20
84.64933800579787
 30
0.0
 11
489.7447114933891
 21
84.64933800579787
 31
0.0
  0
LINE
  5
52C
  8
0
  6
CONTINUOUS
 62
     4
 10
481.2447191227836
 20
83.14933800579787
 30
0.0
 11
489.7447114933891
 21
83.14933800579787
 31
0.0
  0
LINE
  5
52D
  8
0
  6
CONTINUOUS
 62
     4
 10
481.2447191227836
 20
80.14933800579787
 30
0.0
 11
489.7447114933891
 21
80.14933800579787
 31
0.0
  0
LINE
  5
52E
  8
0
  6
CONTINUOUS
 62
     4
 10
456.7447191227836
 20
80.14933800579787
 30
0.0
 11
465.2447191227836
 21
80.14933800579787
 31
0.0
  0
LINE
  5
52F
  8
0
  6
CONTINUOUS
 62
     4
 10
481.2447191227836
 20
78.64933800579787
 30
0.0
 11
489.7447114933891
 21
78.64933800579787
 31
0.0
  0
LINE
  5
530
  8
0
  6
CONTINUOUS
 62
     4
 10
456.7447191227836
 20
84.64933800579787
 30
0.0
 11
465.2447191227836
 21
84.64933800579787
 31
0.0
  0
LINE
  5
531
  8
0
  6
CONTINUOUS
 62
     4
 10
456.7447191227836
 20
83.14933800579787
 30
0.0
 11
465.2447191227836
 21
83.14933800579787
 31
0.0
  0
LINE
  5
532
  8
0
  6
CONTINUOUS
 62
     4
 10
456.7447191227836
 20
81.64933800579787
 30
0.0
 11
465.2447191227836
 21
81.64933800579787
 31
0.0
  0
LINE
  5
533
  8
0
  6
CONTINUOUS
 62
     4
 10
456.7447191227836
 20
78.64933800579787
 30
0.0
 11
465.2447191227836
 21
78.64933800579787
 31
0.0
  0
LINE
  5
534
  8
0
  6
CONTINUOUS
 62
     4
 10
456.7447191227836
 20
137.1493380057979
 30
0.0
 11
465.2447191227836
 21
137.1493380057979
 31
0.0
  0
LINE
  5
535
  8
0
  6
CONTINUOUS
 62
     4
 10
481.2447191227836
 20
137.1493380057979
 30
0.0
 11
489.7447114933891
 21
137.1493380057979
 31
0.0
  0
LINE
  5
536
  8
0
  6
CONTINUOUS
 62
     4
 10
481.2447191227836
 20
77.14933800579787
 30
0.0
 11
489.7447114933891
 21
77.14933800579787
 31
0.0
  0
LINE
  5
537
  8
0
  6
CONTINUOUS
 62
     4
 10
456.7447191227836
 20
77.14933800579787
 30
0.0
 11
465.2447191227836
 21
77.14933800579787
 31
0.0
  0
CIRCLE
  5
538
  8
0
  6
CONTINUOUS
 62
     4
 10
512.2158723820609
 20
8.649356125609884
 30
0.0
 40
4.0
  0
CIRCLE
  5
539
  8
0
  6
CONTINUOUS
 62
     4
 10
434.2735658635062
 20
8.649350403563986
 30
0.0
 40
4.0
  0
ARC
  5
53A
  8
0
  6
CONTINUOUS
 62
     4
 10
473.2447191227836
 20
31.14933800579787
 30
0.0
 40
42.0
 50
36.07819642250416
 51
63.86573164552842
  0
ARC
  5
53B
  8
0
  6
CONTINUOUS
 62
     4
 10
473.2447191227836
 20
31.14933800579787
 30
0.0
 40
48.0
 50
35.68532052635044
 51
67.33039291334157
  0
ARC
  5
53C
  8
0
  6
CONTINUOUS
 62
     4
 10
473.2447191227836
 20
31.14933800579787
 30
0.0
 40
72.0
 50
38.43653096931533
 51
75.1111668309017
  0
ARC
  5
53D
  8
0
  6
CONTINUOUS
 62
     4
 10
473.2447191227836
 20
31.14933800579787
 30
0.0
 40
66.0
 50
44.93032990761037
 51
73.72170827823517
  0
ARC
  5
53E
  8
0
  6
CONTINUOUS
 62
     4
 10
473.2447191227836
 20
31.14933800579787
 30
0.0
 40
60.0
 50
38.49080706755484
 51
72.04118121408854
  0
ARC
  5
53F
  8
0
  6
CONTINUOUS
 62
     4
 10
473.2447191227836
 20
31.14933800579787
 30
0.0
 40
72.0
 50
158.4365240633358
 51
201.5568333503253
  0
ARC
  5
540
  8
0
  6
CONTINUOUS
 62
     4
 10
473.2447191227836
 20
31.14933800579787
 30
0.0
 40
66.0
 50
164.8371626364464
 51
195.2703682193805
  0
ARC
  5
541
  8
0
  6
CONTINUOUS
 62
     4
 10
473.2447191227836
 20
31.14933800579787
 30
0.0
 40
60.0
 50
158.4908104068591
 51
201.5091449695402
  0
ARC
  5
542
  8
0
  6
CONTINUOUS
 62
     4
 10
473.2447191227836
 20
31.14933800579787
 30
0.0
 40
42.0
 50
156.0781963467138
 51
203.9217453693072
  0
ARC
  5
543
  8
0
  6
CONTINUOUS
 62
     4
 10
473.2447191227836
 20
31.14933800579787
 30
0.0
 40
48.0
 50
155.685296544898
 51
204.314645171123
  0
CIRCLE
  5
544
  8
0
  6
CONTINUOUS
 62
     4
 10
512.2158723820609
 20
53.64934944988967
 30
0.0
 40
4.0
  0
CIRCLE
  5
545
  8
0
  6
CONTINUOUS
 62
     4
 10
434.2735811222953
 20
53.6493570792842
 30
0.0
 40
4.0
  0
ARC
  5
546
  8
0
  6
CONTINUOUS
 62
     4
 10
473.2447191227836
 20
31.14933800579787
 30
0.0
 40
72.0
 50
284.8888331690983
 51
321.5635031816305
  0
ARC
  5
547
  8
0
  6
CONTINUOUS
 62
     4
 10
473.2447191227836
 20
31.14933800579787
 30
0.0
 40
66.0
 50
286.2782917217648
 51
314.7886692797462
  0
ARC
  5
548
  8
0
  6
CONTINUOUS
 62
     4
 10
473.2447191227836
 20
31.14933800579787
 30
0.0
 40
60.0
 50
287.9588187859114
 51
321.5092202532018
  0
ARC
  5
549
  8
0
  6
CONTINUOUS
 62
     4
 10
473.2447191227836
 20
31.14933800579787
 30
0.0
 40
48.0
 50
293.0703206248847
 51
324.3147307000683
  0
ARC
  5
54A
  8
0
  6
CONTINUOUS
 62
     4
 10
473.2447191227836
 20
31.14933800579787
 30
0.0
 40
42.0
 50
295.4191748691279
 51
323.4242038058929
  0
ARC
  5
54B
  8
0
  6
CONTINUOUS
 62
     4
 10
473.2447191227836
 20
31.14933800579787
 30
0.0
 40
72.0
 50
104.888851838433
 51
141.5634842849248
  0
ARC
  5
54C
  8
0
  6
CONTINUOUS
 62
     4
 10
473.2447191227836
 20
31.14933800579787
 30
0.0
 40
66.0
 50
106.2783103910995
 51
135.0091254743538
  0
ARC
  5
54D
  8
0
  6
CONTINUOUS
 62
     4
 10
473.2447191227836
 20
31.14933800579787
 30
0.0
 40
60.0
 50
107.9588374552461
 51
141.5091979414015
  0
ARC
  5
54E
  8
0
  6
CONTINUOUS
 62
     4
 10
473.2447191227836
 20
31.14933800579787
 30
0.0
 40
54.0
 50
110.0349280949849
 51
249.9650614323603
  0
ARC
  5
54F
  8
0
  6
CONTINUOUS
 62
     4
 10
473.2447191227836
 20
31.14933800579787
 30
0.0
 40
48.0
 50
112.6696257559931
 51
144.3146844826059
  0
ARC
  5
550
  8
0
  6
CONTINUOUS
 62
     4
 10
473.2447191227836
 20
31.14933800579787
 30
0.0
 40
72.0
 50
218.4364883943186
 51
255.111148161567
  0
ARC
  5
551
  8
0
  6
CONTINUOUS
 62
     4
 10
473.2447191227836
 20
31.14933800579787
 30
0.0
 40
66.0
 50
224.8688736866914
 51
253.7216896089005
  0
ARC
  5
552
  8
0
  6
CONTINUOUS
 62
     4
 10
473.2447191227836
 20
31.14933800579787
 30
0.0
 40
60.0
 50
218.4907747378418
 51
252.0411625447539
  0
ARC
  5
553
  8
0
  6
CONTINUOUS
 62
     4
 10
473.2447191227836
 20
31.14933800579787
 30
0.0
 40
48.0
 50
215.6852608758807
 51
246.5979047574147
  0
ARC
  5
554
  8
0
  6
CONTINUOUS
 62
     4
 10
473.2447191227836
 20
31.14933800579787
 30
0.0
 40
72.0
 50
338.4365463751361
 51
381.5634860682624
  0
ARC
  5
555
  8
0
  6
CONTINUOUS
 62
     4
 10
473.2447191227836
 20
31.14933800579787
 30
0.0
 40
66.0
 50
344.4031793604585
 51
375.1404188614648
  0
ARC
  5
556
  8
0
  6
CONTINUOUS
 62
     4
 10
473.2447191227836
 20
31.14933800579787
 30
0.0
 40
42.0
 50
216.0781470173182
 51
243.5331032541816
  0
ARC
  5
557
  8
0
  6
CONTINUOUS
 62
     4
 10
473.2447191227836
 20
31.14933800579787
 30
0.0
 40
60.0
 50
338.4908207658284
 51
381.5092099700229
  0
ARC
  5
558
  8
0
  6
CONTINUOUS
 62
     4
 10
473.2447191227836
 20
31.14933800579787
 30
0.0
 40
54.0
 50
290.0349094256502
 51
429.9650905743498
  0
ARC
  5
559
  8
0
  6
CONTINUOUS
 62
     4
 10
473.2447191227836
 20
31.14933800579787
 30
0.0
 40
48.0
 50
335.6853393472658
 51
384.3147084640584
  0
ARC
  5
55A
  8
0
  6
CONTINUOUS
 62
     4
 10
473.2447191227836
 20
31.14933800579787
 30
0.0
 40
42.0
 50
336.0782271962507
 51
383.9218189075263
  0
ARC
  5
55B
  8
0
  6
CONTINUOUS
 62
     4
 10
473.2447191227836
 20
31.14933800579787
 30
0.0
 40
42.0
 50
116.1342801936171
 51
143.9217983411684
  0
CIRCLE
  5
55C
  8
0
  6
CONTINUOUS
 62
     4
 10
473.2447191227836
 20
31.14933800579787
 30
0.0
 40
31.5
  0
CIRCLE
  5
55D
  8
0
  6
CONTINUOUS
 62
     4
 10
473.2447191227836
 20
58.14934182049514
 30
0.0
 40
2.5
  0
CIRCLE
  5
55E
  8
0
  6
CONTINUOUS
 62
     4
 10
449.8620286930961
 20
17.64933609844924
 30
0.0
 40
2.5
  0
CIRCLE
  5
55F
  8
0
  6
CONTINUOUS
 62
     4
 10
496.6274019230766
 20
17.64933609844924
 30
0.0
 40
2.5
  0
TEXT
  5
560
  8
0
 62
     7
 10
305.8477502812308
 20
42.13698067547561
 30
0.0
 40
4.0
  1
MIN39.5
 50
90.0
 41
0.6367346938775508
  7
FDASTYLE1
 72
     5
 11
305.8477502812308
 21
59.96555210404704
 31
0.0
  0
TEXT
  5
561
  8
0
 62
     7
 10
570.7447114933891
 20
4.032909034507284
 30
0.0
 40
3.0
  1
N MAX 3200 AT ΣS MAX
 50
90.0
 41
0.6445640416448272
  7
FDASTYLE1
 72
     5
 11
570.7447114933891
 21
43.09348995818381
 31
0.0
  0
TEXT
  5
562
  8
0
 62
     7
 10
566.2446809758109
 20
4.032916663901816
 30
0.0
 40
3.0
  1
ΣS MAX 34KN
 50
90.0
 41
0.6463664845479941
  7
FDASTYLE1
 72
     5
 11
566.2446809758109
 21
25.75083054471442
 31
0.0
  0
TEXT
  5
563
  8
0
 62
     7
 10
561.7447114933891
 20
4.032909034507284
 30
0.0
 40
3.0
  1
F MAX  17KN
 50
90.0
 41
0.7537931293627205
  7
FDASTYLE1
 72
     5
 11
561.7447114933891
 21
28.90808230347706
 31
0.0
  0
TEXT
  5
564
  8
0
 62
     7
 10
375.7447191227836
 20
28.2207899081874
 30
0.0
 40
3.0
  1
 0001
 50
-90.00000000000001
 41
0.4970100895327013
  7
FDASTYLE1
 72
     5
 11
375.7447191227836
 21
20.76563856519688
 31
0.0
  0
TEXT
  5
565
  8
0
 62
     7
 10
382.244717215435
 20
28.57793307186843
 30
0.0
 40
4.0
  1
 MO2-8
 50
-90.00000000000001
 41
0.6410258524193774
  7
FDASTYLE1
 72
     5
 11
382.244717215435
 21
13.19331261380337
 31
0.0
  0
TEXT
  5
566
  8
0
 62
     7
 10
381.744717215435
 20
59.93504559876205
 30
0.0
 40
5.0
  1
NIKKO
 50
-90.00000000000001
 41
0.6358806103208212
  7
FDASTYLE1
 72
     5
 11
381.744717215435
 21
44.03803034074152
 31
0.0
  0
TEXT
  5
567
  8
0
 62
     7
 10
612.9346964485887
 20
-142.3256278678
 30
0.0
 40
3.0
  1
標　準
 41
0.6666666666666604
  7
FDASTYLE1
 72
     5
 11
620.1346964485887
 21
-142.3256278678
 31
0.0
  0
LINE
  5
568
  8
LAYER0001
  6
CONTINUOUS
 62
     7
 10
256.6971956242484
 20
158.2476046073604
 30
0.0
 11
263.9812608708305
 21
158.2476046073604
 31
0.0
  0
INSERT
  5
569
  8
LAYER0001
  6
CONTINUOUS
  2
DC_GROUP_1
 10
0.0
 20
0.0
 30
0.0
  0
INSERT
  5
56A
  8
LAYER0001
  6
CONTINUOUS
  2
DC_GROUP_4
 10
0.0
 20
0.0
 30
0.0
  0
INSERT
  5
56B
  8
LAYER0001
  6
CONTINUOUS
  2
DC_GROUP_7
 10
0.0
 20
0.0
 30
0.0
  0
INSERT
  5
56C
  8
LAYER0001
  6
CONTINUOUS
  2
DC_GROUP_10
 10
0.0
 20
0.0
 30
0.0
  0
INSERT
  5
56D
  8
LAYER0001
  6
CONTINUOUS
  2
DC_GROUP_13
 10
0.0
 20
0.0
 30
0.0
  0
INSERT
  5
56E
  8
LAYER0001
  6
CONTINUOUS
  2
DC_GROUP_15
 10
0.0
 20
0.0
 30
0.0
  0
INSERT
  5
56F
  8
LAYER0001
  6
CONTINUOUS
  2
DC_GROUP_17
 10
0.0
 20
0.0
 30
0.0
  0
INSERT
  5
570
  8
LAYER0001
  6
CONTINUOUS
  2
DC_GROUP_20
 10
0.0
 20
0.0
 30
0.0
  0
INSERT
  5
571
  8
LAYER0001
  6
CONTINUOUS
  2
DC_GROUP_23
 10
0.0
 20
0.0
 30
0.0
  0
INSERT
  5
572
  8
LAYER0001
  6
CONTINUOUS
  2
DC_GROUP_26
 10
0.0
 20
0.0
 30
0.0
  0
INSERT
  5
573
  8
LAYER0001
  6
CONTINUOUS
  2
DC_GROUP_28
 10
0.0
 20
0.0
 30
0.0
  0
INSERT
  5
574
  8
LAYER0001
  6
CONTINUOUS
  2
DC_GROUP_31
 10
0.0
 20
0.0
 30
0.0
  0
INSERT
  5
575
  8
LAYER0001
  6
CONTINUOUS
  2
DC_GROUP_33
 10
0.0
 20
0.0
 30
0.0
  0
INSERT
  5
576
  8
LAYER0001
  6
CONTINUOUS
  2
DC_GROUP_36
 10
0.0
 20
0.0
 30
0.0
  0
INSERT
  5
577
  8
LAYER0001
  6
CONTINUOUS
  2
DC_GROUP_39
 10
0.0
 20
0.0
 30
0.0
  0
INSERT
  5
578
  8
LAYER0001
  6
CONTINUOUS
  2
DC_GROUP_42
 10
0.0
 20
0.0
 30
0.0
  0
INSERT
  5
579
  8
LAYER0001
  6
CONTINUOUS
  2
DC_GROUP_45
 10
0.0
 20
0.0
 30
0.0
  0
INSERT
  5
57A
  8
LAYER0001
  6
CONTINUOUS
  2
DC_GROUP_47
 10
0.0
 20
0.0
 30
0.0
  0
INSERT
  5
57B
  8
LAYER0001
  6
CONTINUOUS
  2
DC_GROUP_50
 10
0.0
 20
0.0
 30
0.0
  0
INSERT
  5
57C
  8
LAYER0001
  6
CONTINUOUS
  2
DC_GROUP_53
 10
0.0
 20
0.0
 30
0.0
  0
INSERT
  5
57D
  8
LAYER0001
  6
CONTINUOUS
  2
DC_GROUP_56
 10
0.0
 20
0.0
 30
0.0
  0
INSERT
  5
57E
  8
LAYER0001
  6
CONTINUOUS
  2
DC_GROUP_59
 10
0.0
 20
0.0
 30
0.0
  0
INSERT
  5
57F
  8
LAYER0001
  6
CONTINUOUS
  2
DC_GROUP_62
 10
0.0
 20
0.0
 30
0.0
  0
INSERT
  5
580
  8
LAYER0001
  6
CONTINUOUS
  2
DC_GROUP_65
 10
0.0
 20
0.0
 30
0.0
  0
INSERT
  5
581
  8
LAYER0001
  6
CONTINUOUS
  2
DC_GROUP_68
 10
0.0
 20
0.0
 30
0.0
  0
INSERT
  5
582
  8
LAYER0001
  6
CONTINUOUS
  2
DC_GROUP_71
 10
0.0
 20
0.0
 30
0.0
  0
INSERT
  5
583
  8
LAYER0001
  6
CONTINUOUS
  2
DC_GROUP_74
 10
0.0
 20
0.0
 30
0.0
  0
INSERT
  5
584
  8
LAYER0001
  6
CONTINUOUS
  2
DC_GROUP_77
 10
0.0
 20
0.0
 30
0.0
  0
INSERT
  5
585
  8
LAYER0001
  6
CONTINUOUS
  2
DC_GROUP_79
 10
0.0
 20
0.0
 30
0.0
  0
INSERT
  5
586
  8
LAYER0001
  6
CONTINUOUS
  2
DC_GROUP_81
 10
0.0
 20
0.0
 30
0.0
  0
INSERT
  5
587
  8
LAYER0001
  6
CONTINUOUS
  2
DC_GROUP_84
 10
0.0
 20
0.0
 30
0.0
  0
INSERT
  5
588
  8
LAYER0001
  6
CONTINUOUS
  2
DC_GROUP_87
 10
0.0
 20
0.0
 30
0.0
  0
INSERT
  5
589
  8
LAYER0001
  6
CONTINUOUS
  2
DC_GROUP_88
 10
0.0
 20
0.0
 30
0.0
  0
LINE
  5
58A
  8
0
  6
CONTINUOUS
 62
     6
 10
284.4371726510844
 20
-143.2289054601751
 30
0.0
 11
429.7341620920024
 21
-143.2289054601751
 31
0.0
  0
LINE
  5
58B
  8
0
  6
CONTINUOUS
 62
     6
 10
284.4371726510844
 20
-137.1809013097845
 30
0.0
 11
429.7341620920024
 21
-137.1809013097845
 31
0.0
  0
LINE
  5
58C
  8
0
  6
CONTINUOUS
 62
     6
 10
284.4371726510844
 20
-131.1329124181829
 30
0.0
 11
429.7341620920024
 21
-131.1329124181829
 31
0.0
  0
LINE
  5
58D
  8
0
  6
CONTINUOUS
 62
     6
 10
284.4371726510844
 20
-125.0849082677923
 30
0.0
 11
429.7341620920024
 21
-125.0849082677923
 31
0.0
  0
LINE
  5
58E
  8
0
  6
CONTINUOUS
 62
     6
 10
284.4371726510844
 20
-119.0369041174017
 30
0.0
 11
304.8510978219829
 21
-119.0369041174017
 31
0.0
  0
LINE
  5
58F
  8
0
  6
CONTINUOUS
 62
     6
 10
284.4371726510844
 20
-149.2769096105658
 30
0.0
 11
429.7341620920024
 21
-149.2769096105658
 31
0.0
  0
LINE
  5
590
  8
0
  6
CONTINUOUS
 62
     6
 10
284.4371726510844
 20
-155.3249137609564
 30
0.0
 11
429.7341620920024
 21
-155.3249137609564
 31
0.0
  0
LINE
  5
591
  8
0
  6
CONTINUOUS
 62
     6
 10
284.4371726510844
 20
-161.372917911347
 30
0.0
 11
429.7341620920024
 21
-161.372917911347
 31
0.0
  0
LINE
  5
592
  8
0
  6
CONTINUOUS
 62
     6
 10
284.4371726510844
 20
-173.4689109533392
 30
0.0
 11
429.7341620920024
 21
-173.4689109533392
 31
0.0
  0
LINE
  5
593
  8
0
  6
CONTINUOUS
 62
     6
 10
284.4371726510844
 20
-167.4209068029486
 30
0.0
 11
429.7341620920024
 21
-167.4209068029486
 31
0.0
  0
TEXT
  5
594
  8
0
 62
     6
 10
286.2727001903377
 20
-117.8129172533117
 30
0.0
 40
3.599999904632568
  1
仕  様
 41
0.732910693325656
  7
FDASTYLE1
 72
     5
 11
297.8820052650745
 21
-117.8129172533117
 31
0.0
  0
TEXT
  5
595
  8
0
 62
     6
 10
286.2144075630031
 20
-123.8609061449133
 30
0.0
 40
3.599999904632568
  1
爪ノｽﾄﾛ-ｸ           
 41
0.7503026833554599
  7
FDASTYLE1
 72
     5
 11
335.914455991867
 21
-123.8609061449133
 31
0.0
  0
TEXT
  5
596
  8
0
 62
     6
 10
368.7421346751771
 20
-123.4109061568342
 30
0.0
 40
2.699999928474426
  1
（直径ﾆﾃ）
 41
0.7271637326158144
  7
FDASTYLE1
 72
     5
 11
382.09286045233
 21
-123.4109061568342
 31
0.0
  0
TEXT
  5
597
  8
0
 62
     6
 10
389.5791550276599
 20
-123.8609061449133
 30
0.0
 40
3.599999904632568
  1
   20 mm
 41
0.6330458694411687
  7
FDASTYLE1
 72
     5
 11
407.8108755845899
 21
-123.8609061449133
 31
0.0
  0
TEXT
  5
598
  8
0
 62
     6
 10
286.2411168811641
 20
-129.9089102953039
 30
0.0
 40
3.599999904632568
  1
ピｽﾄﾝｽﾄﾛ-ｸ                 25 mm
 41
0.7426393634081087
  7
FDASTYLE1
 72
     5
 11
369.6543679694663
 21
-129.9089102953039
 31
0.0
  0
TEXT
  5
599
  8
0
 62
     6
 10
286.2411168811641
 20
-135.9569144456945
 30
0.0
 40
3.599999904632568
  1
推奨ｼﾘﾝダ　              52TS-TA1 型
 41
0.7331452311631499
  7
FDASTYLE1
 72
     5
 11
370.6994452737773
 21
-135.9569144456945
 31
0.0
  0
TEXT
  5
59A
  8
0
 62
     6
 10
286.304234385284
 20
-142.0049185960852
 30
0.0
 40
3.599999904632568
  1
許容ｼﾘﾝダ力  
 41
0.7026296381732208
  7
FDASTYLE1
 72
     5
 11
311.093007363357
 21
-142.0049185960852
 31
0.0
  0
TEXT
  5
59B
  8
0
 62
     6
 10
323.523474530352
 20
-141.2918572906443
 30
0.0
 40
2.699999928474426
  1
52TS-TA1型引側使用圧 2.7ＭＰａ
 41
0.6945472289919945
  7
FDASTYLE1
 72
     5
 11
366.2798008144433
 21
-141.2918572906443
 31
0.0
  0
TEXT
  5
59C
  8
0
 62
     6
 10
394.8660809991679
 20
-142.0049185960852
 30
0.0
 40
3.599999904632568
  1
17.2 ｋN
 41
0.7311547721875422
  7
FDASTYLE1
 72
     5
 11
413.8176121922249
 21
-142.0049185960852
 31
0.0
  0
TEXT
  5
59D
  8
0
 62
     6
 10
286.2411168811641
 20
-148.0529074876867
 30
0.0
 40
3.599999904632568
  1
最大静的把握力                 34.3 ｋN
 41
0.7261129864313092
  7
FDASTYLE1
 72
     5
 11
371.457734711273
 21
-148.0529074876867
 31
0.0
  0
TEXT
  5
59E
  8
0
 62
     6
 10
286.2920088765941
 20
-154.1009116380774
 30
0.0
 40
3.599999904632568
  1
最高使用回転速度               3200 min
 41
0.7086221563932407
  7
FDASTYLE1
 72
     5
 11
369.4559029478139
 21
-154.1009116380774
 31
0.0
  0
TEXT
  5
59F
  8
0
 62
     6
 10
421.6572513280235
 20
-151.5393731206022
 30
0.0
 40
1.799999952316284
  1
-1
 41
0.6976113722114606
  7
FDASTYLE1
 72
     5
 11
424.1686522014553
 21
-151.5393731206022
 31
0.0
  0
TEXT
  5
5A0
  8
0
 62
     6
 10
286.2669705150447
 20
-160.148915788468
 30
0.0
 40
3.599999904632568
  1
慣性モーメント               0.14 ｋg・m
 41
0.7149498821900171
  7
FDASTYLE1
 72
     5
 11
370.6882503676417
 21
-160.148915788468
 31
0.0
  0
TEXT
  5
5A1
  8
0
 62
     6
 10
423.8005292115531
 20
-157.5873772709929
 30
0.0
 40
1.799999952316284
  1
2
 41
0.5882029777510089
  7
FDASTYLE1
 72
     5
 11
424.8592945434572
 21
-157.5873772709929
 31
0.0
  0
TEXT
  5
5A2
  8
0
 62
     6
 10
286.2411168811641
 20
-172.2449088304602
 30
0.0
 40
3.599999904632568
  1
ｱﾝバﾗﾝｽ量              
 41
0.7407456217343532
  7
FDASTYLE1
 72
     5
 11
343.3081580678183
 21
-172.2449088304602
 31
0.0
  0
TEXT
  5
5A3
  8
0
 62
     6
 10
380.9829738436065
 20
-171.7949088423811
 30
0.0
 40
2.699999928474426
  1
外周ﾆﾃ
 41
0.7454882744087735
  7
FDASTYLE1
 72
     5
 11
389.8393743089683
 21
-171.7949088423811
 31
0.0
  0
TEXT
  5
5A4
  8
0
 62
     6
 10
394.701981901916
 20
-172.2449088304602
 30
0.0
 40
3.599999904632568
  1
  4g 以内
 41
0.7433711930538374
  7
FDASTYLE1
 72
     5
 11
414.5053899602591
 21
-172.2449088304602
 31
0.0
  0
TEXT
  5
5A5
  8
0
 62
     6
 10
286.2411168811641
 20
-166.1969046800695
 30
0.0
 40
3.599999904632568
  1
質 量                       20 ｋg
 41
0.7378759525776722
  7
FDASTYLE1
 72
     5
 11
370.1818830227291
 21
-166.1969046800695
 31
0.0
  0
INSERT
  5
5A6
  8
0
  6
CONTINUOUS
  2
DC_GROUP_89
 10
0.0
 20
0.0
 30
0.0
  0
INSERT
  5
5A7
  8
0
  6
CONTINUOUS
  2
DC_GROUP_96
 10
0.0
 20
0.0
 30
0.0
  0
INSERT
  5
5A8
  8
0
  6
CONTINUOUS
  2
DC_GROUP_99
 10
0.0
 20
0.0
 30
0.0
  0
INSERT
  5
5A9
  8
0
  6
CONTINUOUS
  2
DC_GROUP_101
 10
0.0
 20
0.0
 30
0.0
  0
INSERT
  5
5AA
  8
0
  6
CONTINUOUS
  2
DC_GROUP_104
 10
0.0
 20
0.0
 30
0.0
  0
INSERT
  5
5AB
  8
0
  6
CONTINUOUS
  2
DC_GROUP_105
 10
0.0
 20
0.0
 30
0.0
  0
INSERT
  5
5AC
  8
0
  6
CONTINUOUS
  2
DC_GROUP_106
 10
0.0
 20
0.0
 30
0.0
  0
INSERT
  5
5AD
  8
0
  6
CONTINUOUS
  2
DC_GROUP_109
 10
0.0
 20
0.0
 30
0.0
  0
LINE
  5
5AE
  8
0
  6
CONTINUOUS
 62
     2
 10
473.2447380753908
 20
-31.05066998292465
 30
0.0
 11
477.3150572784977
 21
-28.70067571092828
 31
0.0
  0
LINE
  5
5AF
  8
0
  6
CONTINUOUS
 62
     2
 10
477.3150333513883
 20
-24.00066687960258
 30
0.0
 11
473.2447197511144
 21
-21.65066280264851
 31
0.0
  0
LINE
  5
5B0
  8
0
  6
CONTINUOUS
 62
     2
 10
477.3150392521781
 20
-28.70067000506639
 30
0.0
 11
477.3150392521781
 21
-24.00066924212693
 31
0.0
  0
LINE
  5
5B1
  8
0
  6
CONTINUOUS
 62
     2
 10
469.1743873076482
 20
-28.70065575401019
 30
0.0
 11
473.2447020284887
 21
-31.05065758983106
 31
0.0
  0
LINE
  5
5B2
  8
0
  6
CONTINUOUS
 62
     2
 10
473.2447327611805
 20
-61.05066889085298
 30
0.0
 11
477.3150519642874
 21
-58.70067461885661
 31
0.0
  0
LINE
  5
5B3
  8
0
  6
CONTINUOUS
 62
     2
 10
469.1743989933891
 20
-24.0006616127324
 30
0.0
 11
469.1743989933891
 21
-28.70066237567185
 31
0.0
  0
LINE
  5
5B4
  8
0
  6
CONTINUOUS
 62
     2
 10
473.244724051729
 20
-21.65065681320935
 30
0.0
 11
469.1743982413686
 21
-24.00065475982511
 31
0.0
  0
LINE
  5
5B5
  8
0
  6
CONTINUOUS
 62
     2
 10
477.3150375619245
 20
-54.00066524166583
 30
0.0
 11
473.2447173544062
 21
-51.6506573500054
 31
0.0
  0
LINE
  5
5B6
  8
0
  6
CONTINUOUS
 62
     2
 10
477.3150392521781
 20
-58.70066809771775
 30
0.0
 11
477.3150392521781
 21
-54.0006673347783
 31
0.0
  0
LINE
  5
5B7
  8
0
  6
CONTINUOUS
 62
     2
 10
469.1743830121458
 20
-58.70064976626155
 30
0.0
 11
473.2447175547249
 21
-61.05066304619059
 31
0.0
  0
LINE
  5
5B8
  8
0
  6
CONTINUOUS
 62
     2
 10
469.1743989933891
 20
-54.00065970538377
 30
0.0
 11
469.1743989933891
 21
-58.70066046832322
 31
0.0
  0
LINE
  5
5B9
  8
0
  6
CONTINUOUS
 62
     2
 10
473.2447245704847
 20
-51.65065145941331
 30
0.0
 11
469.1743987601244
 21
-54.00064940602907
 31
0.0
  0
LINE
  5
5BA
  8
0
  6
CONTINUOUS
 62
     2
 10
420.5687031316012
 20
-5.113156033490995
 30
0.0
 11
415.5024527936586
 21
-8.038150040245327
 31
0.0
  0
LINE
  5
5BB
  8
0
  6
CONTINUOUS
 62
     2
 10
410.4362131108207
 20
-5.11314702151536
 30
0.0
 11
410.4362131108207
 21
0.7368519294428921
 31
0.0
  0
LINE
  5
5BC
  8
0
  6
CONTINUOUS
 62
     2
 10
415.502457691846
 20
-8.038151792109019
 30
0.0
 11
410.4362129328967
 21
-5.113148370803501
 31
0.0
  0
LINE
  5
5BD
  8
0
  6
CONTINUOUS
 62
     2
 10
420.5687089909476
 20
0.7368423926997281
 30
0.0
 11
420.5687089909476
 21
-5.113156558258524
 31
0.0
  0
LINE
  5
5BE
  8
0
  6
CONTINUOUS
 62
     2
 10
415.5024779370805
 20
3.661848044764966
 30
0.0
 11
420.5687209525945
 21
0.7368414852757184
 31
0.0
  0
LINE
  5
5BF
  8
0
  6
CONTINUOUS
 62
     2
 10
410.4362125164709
 20
0.7368488627124776
 30
0.0
 11
415.502469461667
 21
3.661846684157254
 31
0.0
  0
LINE
  5
5C0
  8
0
  6
CONTINUOUS
 62
     2
 10
477.3150392521781
 20
86.29933190228225
 30
0.0
 11
477.3150392521781
 21
90.99932885052444
 31
0.0
  0
LINE
  5
5C1
  8
0
  6
CONTINUOUS
 62
     2
 10
477.3150301646726
 20
90.99933147611013
 30
0.0
 11
473.2447165643986
 21
93.34933555306419
 31
0.0
  0
LINE
  5
5C2
  8
0
  6
CONTINUOUS
 62
     2
 10
473.2447175192544
 20
83.94934331323351
 30
0.0
 11
477.3150499368682
 21
86.29934521461077
 31
0.0
  0
LINE
  5
5C3
  8
0
  6
CONTINUOUS
 62
     2
 10
477.3150392521781
 20
116.2993319022823
 30
0.0
 11
477.3150392521781
 21
120.9993288505244
 31
0.0
  0
LINE
  5
5C4
  8
0
  6
CONTINUOUS
 62
     2
 10
469.1743934574767
 20
86.29934665786699
 30
0.0
 11
473.2447081783173
 21
83.94934482204612
 31
0.0
  0
LINE
  5
5C5
  8
0
  6
CONTINUOUS
 62
     2
 10
469.1743989933891
 20
90.99933647991897
 30
0.0
 11
469.1743989933891
 21
86.29933953167678
 31
0.0
  0
LINE
  5
5C6
  8
0
  6
CONTINUOUS
 62
     2
 10
473.244725468692
 20
93.34933711043517
 30
0.0
 11
469.1743930510782
 21
90.9993353491292
 31
0.0
  0
LINE
  5
5C7
  8
0
  6
CONTINUOUS
 62
     2
 10
477.3150201635851
 20
120.9993045499229
 30
0.0
 11
473.2447065633111
 21
123.3493086268769
 31
0.0
  0
LINE
  5
5C8
  8
0
  6
CONTINUOUS
 62
     2
 10
473.2446991970139
 20
113.949337384344
 30
0.0
 11
477.3150316146277
 21
116.2993392857212
 31
0.0
  0
LINE
  5
5C9
  8
0
  6
CONTINUOUS
 62
     2
 10
469.1743784245625
 20
116.2993300805334
 30
0.0
 11
473.244693145403
 21
113.9493282447126
 31
0.0
  0
LINE
  5
5CA
  8
0
  6
CONTINUOUS
 62
     2
 10
469.1743989933891
 20
120.999336479919
 30
0.0
 11
469.1743989933891
 21
116.2993395316768
 31
0.0
  0
LINE
  5
5CB
  8
0
  6
CONTINUOUS
 62
     2
 10
473.2447278109539
 20
123.349326801199
 30
0.0
 11
469.1743953933401
 21
120.9993250398931
 31
0.0
  0
CIRCLE
  5
5CC
  8
0
  6
CONTINUOUS
 62
     2
 10
473.2447191227836
 20
-26.35066390155076
 30
0.0
 40
8.0
  0
CIRCLE
  5
5CD
  8
0
  6
CONTINUOUS
 62
     2
 10
473.2447191227836
 20
-56.35066199420213
 30
0.0
 40
8.0
  0
CIRCLE
  5
5CE
  8
0
  6
CONTINUOUS
 62
     2
 10
415.5024629582328
 20
-2.188149214966288
 30
0.0
 40
9.0
  0
CIRCLE
  5
5CF
  8
0
  6
CONTINUOUS
 62
     2
 10
473.2447191227836
 20
88.64933800579787
 30
0.0
 40
8.0
  0
CIRCLE
  5
5D0
  8
0
  6
CONTINUOUS
 62
     2
 10
473.2447191227836
 20
118.6493380057979
 30
0.0
 40
8.0
  0
VIEWPORT
  5
48
 67
     1
  8
0
 10
356.5723937454768
 20
0.0
 30
0.0
 40
1662.0
 41
1140.0
 68
     1
 69
     1
1001
ACAD
1000
MVIEW
1002
{
1070
    16
1010
0.0
1020
0.0
1030
0.0
1020
0.0
1030
0.0
1010
0.0
1020
0.0
1030
1.0
1020
0.0
1030
1.0
1040
0.0
1040
1140.0
1040
356.5723937454768
1040
0.0
1040
50.0
1040
0.0
1040
0.0
1070
     0
1070
   100
1070
     0
1070
     1
1070
     0
1070
     0
1070
     0
1070
     0
1040
0.0
1040
0.0
1040
0.0
1040
0.5
1040
0.5
1040
0.0
1040
0.0
1070
     0
1002
{
1002
}
1002
}
  0
ENDSEC
  0
EOF
