  0
SECTION
  2
HEADER
  9
$ACADVER
  1
AC1009
  9
$DWGCODEPAGE
  3
ansi_932
  9
$INSBASE
 10
0.0
 20
0.0
 30
0.0
  9
$EXTMIN
 10
-836.5803560625893
 20
-570.0
 30
0.0
  9
$EXTMAX
 10
825.4196439374107
 20
570.0
 30
0.0
  9
$LIMMIN
 10
-297.25
 20
-210.25
  9
$LIMMAX
 10
297.25
 20
210.25
  9
$ORTHOMODE
 70
     0
  9
$REGENMODE
 70
     1
  9
$FILLMODE
 70
     1
  9
$QTEXTMODE
 70
     0
  9
$MIRRTEXT
 70
     1
  9
$DRAGMODE
 70
     2
  9
$LTSCALE
 40
0.5
  9
$OSMODE
 70
    37
  9
$ATTMODE
 70
     1
  9
$TEXTSIZE
 40
0.2
  9
$TRACEWID
 40
0.05
  9
$TEXTSTYLE
  7
STANDARD
  9
$CLAYER
  8
0
  9
$CELTYPE
  6
BYLAYER
  9
$CECOLOR
 62
   256
  9
$DIMSCALE
 40
1.0
  9
$DIMASZ
 40
1.25
  9
$DIMEXO
 40
0.0625
  9
$DIMDLI
 40
0.38
  9
$DIMRND
 40
0.0
  9
$DIMDLE
 40
0.0
  9
$DIMEXE
 40
0.18
  9
$DIMTP
 40
0.0
  9
$DIMTM
 40
0.0
  9
$DIMTXT
 40
0.18
  9
$DIMCEN
 40
0.09
  9
$DIMTSZ
 40
0.0
  9
$DIMTOL
 70
     0
  9
$DIMLIM
 70
     0
  9
$DIMTIH
 70
     1
  9
$DIMTOH
 70
     1
  9
$DIMSE1
 70
     0
  9
$DIMSE2
 70
     0
  9
$DIMTAD
 70
     3
  9
$DIMZIN
 70
     0
  9
$DIMBLK
  1

  9
$DIMASO
 70
     1
  9
$DIMSHO
 70
     1
  9
$DIMPOST
  1

  9
$DIMAPOST
  1

  9
$DIMALT
 70
     0
  9
$DIMALTD
 70
     2
  9
$DIMALTF
 40
25.4
  9
$DIMLFAC
 40
1.0
  9
$DIMTOFL
 70
     0
  9
$DIMTVP
 40
0.0
  9
$DIMTIX
 70
     0
  9
$DIMSOXD
 70
     0
  9
$DIMSAH
 70
     0
  9
$DIMBLK1
  1

  9
$DIMBLK2
  1

  9
$DIMSTYLE
  2
STANDARD
  9
$DIMCLRD
 70
     0
  9
$DIMCLRE
 70
     0
  9
$DIMCLRT
 70
     0
  9
$DIMTFAC
 40
1.0
  9
$DIMGAP
 40
0.09
  9
$LUNITS
 70
     2
  9
$LUPREC
 70
     4
  9
$SKETCHINC
 40
0.1
  9
$FILLETRAD
 40
0.5
  9
$AUNITS
 70
     0
  9
$AUPREC
 70
     0
  9
$MENU
  1
.
  9
$ELEVATION
 40
0.0
  9
$PELEVATION
 40
0.0
  9
$THICKNESS
 40
0.0
  9
$LIMCHECK
 70
     0
  9
$CHAMFERA
 40
0.5
  9
$CHAMFERB
 40
0.5
  9
$SKPOLY
 70
     0
  9
$TDCREATE
 40
2456329.603252824
  9
$TDUPDATE
 40
2456329.603252836
  9
$TDINDWG
 40
0.0000000116
  9
$TDUSRTIMER
 40
0.0000000116
  9
$USRTIMER
 70
     1
  9
$ANGBASE
 50
0.0
  9
$ANGDIR
 70
     0
  9
$PDMODE
 70
     0
  9
$PDSIZE
 40
1.0
  9
$PLINEWID
 40
0.0
  9
$COORDS
 70
     1
  9
$SPLFRAME
 70
     0
  9
$SPLINETYPE
 70
     6
  9
$SPLINESEGS
 70
     8
  9
$ATTDIA
 70
     0
  9
$ATTREQ
 70
     1
  9
$HANDLING
 70
     1
  9
$HANDSEED
  5
650
  9
$SURFTAB1
 70
     6
  9
$SURFTAB2
 70
     6
  9
$SURFTYPE
 70
     6
  9
$SURFU
 70
     6
  9
$SURFV
 70
     6
  9
$UCSNAME
  2

  9
$UCSORG
 10
0.0
 20
0.0
 30
0.0
  9
$UCSXDIR
 10
1.0
 20
0.0
 30
0.0
  9
$UCSYDIR
 10
0.0
 20
1.0
 30
0.0
  9
$PUCSNAME
  2

  9
$PUCSORG
 10
0.0
 20
0.0
 30
0.0
  9
$PUCSXDIR
 10
1.0
 20
0.0
 30
0.0
  9
$PUCSYDIR
 10
0.0
 20
1.0
 30
0.0
  9
$USERI1
 70
     0
  9
$USERI2
 70
     0
  9
$USERI3
 70
     0
  9
$USERI4
 70
     0
  9
$USERI5
 70
     0
  9
$USERR1
 40
0.0
  9
$USERR2
 40
0.0
  9
$USERR3
 40
0.0
  9
$USERR4
 40
0.0
  9
$USERR5
 40
0.0
  9
$WORLDVIEW
 70
     1
  9
$SHADEDGE
 70
     3
  9
$SHADEDIF
 70
    70
  9
$TILEMODE
 70
     1
  9
$MAXACTVP
 70
    64
  9
$PLIMCHECK
 70
     0
  9
$PEXTMIN
 10
1.000000000000000E+20
 20
1.000000000000000E+20
 30
1.000000000000000E+20
  9
$PEXTMAX
 10
-1.000000000000000E+20
 20
-1.000000000000000E+20
 30
-1.000000000000000E+20
  9
$PLIMMIN
 10
0.0
 20
0.0
  9
$PLIMMAX
 10
12.0
 20
9.0
  9
$UNITMODE
 70
     0
  9
$VISRETAIN
 70
     0
  9
$PLINEGEN
 70
     1
  9
$PSLTSCALE
 70
     0
  0
ENDSEC
  0
SECTION
  2
TABLES
  0
TABLE
  2
VPORT
 70
     1
  0
VPORT
  2
*ACTIVE
 70
     0
 10
0.0
 20
0.0
 11
1.0
 21
1.0
 12
0.0
 22
0.0
 13
0.0
 23
0.0
 14
0.5
 24
0.5
 15
0.5
 25
0.5
 16
0.0
 26
0.0
 36
1.0
 17
-5.580356062589321
 27
0.0
 37
0.0
 40
387.6
 41
1.457894736842105
 42
50.0
 43
0.0
 44
0.0
 50
0.0
 51
0.0
 71
     0
 72
  1000
 73
     1
 74
     1
 75
     0
 76
     0
 77
     0
 78
     0
  0
ENDTAB
  0
TABLE
  2
LTYPE
 70
    28
  0
LTYPE
  2
CONTINUOUS
 70
     0
  3
Solid line
 72
    65
 73
     0
 40
0.0
  0
LTYPE
  2
HIDDENX2
 70
     0
  3
CADPAC LINETYPE
 72
    65
 73
     2
 40
20.63803680981596
 49
15.47852760736197
 49
-5.15950920245399
  0
LTYPE
  2
HIDDEN
 70
     0
  3
CADPAC LINETYPE
 72
    65
 73
     2
 40
15.47852760736197
 49
10.31901840490798
 49
-5.15950920245399
  0
LTYPE
  2
HIDDEN2
 70
     0
  3
CADPAC LINETYPE
 72
    65
 73
     2
 40
12.89877300613497
 49
7.739263803680984
 49
-5.15950920245399
  0
LTYPE
  2
DASHED
 70
     0
  3
CADPAC LINETYPE
 72
    65
 73
     2
 40
14.44662576687119
 49
10.31901840490798
 49
-4.127607361963214
  0
LTYPE
  2
DASHED2
 70
     0
  3
CADPAC LINETYPE
 72
    65
 73
     2
 40
9.287116564417147
 49
6.191411042944765
 49
-3.095705521472382
  0
LTYPE
  2
DASHEDX2
 70
     0
  3
CADPAC LINETYPE
 72
    65
 73
     2
 40
24.76564417177917
 49
20.63803680981596
 49
-4.127607361963214
  0
LTYPE
  2
DOTX2
 70
     0
  3
CADPAC LINETYPE
 72
    65
 73
     2
 40
9.029141104294496
 49
0.0
 49
-9.029141104294496
  0
LTYPE
  2
DOT
 70
     0
  3
CADPAC LINETYPE
 72
    65
 73
     2
 40
7.223312883435597
 49
0.0
 49
-7.223312883435597
  0
LTYPE
  2
DOT2
 70
     0
  3
CADPAC LINETYPE
 72
    65
 73
     2
 40
5.417484662576698
 49
0.0
 49
-5.417484662576698
  0
LTYPE
  2
CENTERX2
 70
     0
  3
CADPAC LINETYPE
 72
    65
 73
     4
 40
30.95705521472394
 49
12.89877300613497
 49
-6.449386503067487
 49
5.15950920245399
 49
-6.449386503067487
  0
LTYPE
  2
CENTER
 70
     0
  3
CADPAC LINETYPE
 72
    65
 73
     4
 40
23.73374233128835
 49
10.31901840490798
 49
-5.15950920245399
 49
3.095705521472393
 49
-5.15950920245399
  0
LTYPE
  2
CENTER2
 70
     0
  3
CADPAC LINETYPE
 72
    65
 73
     4
 40
16.51042944785277
 49
7.739263803680984
 49
-3.869631901840492
 49
1.031901840490798
 49
-3.869631901840492
  0
LTYPE
  2
DASHDOTX2
 70
     0
  3
CADPAC LINETYPE
 72
    65
 73
     4
 40
49.53128834355846
 49
24.76564417177917
 49
-8.255214723926429
 49
8.255214723926429
 49
-8.255214723926429
  0
LTYPE
  2
DASHDOT
 70
     0
  3
CADPAC LINETYPE
 72
    65
 73
     4
 40
24.76564417177929
 49
12.38282208588964
 49
-4.127607361963214
 49
4.127607361963214
 49
-4.127607361963214
  0
LTYPE
  2
DASHDOT2
 70
     0
  3
CADPAC LINETYPE
 72
    65
 73
     4
 40
15.89128834355838
 49
9.287116564417232
 49
-3.095705521472411
 49
0.4127607361963215
 49
-3.095705521472411
  0
LTYPE
  2
DIVIDEX2
 70
     0
  3
CADPAC LINETYPE
 72
    65
 73
     6
 40
66.04171779141132
 49
24.76564417177917
 49
-8.255214723926429
 49
8.255214723926429
 49
-8.255214723926429
 49
8.255214723926429
 49
-8.255214723926429
  0
LTYPE
  2
DIVIDE
 70
     0
  3
CADPAC LINETYPE
 72
    65
 73
     6
 40
33.02085889570572
 49
12.38282208588964
 49
-4.127607361963214
 49
4.127607361963214
 49
-4.127607361963214
 49
4.127607361963214
 49
-4.127607361963214
  0
LTYPE
  2
DIVIDE2
 70
     0
  3
CADPAC LINETYPE
 72
    65
 73
     6
 40
24.76564417177929
 49
9.287116564417232
 49
-3.095705521472411
 49
3.095705521472411
 49
-3.095705521472411
 49
3.095705521472411
 49
-3.095705521472411
  0
LTYPE
  2
BORDERX2
 70
     0
  3
CADPAC LINETYPE
 72
    65
 73
     6
 40
45.14570552147241
 49
12.89877300613497
 49
-6.449386503067487
 49
12.89877300613497
 49
-6.449386503067487
 49
0.0
 49
-6.449386503067487
  0
LTYPE
  2
BORDER
 70
     0
  3
CADPAC LINETYPE
 72
    65
 73
     6
 40
36.11656441717793
 49
10.31901840490798
 49
-5.15950920245399
 49
10.31901840490798
 49
-5.15950920245399
 49
0.0
 49
-5.15950920245399
  0
LTYPE
  2
BORDER2
 70
     0
  3
CADPAC LINETYPE
 72
    65
 73
     6
 40
26.82944785276067
 49
8.255214723926429
 49
-5.159509202453933
 49
3.095705521472382
 49
-5.159509202453933
 49
0.0
 49
-5.15950920245399
  0
LTYPE
  2
PHANTOMX2
 70
     0
  3
CADPAC LINETYPE
 72
    65
 73
     6
 40
38.69631901840492
 49
12.89877300613497
 49
-5.15950920245399
 49
5.15950920245399
 49
-5.15950920245399
 49
5.15950920245399
 49
-5.15950920245399
  0
LTYPE
  2
PHANTOM
 70
     0
  3
CADPAC LINETYPE
 72
    65
 73
     6
 40
31.98895705521473
 49
10.31901840490798
 49
-5.15950920245399
 49
3.095705521472393
 49
-5.15950920245399
 49
3.095705521472393
 49
-5.15950920245399
  0
LTYPE
  2
PHANTOM2
 70
     0
  3
CADPAC LINETYPE
 72
    65
 73
     6
 40
27.34539877300615
 49
7.739263803680984
 49
-5.15950920245399
 49
2.063803680981596
 49
-5.15950920245399
 49
2.063803680981596
 49
-5.15950920245399
  0
LTYPE
  2
ACAD_ISO06W100
 70
     0
  3
CADPAC LINETYPE
 72
    65
 73
     8
 40
54.69079754601205
 49
24.76564417177917
 49
-5.159509202453933
 49
3.095705521472382
 49
-5.159509202453933
 49
3.095705521472382
 49
-5.159509202453933
 49
3.095705521472382
 49
-5.159509202453933
  0
LTYPE
  2
ACAD_ISO13W100
 70
     0
  3
CADPAC LINETYPE
 72
    65
 73
     8
 40
41.27607361963192
 49
10.31901840490798
 49
-5.15950920245399
 49
10.31901840490798
 49
-5.15950920245399
 49
0.0
 49
-5.15950920245399
 49
0.0
 49
-5.15950920245399
  0
LTYPE
  2
ACAD_ISO14W100
 70
     0
  3
CADPAC LINETYPE
 72
    65
 73
     8
 40
30.95705521472394
 49
10.31901840490798
 49
-5.15950920245399
 49
0.0
 49
-5.15950920245399
 49
0.0
 49
-5.15950920245399
 49
0.0
 49
-5.15950920245399
  0
ENDTAB
  0
TABLE
  2
LAYER
 70
     3
  0
LAYER
  2
0
 70
     0
 62
     7
  6
CONTINUOUS
  0
LAYER
  2
LAYER0014
 70
     0
 62
     7
  6
CONTINUOUS
  0
LAYER
  2
LAYER0002
 70
     0
 62
     7
  6
CONTINUOUS
  0
ENDTAB
  0
TABLE
  2
STYLE
 70
     5
  0
STYLE
  2
STANDARD
 70
     0
 40
0.0
 41
1.0
 50
0.0
 71
     0
 42
0.2
  3
txt
  4

  0
STYLE
  2
FDASTYLE0
 70
     0
 40
0.0
 41
0.7396449704142013
 50
0.0
 71
     0
 42
0.2
  3
txt.shx
  4
bigfont
  0
STYLE
  2
FDASTYLE1
 70
     4
 40
0.0
 41
0.8
 50
0.0
 71
     0
 42
0.2
  3
txt.shx
  4
bigfont
  0
STYLE
  2
FDASTYLE2
 70
     0
 40
0.0
 41
0.8123476848090981
 50
0.0
 71
     0
 42
0.2
  3
MSMINCHO.TTC
  4

  0
STYLE
  2
FDASTYLE3
 70
     0
 40
0.0
 41
0.6347897774113767
 50
0.0
 71
     0
 42
0.2
  3
MSGOTHIC.TTC
  4

  0
ENDTAB
  0
TABLE
  2
VIEW
 70
     0
  0
ENDTAB
  0
TABLE
  2
UCS
 70
     0
  0
ENDTAB
  0
TABLE
  2
APPID
 70
     2
  0
APPID
  2
ACAD
 70
     0
  0
APPID
  2
DAFUSIONOUT
 70
     0
  0
ENDTAB
  0
TABLE
  2
DIMSTYLE
 70
     1
  0
DIMSTYLE
  2
STANDARD
 70
     0
  3

  4

  5

  6

  7

 40
1.0
 41
0.18
 42
0.0625
 43
0.38
 44
0.18
 45
0.0
 46
0.0
 47
0.0
 48
0.0
140
0.18
141
0.09
142
0.0
143
25.4
144
1.0
145
0.0
146
1.0
147
0.09
 71
     0
 72
     0
 73
     1
 74
     1
 75
     0
 76
     0
 77
     0
 78
     0
170
     0
171
     2
172
     0
173
     0
174
     0
175
     0
176
     0
177
     0
178
     0
  0
ENDTAB
  0
ENDSEC
  0
SECTION
  2
BLOCKS
  0
BLOCK
  8
0
  2
$MODEL_SPACE
 70
     0
 10
0.0
 20
0.0
 30
0.0
  3
$MODEL_SPACE
  1

  0
ENDBLK
  5
21
  8
0
  0
BLOCK
 67
     1
  8
0
  2
$PAPER_SPACE
 70
     0
 10
0.0
 20
0.0
 30
0.0
  3
$PAPER_SPACE
  1

  0
ENDBLK
  5
1D
 67
     1
  8
0
  0
BLOCK
  8
0
  2
DC_GROUP_1
 70
     0
 10
0.0
 20
0.0
 30
0.0
  3
DC_GROUP_1
  1

  0
LINE
  5
199
  8
LAYER0014
  6
CONTINUOUS
 62
     7
 10
-236.3768830539068
 20
-25.35693168640137
 30
0.0
 11
-236.3768830539068
 21
72.64306640625
 31
0.0
  0
LINE
  5
19A
  8
LAYER0014
  6
CONTINUOUS
 62
     7
 10
-198.8907512606338
 20
-25.35693359375
 30
0.0
 11
-237.3768830539068
 21
-25.35693163551992
 31
0.0
  0
LINE
  5
19B
  8
LAYER0014
  6
CONTINUOUS
 62
     7
 10
-198.8907360018447
 20
72.64306640625
 30
0.0
 11
-237.3768830539068
 21
72.64306640625
 31
0.0
  0
INSERT
  5
19C
  8
LAYER0014
  6
CONTINUOUS
  2
DC_GROUP_2
 10
0.0
 20
0.0
 30
0.0
  0
INSERT
  5
19D
  8
LAYER0014
  6
CONTINUOUS
  2
DC_GROUP_3
 10
0.0
 20
0.0
 30
0.0
  0
TEXT
  5
19F
  8
LAYER0014
 62
     7
 10
-237.9768830539067
 20
15.75472640991211
 30
0.0
 40
4.0
  1
φ98H7
 50
90.0
 41
0.7396449704142013
  7
FDASTYLE0
 72
     5
 11
-237.9768830539067
 21
31.1393417945275
 31
0.0
  0
ENDBLK
  5
4E
  8
0
  0
BLOCK
  8
0
  2
DC_GROUP_2
 70
     0
 10
0.0
 20
0.0
 30
0.0
  3
DC_GROUP_2
  1

  0
LINE
  5
1A0
  8
LAYER0014
  6
CONTINUOUS
 62
     7
 10
-235.8409835190092
 20
-23.35693327877071
 30
0.0
 11
-236.3768830539068
 21
-25.35693168640137
 31
0.0
  0
LINE
  5
1A1
  8
LAYER0014
  6
CONTINUOUS
 62
     7
 10
-236.3768830539068
 20
-25.35693168640137
 30
0.0
 11
-236.9127825888044
 21
-23.35693327877071
 31
0.0
  0
LINE
  5
1A2
  8
LAYER0014
  6
CONTINUOUS
 62
     7
 10
-236.3768830539068
 20
-25.35693168640137
 30
0.0
 11
-236.3768830539068
 21
-23.35693327877071
 31
0.0
  0
ENDBLK
  5
51
  8
0
  0
BLOCK
  8
0
  2
DC_GROUP_3
 70
     0
 10
0.0
 20
0.0
 30
0.0
  3
DC_GROUP_3
  1

  0
LINE
  5
1A3
  8
LAYER0014
  6
CONTINUOUS
 62
     7
 10
-236.9127825888044
 20
70.64306799861933
 30
0.0
 11
-236.3768830539068
 21
72.64306640625
 31
0.0
  0
LINE
  5
1A4
  8
LAYER0014
  6
CONTINUOUS
 62
     7
 10
-236.3768830539068
 20
72.64306640625
 30
0.0
 11
-235.8409835190092
 21
70.64306799861933
 31
0.0
  0
LINE
  5
1A5
  8
LAYER0014
  6
CONTINUOUS
 62
     7
 10
-236.3768830539068
 20
72.64306640625
 30
0.0
 11
-236.3768830539068
 21
70.64306799861933
 31
0.0
  0
ENDBLK
  5
54
  8
0
  0
BLOCK
  8
0
  2
DC_GROUP_4
 70
     0
 10
0.0
 20
0.0
 30
0.0
  3
DC_GROUP_4
  1

  0
LINE
  5
1A6
  8
LAYER0014
  6
CONTINUOUS
 62
     7
 10
-245.8899068364662
 20
-88.85693359375
 30
0.0
 11
-245.8899068364662
 21
136.14306640625
 31
0.0
  0
LINE
  5
1A7
  8
LAYER0014
  6
CONTINUOUS
 62
     7
 10
-203.090748208876
 20
-88.85693359375
 30
0.0
 11
-246.8899068364662
 21
-88.85693359375
 31
0.0
  0
LINE
  5
1A8
  8
LAYER0014
  6
CONTINUOUS
 62
     7
 10
-203.090748208876
 20
136.14306640625
 30
0.0
 11
-246.8899068364662
 21
136.14306640625
 31
0.0
  0
INSERT
  5
1A9
  8
LAYER0014
  6
CONTINUOUS
  2
DC_GROUP_5
 10
0.0
 20
0.0
 30
0.0
  0
INSERT
  5
1AA
  8
LAYER0014
  6
CONTINUOUS
  2
DC_GROUP_6
 10
0.0
 20
0.0
 30
0.0
  0
TEXT
  5
1AB
  8
LAYER0014
 62
     7
 10
-246.8899068364662
 20
14.04306640625001
 30
0.0
 40
4.0
  1
φ225H7
 50
90.0
 41
0.7492195629552542
  7
FDASTYLE0
 72
     5
 11
-246.8899068364662
 21
32.62371156754031
 31
0.0
  0
ENDBLK
  5
57
  8
0
  0
BLOCK
  8
0
  2
DC_GROUP_5
 70
     0
 10
0.0
 20
0.0
 30
0.0
  3
DC_GROUP_5
  1

  0
LINE
  5
1AC
  8
LAYER0014
  6
CONTINUOUS
 62
     7
 10
-245.3540073015686
 20
-86.85693518611933
 30
0.0
 11
-245.8899068364662
 21
-88.85693359375
 31
0.0
  0
LINE
  5
1AD
  8
LAYER0014
  6
CONTINUOUS
 62
     7
 10
-245.8899068364662
 20
-88.85693359375
 30
0.0
 11
-246.4258063713638
 21
-86.85693518611933
 31
0.0
  0
LINE
  5
1AE
  8
LAYER0014
  6
CONTINUOUS
 62
     7
 10
-245.8899068364662
 20
-88.85693359375
 30
0.0
 11
-245.8899068364662
 21
-86.85693518611933
 31
0.0
  0
ENDBLK
  5
5A
  8
0
  0
BLOCK
  8
0
  2
DC_GROUP_6
 70
     0
 10
0.0
 20
0.0
 30
0.0
  3
DC_GROUP_6
  1

  0
LINE
  5
1AF
  8
LAYER0014
  6
CONTINUOUS
 62
     7
 10
-246.4258063713638
 20
134.1430679986193
 30
0.0
 11
-245.8899068364662
 21
136.14306640625
 31
0.0
  0
LINE
  5
1B0
  8
LAYER0014
  6
CONTINUOUS
 62
     7
 10
-245.8899068364662
 20
136.14306640625
 30
0.0
 11
-245.3540073015686
 21
134.1430679986193
 31
0.0
  0
LINE
  5
1B1
  8
LAYER0014
  6
CONTINUOUS
 62
     7
 10
-245.8899068364662
 20
136.14306640625
 30
0.0
 11
-245.8899068364662
 21
134.1430679986193
 31
0.0
  0
ENDBLK
  5
5D
  8
0
  0
BLOCK
  8
0
  2
DC_GROUP_7
 70
     0
 10
0.0
 20
0.0
 30
0.0
  3
DC_GROUP_7
  1

  0
LINE
  5
1B2
  8
LAYER0014
  6
CONTINUOUS
 62
     7
 10
-255.8257316760283
 20
-101.35693359375
 30
0.0
 11
-255.8257316760283
 21
148.64306640625
 31
0.0
  0
LINE
  5
1B3
  8
LAYER0014
  6
CONTINUOUS
 62
     7
 10
-203.090748208876
 20
-101.35693359375
 30
0.0
 11
-256.8257316760283
 21
-101.35693359375
 31
0.0
  0
LINE
  5
1B4
  8
LAYER0014
  6
CONTINUOUS
 62
     7
 10
-203.090748208876
 20
148.64306640625
 30
0.0
 11
-256.8257316760283
 21
148.64306640625
 31
0.0
  0
INSERT
  5
1B5
  8
LAYER0014
  6
CONTINUOUS
  2
DC_GROUP_8
 10
0.0
 20
0.0
 30
0.0
  0
INSERT
  5
1B6
  8
LAYER0014
  6
CONTINUOUS
  2
DC_GROUP_9
 10
0.0
 20
0.0
 30
0.0
  0
TEXT
  5
1B7
  8
LAYER0014
 62
     7
 10
-256.8257316760283
 20
17.24306640624999
 30
0.0
 40
4.0
  1
φ250
 50
90.0
 41
0.7256235827664407
  7
FDASTYLE0
 72
     5
 11
-256.8257316760283
 21
29.4335425967262
 31
0.0
  0
ENDBLK
  5
60
  8
0
  0
BLOCK
  8
0
  2
DC_GROUP_8
 70
     0
 10
0.0
 20
0.0
 30
0.0
  3
DC_GROUP_8
  1

  0
LINE
  5
1B8
  8
LAYER0014
  6
CONTINUOUS
 62
     7
 10
-255.2898321411307
 20
-99.35693518611934
 30
0.0
 11
-255.8257316760283
 21
-101.35693359375
 31
0.0
  0
LINE
  5
1B9
  8
LAYER0014
  6
CONTINUOUS
 62
     7
 10
-255.8257316760283
 20
-101.35693359375
 30
0.0
 11
-256.3616312109259
 21
-99.35693518611934
 31
0.0
  0
LINE
  5
1BA
  8
LAYER0014
  6
CONTINUOUS
 62
     7
 10
-255.8257316760283
 20
-101.35693359375
 30
0.0
 11
-255.8257316760283
 21
-99.35693518611934
 31
0.0
  0
ENDBLK
  5
63
  8
0
  0
BLOCK
  8
0
  2
DC_GROUP_9
 70
     0
 10
0.0
 20
0.0
 30
0.0
  3
DC_GROUP_9
  1

  0
LINE
  5
1BB
  8
LAYER0014
  6
CONTINUOUS
 62
     7
 10
-256.3616312109259
 20
146.6430679986194
 30
0.0
 11
-255.8257316760283
 21
148.64306640625
 31
0.0
  0
LINE
  5
1BC
  8
LAYER0014
  6
CONTINUOUS
 62
     7
 10
-255.8257316760283
 20
148.64306640625
 30
0.0
 11
-255.2898321411307
 21
146.6430679986194
 31
0.0
  0
LINE
  5
1BD
  8
LAYER0014
  6
CONTINUOUS
 62
     7
 10
-255.8257316760283
 20
148.64306640625
 30
0.0
 11
-255.8257316760283
 21
146.6430679986194
 31
0.0
  0
ENDBLK
  5
66
  8
0
  0
BLOCK
  8
0
  2
DC_GROUP_10
 70
     0
 10
0.0
 20
0.0
 30
0.0
  3
DC_GROUP_10
  1

  0
LINE
  5
1BE
  8
LAYER0014
  6
CONTINUOUS
 62
     7
 10
-98.01074820887594
 20
-28.85693359375
 30
0.0
 11
-64.45586905848532
 21
-28.85693359375
 31
0.0
  0
LINE
  5
1BF
  8
LAYER0014
  6
CONTINUOUS
 62
     7
 10
-65.45586905848532
 20
-28.85693168640137
 30
0.0
 11
-65.45586905848532
 21
62.64306640625
 31
0.0
  0
INSERT
  5
1C0
  8
LAYER0014
  6
CONTINUOUS
  2
DC_GROUP_11
 10
0.0
 20
0.0
 30
0.0
  0
TEXT
  5
1C1
  8
LAYER0014
 62
     7
 10
-67.05586905848531
 20
13.94948043823242
 30
0.0
 40
4.0
  1
φ105H7
 50
90.0
 41
0.7492195629552548
  7
FDASTYLE0
 72
     5
 11
-67.05586905848531
 21
32.53012559952274
 31
0.0
  0
ENDBLK
  5
69
  8
0
  0
BLOCK
  8
0
  2
DC_GROUP_11
 70
     0
 10
0.0
 20
0.0
 30
0.0
  3
DC_GROUP_11
  1

  0
LINE
  5
1C2
  8
LAYER0014
  6
CONTINUOUS
 62
     7
 10
-64.91996952358771
 20
-26.85693327877071
 30
0.0
 11
-65.45586905848532
 21
-28.85693168640137
 31
0.0
  0
LINE
  5
1C3
  8
LAYER0014
  6
CONTINUOUS
 62
     7
 10
-65.45586905848532
 20
-28.85693168640137
 30
0.0
 11
-65.99176859338294
 21
-26.85693327877071
 31
0.0
  0
LINE
  5
1C4
  8
LAYER0014
  6
CONTINUOUS
 62
     7
 10
-65.45586905848532
 20
-28.85693168640137
 30
0.0
 11
-65.45586905848532
 21
-26.85693327877071
 31
0.0
  0
ENDBLK
  5
6C
  8
0
  0
BLOCK
  8
0
  2
DC_GROUP_12
 70
     0
 10
0.0
 20
0.0
 30
0.0
  3
DC_GROUP_12
  1

  0
LINE
  5
1C5
  8
LAYER0014
  6
CONTINUOUS
 62
     7
 10
-101.4878744653844
 20
142.7853066825978
 30
0.0
 11
-78.79434718977691
 21
167.8217587876279
 31
0.0
  0
LINE
  5
1C6
  8
LAYER0014
  6
CONTINUOUS
 62
     7
 10
-78.79435477625876
 20
167.8217620849609
 30
0.0
 11
-28.96468100916892
 21
167.8217620849609
 31
0.0
  0
INSERT
  5
1C7
  8
LAYER0014
  6
CONTINUOUS
  2
DC_GROUP_13
 10
0.0
 20
0.0
 30
0.0
  0
TEXT
  5
1C8
  8
LAYER0014
 62
     7
 10
-78.06620536219626
 20
169.4217620849609
 30
0.0
 40
4.0
  1
ｾﾚｰｼｮﾝP1.5 山60ﾟ
 41
0.7790858725761773
  7
FDASTYLE0
 72
     5
 11
-30.69778430956468
 21
169.4217620849609
 31
0.0
  0
ENDBLK
  5
6F
  8
0
  0
BLOCK
  8
0
  2
DC_GROUP_13
 70
     0
 10
0.0
 20
0.0
 30
0.0
  3
DC_GROUP_13
  1

  0
LINE
  5
1C9
  8
LAYER0014
  6
CONTINUOUS
 62
     7
 10
-99.7476377367056
 20
143.9072505627388
 30
0.0
 11
-101.4878744653844
 21
142.7853066825978
 31
0.0
  0
LINE
  5
1CA
  8
LAYER0014
  6
CONTINUOUS
 62
     7
 10
-101.4878744653844
 20
142.7853066825978
 30
0.0
 11
-100.5417598992033
 21
144.6270583405823
 31
0.0
  0
LINE
  5
1CB
  8
LAYER0014
  6
CONTINUOUS
 62
     7
 10
-101.4878744653844
 20
142.7853066825978
 30
0.0
 11
-100.1446988179544
 21
144.2671544516605
 31
0.0
  0
ENDBLK
  5
72
  8
0
  0
BLOCK
  8
0
  2
DC_GROUP_14
 70
     0
 10
0.0
 20
0.0
 30
0.0
  3
DC_GROUP_14
  1

  0
LINE
  5
1CC
  8
LAYER0014
  6
CONTINUOUS
 62
     7
 10
-181.3724645174697
 20
4.406265258789063
 30
0.0
 11
-152.3724645174697
 21
4.406265258789063
 31
0.0
  0
INSERT
  5
1CD
  8
LAYER0014
  6
CONTINUOUS
  2
DC_GROUP_15
 10
0.0
 20
0.0
 30
0.0
  0
INSERT
  5
1CE
  8
LAYER0014
  6
CONTINUOUS
  2
DC_GROUP_16
 10
0.0
 20
0.0
 30
0.0
  0
TEXT
  5
1CF
  8
LAYER0014
 62
     7
 10
-170.0724645174697
 20
5.406265258789063
 30
0.0
 40
4.0
  1
29
 41
0.7999999999999972
  7
FDASTYLE0
 72
     5
 11
-163.6724645174697
 21
5.406265258789063
 31
0.0
  0
ENDBLK
  5
75
  8
0
  0
BLOCK
  8
0
  2
DC_GROUP_15
 70
     0
 10
0.0
 20
0.0
 30
0.0
  3
DC_GROUP_15
  1

  0
LINE
  5
1D0
  8
LAYER0014
  6
CONTINUOUS
 62
     7
 10
-179.372466109839
 20
3.870365723891456
 30
0.0
 11
-181.3724645174697
 21
4.406265258789063
 31
0.0
  0
LINE
  5
1D1
  8
LAYER0014
  6
CONTINUOUS
 62
     7
 10
-181.3724645174697
 20
4.406265258789063
 30
0.0
 11
-179.372466109839
 21
4.942164793686671
 31
0.0
  0
LINE
  5
1D2
  8
LAYER0014
  6
CONTINUOUS
 62
     7
 10
-181.3724645174697
 20
4.406265258789063
 30
0.0
 11
-179.372466109839
 21
4.406265258789063
 31
0.0
  0
ENDBLK
  5
78
  8
0
  0
BLOCK
  8
0
  2
DC_GROUP_16
 70
     0
 10
0.0
 20
0.0
 30
0.0
  3
DC_GROUP_16
  1

  0
LINE
  5
1D3
  8
LAYER0014
  6
CONTINUOUS
 62
     7
 10
-154.3724629251003
 20
4.942164793686671
 30
0.0
 11
-152.3724645174697
 21
4.406265258789063
 31
0.0
  0
LINE
  5
1D4
  8
LAYER0014
  6
CONTINUOUS
 62
     7
 10
-152.3724645174697
 20
4.406265258789063
 30
0.0
 11
-154.3724629251003
 21
3.870365723891456
 31
0.0
  0
LINE
  5
1D5
  8
LAYER0014
  6
CONTINUOUS
 62
     7
 10
-152.3724645174697
 20
4.406265258789063
 30
0.0
 11
-154.3724629251003
 21
4.406265258789063
 31
0.0
  0
ENDBLK
  5
7B
  8
0
  0
BLOCK
  8
0
  2
DC_GROUP_17
 70
     0
 10
0.0
 20
0.0
 30
0.0
  3
DC_GROUP_17
  1

  0
LINE
  5
1D6
  8
LAYER0014
  6
CONTINUOUS
 62
     7
 10
-152.3724645174697
 20
4.406265258789063
 30
0.0
 11
-134.3724645174697
 21
4.406265258789063
 31
0.0
  0
INSERT
  5
1D7
  8
LAYER0014
  6
CONTINUOUS
  2
DC_GROUP_18
 10
0.0
 20
0.0
 30
0.0
  0
INSERT
  5
1D8
  8
LAYER0014
  6
CONTINUOUS
  2
DC_GROUP_19
 10
0.0
 20
0.0
 30
0.0
  0
TEXT
  5
1D9
  8
LAYER0014
 62
     7
 10
-146.5724645174697
 20
5.406265258789063
 30
0.0
 40
4.0
  1
18
 41
0.7999999999999972
  7
FDASTYLE0
 72
     5
 11
-140.1724645174697
 21
5.406265258789063
 31
0.0
  0
ENDBLK
  5
7E
  8
0
  0
BLOCK
  8
0
  2
DC_GROUP_18
 70
     0
 10
0.0
 20
0.0
 30
0.0
  3
DC_GROUP_18
  1

  0
LINE
  5
1DA
  8
LAYER0014
  6
CONTINUOUS
 62
     7
 10
-150.372466109839
 20
3.870365723891456
 30
0.0
 11
-152.3724645174697
 21
4.406265258789063
 31
0.0
  0
LINE
  5
1DB
  8
LAYER0014
  6
CONTINUOUS
 62
     7
 10
-152.3724645174697
 20
4.406265258789063
 30
0.0
 11
-150.372466109839
 21
4.942164793686671
 31
0.0
  0
LINE
  5
1DC
  8
LAYER0014
  6
CONTINUOUS
 62
     7
 10
-152.3724645174697
 20
4.406265258789063
 30
0.0
 11
-150.372466109839
 21
4.406265258789063
 31
0.0
  0
ENDBLK
  5
81
  8
0
  0
BLOCK
  8
0
  2
DC_GROUP_19
 70
     0
 10
0.0
 20
0.0
 30
0.0
  3
DC_GROUP_19
  1

  0
LINE
  5
1DD
  8
LAYER0014
  6
CONTINUOUS
 62
     7
 10
-136.3724629251003
 20
4.942164793686671
 30
0.0
 11
-134.3724645174697
 21
4.406265258789063
 31
0.0
  0
LINE
  5
1DE
  8
LAYER0014
  6
CONTINUOUS
 62
     7
 10
-134.3724645174697
 20
4.406265258789063
 30
0.0
 11
-136.3724629251003
 21
3.870365723891456
 31
0.0
  0
LINE
  5
1DF
  8
LAYER0014
  6
CONTINUOUS
 62
     7
 10
-134.3724645174697
 20
4.406265258789063
 30
0.0
 11
-136.3724629251003
 21
4.406265258789063
 31
0.0
  0
ENDBLK
  5
84
  8
0
  0
BLOCK
  8
0
  2
DC_GROUP_20
 70
     0
 10
0.0
 20
0.0
 30
0.0
  3
DC_GROUP_20
  1

  0
LINE
  5
1E0
  8
LAYER0014
  6
CONTINUOUS
 62
     7
 10
-134.3724645174697
 20
4.406265258789063
 30
0.0
 11
-124.3724568880752
 21
4.406265258789063
 31
0.0
  0
INSERT
  5
1E1
  8
LAYER0014
  6
CONTINUOUS
  2
DC_GROUP_21
 10
0.0
 20
0.0
 30
0.0
  0
INSERT
  5
1E2
  8
LAYER0014
  6
CONTINUOUS
  2
DC_GROUP_22
 10
0.0
 20
0.0
 30
0.0
  0
TEXT
  5
1E3
  8
LAYER0014
 62
     7
 10
-132.5724607027724
 20
5.406265258789063
 30
0.0
 40
4.0
  1
10
 41
0.8000000000000007
  7
FDASTYLE0
 72
     5
 11
-126.1724607027724
 21
5.406265258789063
 31
0.0
  0
ENDBLK
  5
87
  8
0
  0
BLOCK
  8
0
  2
DC_GROUP_21
 70
     0
 10
0.0
 20
0.0
 30
0.0
  3
DC_GROUP_21
  1

  0
LINE
  5
1E4
  8
LAYER0014
  6
CONTINUOUS
 62
     7
 10
-132.372466109839
 20
3.870365723891455
 30
0.0
 11
-134.3724645174697
 21
4.406265258789063
 31
0.0
  0
LINE
  5
1E5
  8
LAYER0014
  6
CONTINUOUS
 62
     7
 10
-134.3724645174697
 20
4.406265258789063
 30
0.0
 11
-132.372466109839
 21
4.94216479368667
 31
0.0
  0
LINE
  5
1E6
  8
LAYER0014
  6
CONTINUOUS
 62
     7
 10
-134.3724645174697
 20
4.406265258789063
 30
0.0
 11
-132.372466109839
 21
4.406265258789063
 31
0.0
  0
ENDBLK
  5
8A
  8
0
  0
BLOCK
  8
0
  2
DC_GROUP_22
 70
     0
 10
0.0
 20
0.0
 30
0.0
  3
DC_GROUP_22
  1

  0
LINE
  5
1E7
  8
LAYER0014
  6
CONTINUOUS
 62
     7
 10
-126.3724552957059
 20
4.942164793686671
 30
0.0
 11
-124.3724568880752
 21
4.406265258789063
 31
0.0
  0
LINE
  5
1E8
  8
LAYER0014
  6
CONTINUOUS
 62
     7
 10
-124.3724568880752
 20
4.406265258789063
 30
0.0
 11
-126.3724552957059
 21
3.870365723891456
 31
0.0
  0
LINE
  5
1E9
  8
LAYER0014
  6
CONTINUOUS
 62
     7
 10
-124.3724568880752
 20
4.406265258789063
 30
0.0
 11
-126.3724552957059
 21
4.406265258789063
 31
0.0
  0
ENDBLK
  5
8D
  8
0
  0
BLOCK
  8
0
  2
DC_GROUP_23
 70
     0
 10
0.0
 20
0.0
 30
0.0
  3
DC_GROUP_23
  1

  0
LINE
  5
1EA
  8
LAYER0014
  6
CONTINUOUS
 62
     7
 10
-121.8324568880752
 20
-21.35693359375
 30
0.0
 11
-74.45586905848532
 21
-21.35693359375
 31
0.0
  0
LINE
  5
1EB
  8
LAYER0014
  6
CONTINUOUS
 62
     7
 10
-75.45586905848532
 20
62.64306640625
 30
0.0
 11
-75.45586905848532
 21
-21.35693168640137
 31
0.0
  0
INSERT
  5
1EC
  8
LAYER0014
  6
CONTINUOUS
  2
DC_GROUP_24
 10
0.0
 20
0.0
 30
0.0
  0
TEXT
  5
1ED
  8
LAYER0014
 62
     7
 10
-77.05586905848531
 20
9.149480438232416
 30
0.0
 40
4.0
  1
M90×P1.25
 50
90.0
 41
0.7655954631379964
  7
FDASTYLE0
 72
     5
 11
-77.05586905848531
 21
37.32339348171068
 31
0.0
  0
ENDBLK
  5
90
  8
0
  0
BLOCK
  8
0
  2
DC_GROUP_24
 70
     0
 10
0.0
 20
0.0
 30
0.0
  3
DC_GROUP_24
  1

  0
LINE
  5
1EE
  8
LAYER0014
  6
CONTINUOUS
 62
     7
 10
-74.9199695235877
 20
-19.35693327877071
 30
0.0
 11
-75.45586905848532
 21
-21.35693168640137
 31
0.0
  0
LINE
  5
1EF
  8
LAYER0014
  6
CONTINUOUS
 62
     7
 10
-75.45586905848532
 20
-21.35693168640137
 30
0.0
 11
-75.99176859338293
 21
-19.35693327877071
 31
0.0
  0
LINE
  5
1F0
  8
LAYER0014
  6
CONTINUOUS
 62
     7
 10
-75.45586905848532
 20
-21.35693168640137
 30
0.0
 11
-75.45586905848532
 21
-19.35693327877071
 31
0.0
  0
ENDBLK
  5
93
  8
0
  0
BLOCK
  8
0
  2
DC_GROUP_25
 70
     0
 10
0.0
 20
0.0
 30
0.0
  3
DC_GROUP_25
  1

  0
LINE
  5
1F1
  8
LAYER0014
  6
CONTINUOUS
 62
     7
 10
-103.0507482088759
 20
3.689041137695313
 30
0.0
 11
-100.5507482088759
 21
3.689041137695313
 31
0.0
  0
LINE
  5
1F2
  8
LAYER0014
  6
CONTINUOUS
 62
     7
 10
-87.01889820887595
 20
3.689041137695313
 30
0.0
 11
-100.5507482088759
 21
3.689041137695313
 31
0.0
  0
LINE
  5
1F3
  8
LAYER0014
  6
CONTINUOUS
 62
     7
 10
-108.050748208876
 20
3.689041137695313
 30
0.0
 11
-103.0507482088759
 21
3.689041137695313
 31
0.0
  0
INSERT
  5
1F4
  8
LAYER0014
  6
CONTINUOUS
  2
DC_GROUP_26
 10
0.0
 20
0.0
 30
0.0
  0
INSERT
  5
1F5
  8
LAYER0014
  6
CONTINUOUS
  2
DC_GROUP_27
 10
0.0
 20
0.0
 30
0.0
  0
TEXT
  5
1F6
  8
LAYER0014
 62
     7
 10
-97.61889820887595
 20
4.689041137695314
 30
0.0
 40
4.0
  1
2.5
 50
-0.1000000000000078
 41
0.8000000000000002
  7
FDASTYLE0
 72
     5
 11
-88.01891283050838
 21
4.672285985382689
 31
0.0
  0
ENDBLK
  5
96
  8
0
  0
BLOCK
  8
0
  2
DC_GROUP_26
 70
     0
 10
0.0
 20
0.0
 30
0.0
  3
DC_GROUP_26
  1

  0
LINE
  5
1F7
  8
LAYER0014
  6
CONTINUOUS
 62
     7
 10
-98.55074980124529
 20
3.153141602797705
 30
0.0
 11
-100.5507482088759
 21
3.689041137695313
 31
0.0
  0
LINE
  5
1F8
  8
LAYER0014
  6
CONTINUOUS
 62
     7
 10
-100.5507482088759
 20
3.689041137695313
 30
0.0
 11
-98.55074980124529
 21
4.224940672592922
 31
0.0
  0
LINE
  5
1F9
  8
LAYER0014
  6
CONTINUOUS
 62
     7
 10
-100.5507482088759
 20
3.689041137695313
 30
0.0
 11
-98.55074980124529
 21
3.689041137695313
 31
0.0
  0
ENDBLK
  5
99
  8
0
  0
BLOCK
  8
0
  2
DC_GROUP_27
 70
     0
 10
0.0
 20
0.0
 30
0.0
  3
DC_GROUP_27
  1

  0
LINE
  5
1FA
  8
LAYER0014
  6
CONTINUOUS
 62
     7
 10
-105.0507466165066
 20
4.22494067259292
 30
0.0
 11
-103.0507482088759
 21
3.689041137695313
 31
0.0
  0
LINE
  5
1FB
  8
LAYER0014
  6
CONTINUOUS
 62
     7
 10
-103.0507482088759
 20
3.689041137695313
 30
0.0
 11
-105.0507466165066
 21
3.153141602797705
 31
0.0
  0
LINE
  5
1FC
  8
LAYER0014
  6
CONTINUOUS
 62
     7
 10
-103.0507482088759
 20
3.689041137695313
 30
0.0
 11
-105.0507466165066
 21
3.689041137695313
 31
0.0
  0
ENDBLK
  5
9C
  8
0
  0
BLOCK
  8
0
  2
DC_GROUP_28
 70
     0
 10
0.0
 20
0.0
 30
0.0
  3
DC_GROUP_28
  1

  0
LINE
  5
1FD
  8
LAYER0014
  6
CONTINUOUS
 62
     7
 10
-2.26322256245333
 20
-31.46667035413039
 30
0.0
 11
-16.61057108705328
 21
-39.75011447806276
 31
0.0
  0
LINE
  5
1FE
  8
LAYER0014
  6
CONTINUOUS
 62
     7
 10
7.736780315686541
 20
-48.7871901755885
 30
0.0
 11
-6.610566557100952
 21
-57.07063334584666
 31
0.0
  0
LINE
  5
1FF
  8
LAYER0014
  6
CONTINUOUS
 62
     7
 10
-15.74454729102027
 20
-39.2501154913416
 30
0.0
 11
-5.744548483113164
 21
-56.57062444825078
 31
0.0
  0
INSERT
  5
200
  8
LAYER0014
  6
DASHDOT2
  2
DC_GROUP_29
 10
0.0
 20
0.0
 30
0.0
  0
INSERT
  5
201
  8
LAYER0014
  6
DASHED2
  2
DC_GROUP_30
 10
0.0
 20
0.0
 30
0.0
  0
TEXT
  5
202
  8
LAYER0014
 62
     7
 10
-12.55890658168071
 20
-41.56780728882647
 30
0.0
 40
4.0
  1
20H8
 50
-59.99999999999999
 41
0.7999999999999998
  7
FDASTYLE0
 72
     5
 11
-6.158906581680707
 21
-52.65293245726728
 31
0.0
  0
ENDBLK
  5
9F
  8
0
  0
BLOCK
  8
0
  2
DC_GROUP_29
 70
     0
 10
0.0
 20
0.0
 30
0.0
  3
DC_GROUP_29
  1

  0
LINE
  5
203
  8
LAYER0014
  6
CONTINUOUS
 62
     7
 10
-15.20865084560177
 20
-41.25011472679557
 30
0.0
 11
-15.74454729102027
 21
-39.2501154913416
 31
0.0
  0
LINE
  5
204
  8
LAYER0014
  6
CONTINUOUS
 62
     7
 10
-15.74454729102027
 20
-39.2501154913416
 30
0.0
 11
-14.28044558393777
 21
-40.71421526025995
 31
0.0
  0
LINE
  5
205
  8
LAYER0014
  6
CONTINUOUS
 62
     7
 10
-15.74454729102027
 20
-39.2501154913416
 30
0.0
 11
-14.74454821476977
 21
-40.98216499352776
 31
0.0
  0
ENDBLK
  5
A2
  8
0
  0
BLOCK
  8
0
  2
DC_GROUP_30
 70
     0
 10
0.0
 20
0.0
 30
0.0
  3
DC_GROUP_30
  1

  0
LINE
  5
206
  8
LAYER0014
  6
CONTINUOUS
 62
     7
 10
-6.280444928531665
 20
-54.57062521279681
 30
0.0
 11
-5.744548483113164
 21
-56.57062444825078
 31
0.0
  0
LINE
  5
207
  8
LAYER0014
  6
CONTINUOUS
 62
     7
 10
-5.744548483113164
 20
-56.57062444825078
 30
0.0
 11
-7.208650190195662
 21
-55.10652467933244
 31
0.0
  0
LINE
  5
208
  8
LAYER0014
  6
CONTINUOUS
 62
     7
 10
-5.744548483113164
 20
-56.57062444825078
 30
0.0
 11
-6.744547559363664
 21
-54.83857494606463
 31
0.0
  0
ENDBLK
  5
A5
  8
0
  0
BLOCK
  8
0
  2
DC_GROUP_31
 70
     0
 10
0.0
 20
0.0
 30
0.0
  3
DC_GROUP_31
  1

  0
LINE
  5
209
  8
LAYER0014
  6
CONTINUOUS
 62
     7
 10
-8.513223572875665
 20
-20.64135605373985
 30
0.0
 11
-32.70447081425752
 21
-34.60817761750297
 31
0.0
  0
LINE
  5
20A
  8
LAYER0014
  6
CONTINUOUS
 62
     7
 10
13.98678640234291
 20
-59.61251889988537
 30
0.0
 11
-10.20446166494517
 21
-73.57934094048562
 31
0.0
  0
LINE
  5
20B
  8
LAYER0014
  6
CONTINUOUS
 62
     7
 10
-31.83844727376058
 20
-34.10817434368039
 30
0.0
 11
-9.338451475887865
 21
-73.07931454128868
 31
0.0
  0
INSERT
  5
20C
  8
LAYER0014
  6
CONTINUOUS
  2
DC_GROUP_32
 10
0.0
 20
0.0
 30
0.0
  0
INSERT
  5
20D
  8
LAYER0014
  6
CONTINUOUS
  2
DC_GROUP_33
 10
0.0
 20
0.0
 30
0.0
  0
TEXT
  5
20E
  8
LAYER0014
 62
     7
 10
-20.8028072622227
 20
-50.02246489319253
 30
0.0
 40
4.0
  1
45
 50
-59.99999999999999
 41
0.7999999999999998
  7
FDASTYLE0
 72
     5
 11
-17.6028072622227
 21
-55.56502747741293
 31
0.0
  0
ENDBLK
  5
A8
  8
0
  0
BLOCK
  8
0
  2
DC_GROUP_32
 70
     0
 10
0.0
 20
0.0
 30
0.0
  3
DC_GROUP_32
  1

  0
LINE
  5
20F
  8
LAYER0014
  6
CONTINUOUS
 62
     7
 10
-31.30255077672296
 20
-36.10817356530311
 30
0.0
 11
-31.83844727376058
 21
-34.10817434368039
 31
0.0
  0
LINE
  5
210
  8
LAYER0014
  6
CONTINUOUS
 62
     7
 10
-31.83844727376058
 20
-34.10817434368039
 30
0.0
 11
-30.3743455288903
 21
-35.57227407481091
 31
0.0
  0
LINE
  5
211
  8
LAYER0014
  6
CONTINUOUS
 62
     7
 10
-31.83844727376058
 20
-34.10817434368039
 30
0.0
 11
-30.83844815280663
 21
-35.84022382005701
 31
0.0
  0
ENDBLK
  5
AB
  8
0
  0
BLOCK
  8
0
  2
DC_GROUP_33
 70
     0
 10
0.0
 20
0.0
 30
0.0
  3
DC_GROUP_33
  1

  0
LINE
  5
212
  8
LAYER0014
  6
CONTINUOUS
 62
     7
 10
-9.874347972925481
 20
-71.07931531966597
 30
0.0
 11
-9.338451475887865
 21
-73.07931454128868
 31
0.0
  0
LINE
  5
213
  8
LAYER0014
  6
CONTINUOUS
 62
     7
 10
-9.338451475887865
 20
-73.07931454128868
 30
0.0
 11
-10.80255322075815
 21
-71.61521481015816
 31
0.0
  0
LINE
  5
214
  8
LAYER0014
  6
CONTINUOUS
 62
     7
 10
-9.338451475887865
 20
-73.07931454128868
 30
0.0
 11
-10.33845059684181
 21
-71.34726506491208
 31
0.0
  0
ENDBLK
  5
AE
  8
0
  0
BLOCK
  8
0
  2
DC_GROUP_34
 70
     0
 10
0.0
 20
0.0
 30
0.0
  3
DC_GROUP_34
  1

  0
LINE
  5
215
  8
LAYER0014
  6
CONTINUOUS
 62
     7
 10
91.02784170411516
 20
-50.01509009352901
 30
0.0
 11
62.54412923700565
 21
-117.9999962954694
 31
0.0
  0
LINE
  5
216
  8
LAYER0014
  6
CONTINUOUS
 62
     7
 10
62.54413094151468
 20
-117.9999923706055
 30
0.0
 11
30.96367897618265
 21
-117.9999923706055
 31
0.0
  0
INSERT
  5
217
  8
LAYER0014
  6
CONTINUOUS
  2
DC_GROUP_35
 10
0.0
 20
0.0
 30
0.0
  0
TEXT
  5
218
  8
LAYER0014
 62
     7
 10
32.79224953282328
 20
-116.4000076293945
 30
0.0
 40
4.0
  1
PCD133.35
 41
0.7999999999999999
  7
FDASTYLE0
 72
     5
 11
61.59224953282328
 21
-116.4000076293945
 31
0.0
  0
ENDBLK
  5
B1
  8
0
  0
BLOCK
  8
0
  2
DC_GROUP_35
 70
     0
 10
0.0
 20
0.0
 30
0.0
  3
DC_GROUP_35
  1

  0
LINE
  5
219
  8
LAYER0014
  6
CONTINUOUS
 62
     7
 10
89.76071981342879
 20
-51.65264438458993
 30
0.0
 11
91.02784170411516
 21
-50.01509009352901
 31
0.0
  0
LINE
  5
21A
  8
LAYER0014
  6
CONTINUOUS
 62
     7
 10
91.02784170411516
 20
-50.01509009352901
 30
0.0
 11
90.74926212089332
 21
-52.06681506482526
 31
0.0
  0
LINE
  5
21B
  8
LAYER0014
  6
CONTINUOUS
 62
     7
 10
91.02784170411516
 20
-50.01509009352901
 30
0.0
 11
90.25499096716105
 21
-51.8597297247076
 31
0.0
  0
ENDBLK
  5
B4
  8
0
  0
BLOCK
  8
0
  2
DC_GROUP_36
 70
     0
 10
0.0
 20
0.0
 30
0.0
  3
DC_GROUP_36
  1

  0
LINE
  5
21C
  8
LAYER0014
  6
CONTINUOUS
 62
     7
 10
-101.5507405794814
 20
149.1057196044922
 30
0.0
 11
-101.5507405794814
 21
168.9816741943359
 31
0.0
  0
LINE
  5
21D
  8
LAYER0014
  6
CONTINUOUS
 62
     7
 10
-100.5507482088759
 20
149.18306640625
 30
0.0
 11
-100.5507482088759
 21
168.9816741943359
 31
0.0
  0
LINE
  5
21E
  8
LAYER0014
  6
CONTINUOUS
 62
     7
 10
-101.5507405794814
 20
167.9816741943359
 30
0.0
 11
-100.5507482088759
 21
167.9816741943359
 31
0.0
  0
LINE
  5
21F
  8
LAYER0014
  6
CONTINUOUS
 62
     7
 10
-91.50159812342673
 20
167.9816741943359
 30
0.0
 11
-100.5507482088759
 21
167.9816741943359
 31
0.0
  0
LINE
  5
220
  8
LAYER0014
  6
CONTINUOUS
 62
     7
 10
-106.5507405794814
 20
167.9816741943359
 30
0.0
 11
-101.5507405794814
 21
167.9816741943359
 31
0.0
  0
INSERT
  5
221
  8
LAYER0014
  6
CONTINUOUS
  2
DC_GROUP_37
 10
0.0
 20
0.0
 30
0.0
  0
INSERT
  5
222
  8
LAYER0014
  6
CONTINUOUS
  2
DC_GROUP_38
 10
0.0
 20
0.0
 30
0.0
  0
TEXT
  5
223
  8
LAYER0014
 62
     7
 10
-95.70159812342672
 20
168.9816741943359
 30
0.0
 40
4.0
  1
1
 41
0.8000000000000007
  7
FDASTYLE0
 72
     5
 11
-92.50159812342672
 21
168.9816741943359
 31
0.0
  0
ENDBLK
  5
B7
  8
0
  0
BLOCK
  8
0
  2
DC_GROUP_37
 70
     0
 10
0.0
 20
0.0
 30
0.0
  3
DC_GROUP_37
  1

  0
LINE
  5
224
  8
LAYER0014
  6
CONTINUOUS
 62
     7
 10
-98.55074980124529
 20
167.4457746594383
 30
0.0
 11
-100.5507482088759
 21
167.9816741943359
 31
0.0
  0
LINE
  5
225
  8
LAYER0014
  6
CONTINUOUS
 62
     7
 10
-100.5507482088759
 20
167.9816741943359
 30
0.0
 11
-98.55074980124529
 21
168.5175737292335
 31
0.0
  0
LINE
  5
226
  8
LAYER0014
  6
CONTINUOUS
 62
     7
 10
-100.5507482088759
 20
167.9816741943359
 30
0.0
 11
-98.55074980124529
 21
167.9816741943359
 31
0.0
  0
ENDBLK
  5
BA
  8
0
  0
BLOCK
  8
0
  2
DC_GROUP_38
 70
     0
 10
0.0
 20
0.0
 30
0.0
  3
DC_GROUP_38
  1

  0
LINE
  5
227
  8
LAYER0014
  6
CONTINUOUS
 62
     7
 10
-103.5507389871121
 20
168.5175737292335
 30
0.0
 11
-101.5507405794814
 21
167.9816741943359
 31
0.0
  0
LINE
  5
228
  8
LAYER0014
  6
CONTINUOUS
 62
     7
 10
-101.5507405794814
 20
167.9816741943359
 30
0.0
 11
-103.5507389871121
 21
167.4457746594383
 31
0.0
  0
LINE
  5
229
  8
LAYER0014
  6
CONTINUOUS
 62
     7
 10
-101.5507405794814
 20
167.9816741943359
 30
0.0
 11
-103.5507389871121
 21
167.9816741943359
 31
0.0
  0
ENDBLK
  5
BD
  8
0
  0
BLOCK
  8
0
  2
DC_GROUP_39
 70
     0
 10
0.0
 20
0.0
 30
0.0
  3
DC_GROUP_39
  1

  0
LINE
  5
22A
  8
LAYER0014
  6
CONTINUOUS
 62
     7
 10
-67.48362571131736
 20
96.64306640625
 30
0.0
 11
-64.45586905848532
 21
96.64306640625
 31
0.0
  0
LINE
  5
22B
  8
LAYER0014
  6
CONTINUOUS
 62
     7
 10
-65.45586905848532
 20
96.64306640625
 30
0.0
 11
-65.45586905848532
 21
82.64306640625
 31
0.0
  0
LINE
  5
22C
  8
LAYER0014
  6
CONTINUOUS
 62
     7
 10
-99.01074057948141
 20
82.64306640625
 30
0.0
 11
-64.45586905848532
 21
82.64306640625
 31
0.0
  0
INSERT
  5
22D
  8
LAYER0014
  6
CONTINUOUS
  2
DC_GROUP_40
 10
0.0
 20
0.0
 30
0.0
  0
INSERT
  5
22E
  8
LAYER0014
  6
CONTINUOUS
  2
DC_GROUP_41
 10
0.0
 20
0.0
 30
0.0
  0
TEXT
  5
22F
  8
LAYER0014
 62
     7
 10
-71.10586924922018
 20
84.84306640625
 30
0.0
 40
4.0
  1
MIN
 50
90.0
 41
0.7999999999999995
  7
FDASTYLE0
 72
     5
 11
-71.10586924922018
 21
94.44306640625
 31
0.0
  0
TEXT
  5
230
  8
LAYER0014
 62
     7
 10
-67.05586905848531
 20
84.84306640624999
 30
0.0
 40
4.0
  1
 13
 50
90.0
 41
0.8000000000000019
  7
FDASTYLE0
 72
     5
 11
-67.05586905848531
 21
94.44306640625001
 31
0.0
  0
ENDBLK
  5
C0
  8
0
  0
BLOCK
  8
0
  2
DC_GROUP_40
 70
     0
 10
0.0
 20
0.0
 30
0.0
  3
DC_GROUP_40
  1

  0
LINE
  5
231
  8
LAYER0014
  6
CONTINUOUS
 62
     7
 10
-65.99176859338294
 20
94.64306799861934
 30
0.0
 11
-65.45586905848532
 21
96.64306640625
 31
0.0
  0
LINE
  5
232
  8
LAYER0014
  6
CONTINUOUS
 62
     7
 10
-65.45586905848532
 20
96.64306640625
 30
0.0
 11
-64.91996952358771
 21
94.64306799861934
 31
0.0
  0
LINE
  5
233
  8
LAYER0014
  6
CONTINUOUS
 62
     7
 10
-65.45586905848532
 20
96.64306640625
 30
0.0
 11
-65.45586905848532
 21
94.64306799861934
 31
0.0
  0
ENDBLK
  5
C3
  8
0
  0
BLOCK
  8
0
  2
DC_GROUP_41
 70
     0
 10
0.0
 20
0.0
 30
0.0
  3
DC_GROUP_41
  1

  0
LINE
  5
234
  8
LAYER0014
  6
CONTINUOUS
 62
     7
 10
-64.91996952358771
 20
84.64306481388066
 30
0.0
 11
-65.45586905848532
 21
82.64306640625
 31
0.0
  0
LINE
  5
235
  8
LAYER0014
  6
CONTINUOUS
 62
     7
 10
-65.45586905848532
 20
82.64306640625
 30
0.0
 11
-65.99176859338294
 21
84.64306481388066
 31
0.0
  0
LINE
  5
236
  8
LAYER0014
  6
CONTINUOUS
 62
     7
 10
-65.45586905848532
 20
82.64306640625
 30
0.0
 11
-65.45586905848532
 21
84.64306481388066
 31
0.0
  0
ENDBLK
  5
C6
  8
0
  0
BLOCK
  8
0
  2
DC_GROUP_42
 70
     0
 10
0.0
 20
0.0
 30
0.0
  3
DC_GROUP_42
  1

  0
LINE
  5
237
  8
LAYER0014
  6
CONTINUOUS
 62
     7
 10
-99.01074057948141
 20
82.64306640625
 30
0.0
 11
-44.45586905848532
 21
82.64306640625
 31
0.0
  0
LINE
  5
238
  8
LAYER0014
  6
CONTINUOUS
 62
     7
 10
-100.0107482088759
 20
148.64306640625
 30
0.0
 11
-44.45586905848532
 21
148.64306640625
 31
0.0
  0
LINE
  5
239
  8
LAYER0014
  6
CONTINUOUS
 62
     7
 10
-45.45586905848532
 20
82.64306640625
 30
0.0
 11
-45.45586905848532
 21
148.64306640625
 31
0.0
  0
INSERT
  5
23A
  8
LAYER0014
  6
CONTINUOUS
  2
DC_GROUP_43
 10
0.0
 20
0.0
 30
0.0
  0
INSERT
  5
23B
  8
LAYER0014
  6
CONTINUOUS
  2
DC_GROUP_44
 10
0.0
 20
0.0
 30
0.0
  0
TEXT
  5
23C
  8
LAYER0014
 62
     7
 10
-46.45586905848532
 20
112.44306640625
 30
0.0
 40
4.0
  1
66
 50
90.0
 41
0.8000000000000007
  7
FDASTYLE0
 72
     5
 11
-46.45586905848532
 21
118.84306640625
 31
0.0
  0
ENDBLK
  5
C9
  8
0
  0
BLOCK
  8
0
  2
DC_GROUP_43
 70
     0
 10
0.0
 20
0.0
 30
0.0
  3
DC_GROUP_43
  1

  0
LINE
  5
23D
  8
LAYER0014
  6
CONTINUOUS
 62
     7
 10
-44.91996952358771
 20
84.64306481388066
 30
0.0
 11
-45.45586905848532
 21
82.64306640625
 31
0.0
  0
LINE
  5
23E
  8
LAYER0014
  6
CONTINUOUS
 62
     7
 10
-45.45586905848532
 20
82.64306640625
 30
0.0
 11
-45.99176859338293
 21
84.64306481388066
 31
0.0
  0
LINE
  5
23F
  8
LAYER0014
  6
CONTINUOUS
 62
     7
 10
-45.45586905848532
 20
82.64306640625
 30
0.0
 11
-45.45586905848532
 21
84.64306481388066
 31
0.0
  0
ENDBLK
  5
CC
  8
0
  0
BLOCK
  8
0
  2
DC_GROUP_44
 70
     0
 10
0.0
 20
0.0
 30
0.0
  3
DC_GROUP_44
  1

  0
LINE
  5
240
  8
LAYER0014
  6
CONTINUOUS
 62
     7
 10
-45.99176859338293
 20
146.6430679986194
 30
0.0
 11
-45.45586905848532
 21
148.64306640625
 31
0.0
  0
LINE
  5
241
  8
LAYER0014
  6
CONTINUOUS
 62
     7
 10
-45.45586905848532
 20
148.64306640625
 30
0.0
 11
-44.91996952358771
 21
146.6430679986194
 31
0.0
  0
LINE
  5
242
  8
LAYER0014
  6
CONTINUOUS
 62
     7
 10
-45.45586905848532
 20
148.64306640625
 30
0.0
 11
-45.45586905848532
 21
146.6430679986194
 31
0.0
  0
ENDBLK
  5
CF
  8
0
  0
BLOCK
  8
0
  2
DC_GROUP_45
 70
     0
 10
0.0
 20
0.0
 30
0.0
  3
DC_GROUP_45
  1

  0
LINE
  5
243
  8
LAYER0014
  6
CONTINUOUS
 62
     7
 10
-84.34039054070209
 20
131.002153614209
 30
0.0
 11
-61.69402129748042
 21
157.8080598092529
 31
0.0
  0
LINE
  5
244
  8
LAYER0014
  6
CONTINUOUS
 62
     7
 10
-61.69402442347556
 20
157.8080596923828
 30
0.0
 11
-49.26545081507712
 21
157.8080596923828
 31
0.0
  0
INSERT
  5
245
  8
LAYER0014
  6
CONTINUOUS
  2
DC_GROUP_46
 10
0.0
 20
0.0
 30
0.0
  0
TEXT
  5
246
  8
LAYER0014
 62
     7
 10
-60.69402060877829
 20
159.4080596923828
 30
0.0
 40
4.0
  1
M12
 41
0.8000000000000002
  7
FDASTYLE0
 72
     5
 11
-51.09402060877829
 21
159.4080596923828
 31
0.0
  0
ENDBLK
  5
D2
  8
0
  0
BLOCK
  8
0
  2
DC_GROUP_46
 70
     0
 10
0.0
 20
0.0
 30
0.0
  3
DC_GROUP_46
  1

  0
LINE
  5
247
  8
LAYER0014
  6
CONTINUOUS
 62
     7
 10
-82.64032231299173
 20
132.1840799922709
 30
0.0
 11
-84.34039054070209
 21
131.002153614209
 31
0.0
  0
LINE
  5
248
  8
LAYER0014
  6
CONTINUOUS
 62
     7
 10
-84.34039054070209
 20
131.002153614209
 30
0.0
 11
-83.459054212624
 21
132.8757672933965
 31
0.0
  0
LINE
  5
249
  8
LAYER0014
  6
CONTINUOUS
 62
     7
 10
-84.34039054070209
 20
131.002153614209
 30
0.0
 11
-83.04968826280786
 21
132.5299236428337
 31
0.0
  0
ENDBLK
  5
D5
  8
0
  0
BLOCK
  8
0
  2
DC_GROUP_47
 70
     0
 10
0.0
 20
0.0
 30
0.0
  3
DC_GROUP_47
  1

  0
LINE
  5
24A
  8
LAYER0014
  6
CONTINUOUS
 62
     7
 10
-196.3507512606338
 20
-128.7477722167969
 30
0.0
 11
-152.3724645174697
 21
-128.7477722167969
 31
0.0
  0
LINE
  5
24B
  8
LAYER0014
  6
CONTINUOUS
 62
     7
 10
-196.3507360018447
 20
-86.39693359375001
 30
0.0
 11
-196.3507516209286
 21
-129.7477722167968
 31
0.0
  0
LINE
  5
24C
  8
LAYER0014
  6
CONTINUOUS
 62
     7
 10
-152.3724645174697
 20
-22.89693168640137
 30
0.0
 11
-152.3724645174697
 21
-129.7477722167969
 31
0.0
  0
INSERT
  5
24D
  8
LAYER0014
  6
CONTINUOUS
  2
DC_GROUP_48
 10
0.0
 20
0.0
 30
0.0
  0
INSERT
  5
24E
  8
LAYER0014
  6
CONTINUOUS
  2
DC_GROUP_49
 10
0.0
 20
0.0
 30
0.0
  0
TEXT
  5
24F
  8
LAYER0014
 62
     7
 10
-183.9616078890517
 20
-127.7477722167969
 30
0.0
 40
4.0
  1
MAX 59
 41
0.7999999999999995
  7
FDASTYLE0
 72
     5
 11
-164.7616078890517
 21
-127.7477722167969
 31
0.0
  0
ENDBLK
  5
D8
  8
0
  0
BLOCK
  8
0
  2
DC_GROUP_48
 70
     0
 10
0.0
 20
0.0
 30
0.0
  3
DC_GROUP_48
  1

  0
LINE
  5
250
  8
LAYER0014
  6
CONTINUOUS
 62
     7
 10
-194.3507528530031
 20
-129.2836717516945
 30
0.0
 11
-196.3507512606338
 21
-128.7477722167969
 31
0.0
  0
LINE
  5
251
  8
LAYER0014
  6
CONTINUOUS
 62
     7
 10
-196.3507512606338
 20
-128.7477722167969
 30
0.0
 11
-194.3507528530031
 21
-128.2118726818993
 31
0.0
  0
LINE
  5
252
  8
LAYER0014
  6
CONTINUOUS
 62
     7
 10
-196.3507512606338
 20
-128.7477722167969
 30
0.0
 11
-194.3507528530031
 21
-128.7477722167969
 31
0.0
  0
ENDBLK
  5
DB
  8
0
  0
BLOCK
  8
0
  2
DC_GROUP_49
 70
     0
 10
0.0
 20
0.0
 30
0.0
  3
DC_GROUP_49
  1

  0
LINE
  5
253
  8
LAYER0014
  6
CONTINUOUS
 62
     7
 10
-154.3724629251003
 20
-128.2118726818993
 30
0.0
 11
-152.3724645174697
 21
-128.7477722167969
 31
0.0
  0
LINE
  5
254
  8
LAYER0014
  6
CONTINUOUS
 62
     7
 10
-152.3724645174697
 20
-128.7477722167969
 30
0.0
 11
-154.3724629251003
 21
-129.2836717516945
 31
0.0
  0
LINE
  5
255
  8
LAYER0014
  6
CONTINUOUS
 62
     7
 10
-152.3724645174697
 20
-128.7477722167969
 30
0.0
 11
-154.3724629251003
 21
-128.7477722167969
 31
0.0
  0
ENDBLK
  5
DE
  8
0
  0
BLOCK
  8
0
  2
DC_GROUP_50
 70
     0
 10
0.0
 20
0.0
 30
0.0
  3
DC_GROUP_50
  1

  0
LINE
  5
256
  8
LAYER0014
  6
CONTINUOUS
 62
     7
 10
51.79459732605178
 20
59.09027436990652
 30
0.0
 11
-11.11006131041759
 21
95.40742757665612
 31
0.0
  0
LINE
  5
257
  8
LAYER0014
  6
CONTINUOUS
 62
     7
 10
-25.68071996854556
 20
23.6430895843727
 30
0.0
 11
-30.33923395332105
 21
23.6431299417944
 31
0.0
  0
ARC
  5
258
  8
LAYER0014
  6
CONTINUOUS
 62
     7
 10
113.1896692715928
 20
23.64306640625
 30
0.0
 40
142.5289001464844
 50
150.0000383250761
 51
179.9999776881997
  0
INSERT
  5
259
  8
LAYER0014
  6
CONTINUOUS
  2
DC_GROUP_51
 10
0.0
 20
0.0
 30
0.0
  0
INSERT
  5
25A
  8
LAYER0014
  6
CONTINUOUS
  2
DC_GROUP_52
 10
0.0
 20
0.0
 30
0.0
  0
TEXT
  5
25B
  8
LAYER0014
 62
     7
 10
-27.27048958207411
 20
56.30993884484369
 30
0.0
 40
4.0
  1
30ﾟ
 50
75.0
 41
0.8000000000000007
  7
FDASTYLE0
 72
     5
 11
-24.78582674908991
 21
65.58282677721876
 31
0.0
  0
ENDBLK
  5
E1
  8
0
  0
BLOCK
  8
0
  2
DC_GROUP_51
 70
     0
 10
0.0
 20
0.0
 30
0.0
  3
DC_GROUP_51
  1

  0
LINE
  5
25C
  8
LAYER0014
  6
CONTINUOUS
 62
     7
 10
-11.69781928006384
 20
93.4330970915403
 30
0.0
 11
-10.24402669739325
 21
94.90743391486141
 31
0.0
  0
LINE
  5
25D
  8
LAYER0014
  6
CONTINUOUS
 62
     7
 10
-10.24402669739325
 20
94.90743391486141
 30
0.0
 11
-10.76587664651969
 21
92.90372371310436
 31
0.0
  0
LINE
  5
25E
  8
LAYER0014
  6
CONTINUOUS
 62
     7
 10
-10.24402669739325
 20
94.90743391486141
 30
0.0
 11
-11.23184796329177
 21
93.16841040232232
 31
0.0
  0
ENDBLK
  5
E4
  8
0
  0
BLOCK
  8
0
  2
DC_GROUP_52
 70
     0
 10
0.0
 20
0.0
 30
0.0
  3
DC_GROUP_52
  1

  0
LINE
  5
25F
  8
LAYER0014
  6
CONTINUOUS
 62
     7
 10
-28.78931164481299
 20
25.63931097385384
 30
0.0
 11
-29.33923087488077
 21
23.64312190905303
 31
0.0
  0
LINE
  5
260
  8
LAYER0014
  6
CONTINUOUS
 62
     7
 10
-29.33923087488077
 20
23.64312190905303
 30
0.0
 11
-29.86108433165179
 21
25.64683119726946
 31
0.0
  0
LINE
  5
261
  8
LAYER0014
  6
CONTINUOUS
 62
     7
 10
-29.33923087488077
 20
23.64312190905303
 30
0.0
 11
-29.32519798823239
 21
25.64307108556165
 31
0.0
  0
ENDBLK
  5
E7
  8
0
  0
BLOCK
  8
0
  2
DC_GROUP_53
 70
     0
 10
0.0
 20
0.0
 30
0.0
  3
DC_GROUP_53
  1

  0
LINE
  5
262
  8
LAYER0014
  6
CONTINUOUS
 62
     7
 10
-213.550748208876
 20
-128.7477722167969
 30
0.0
 11
-196.3507512606338
 21
-128.7477722167969
 31
0.0
  0
LINE
  5
263
  8
LAYER0014
  6
CONTINUOUS
 62
     7
 10
-213.550748208876
 20
-51.57193664550781
 30
0.0
 11
-213.550748208876
 21
-129.7477722167969
 31
0.0
  0
LINE
  5
264
  8
LAYER0014
  6
CONTINUOUS
 62
     7
 10
-196.3507360018447
 20
-86.39693359375001
 30
0.0
 11
-196.3507516209286
 21
-129.7477722167968
 31
0.0
  0
LINE
  5
265
  8
LAYER0014
  6
CONTINUOUS
 62
     7
 10
-230.282598208876
 20
-128.7477722167969
 30
0.0
 11
-213.550748208876
 21
-128.7477722167969
 31
0.0
  0
LINE
  5
266
  8
LAYER0014
  6
CONTINUOUS
 62
     7
 10
-191.3507512606338
 20
-128.7477722167969
 30
0.0
 11
-196.3507512606338
 21
-128.7477722167969
 31
0.0
  0
INSERT
  5
267
  8
LAYER0014
  6
CONTINUOUS
  2
DC_GROUP_54
 10
0.0
 20
0.0
 30
0.0
  0
INSERT
  5
268
  8
LAYER0014
  6
CONTINUOUS
  2
DC_GROUP_55
 10
0.0
 20
0.0
 30
0.0
  0
TEXT
  5
269
  8
LAYER0014
 62
     7
 10
-229.282598208876
 20
-127.7477722167969
 30
0.0
 40
4.0
  1
17.2
 41
0.8000000000000007
  7
FDASTYLE0
 72
     5
 11
-216.482598208876
 21
-127.7477722167969
 31
0.0
  0
ENDBLK
  5
EA
  8
0
  0
BLOCK
  8
0
  2
DC_GROUP_54
 70
     0
 10
0.0
 20
0.0
 30
0.0
  3
DC_GROUP_54
  1

  0
LINE
  5
26A
  8
LAYER0014
  6
CONTINUOUS
 62
     7
 10
-215.5507466165067
 20
-128.2118726818993
 30
0.0
 11
-213.550748208876
 21
-128.7477722167969
 31
0.0
  0
LINE
  5
26B
  8
LAYER0014
  6
CONTINUOUS
 62
     7
 10
-213.550748208876
 20
-128.7477722167969
 30
0.0
 11
-215.5507466165067
 21
-129.2836717516945
 31
0.0
  0
LINE
  5
26C
  8
LAYER0014
  6
CONTINUOUS
 62
     7
 10
-213.550748208876
 20
-128.7477722167969
 30
0.0
 11
-215.5507466165067
 21
-128.7477722167969
 31
0.0
  0
ENDBLK
  5
ED
  8
0
  0
BLOCK
  8
0
  2
DC_GROUP_55
 70
     0
 10
0.0
 20
0.0
 30
0.0
  3
DC_GROUP_55
  1

  0
LINE
  5
26D
  8
LAYER0014
  6
CONTINUOUS
 62
     7
 10
-194.3507528530031
 20
-129.2836717516945
 30
0.0
 11
-196.3507512606338
 21
-128.7477722167969
 31
0.0
  0
LINE
  5
26E
  8
LAYER0014
  6
CONTINUOUS
 62
     7
 10
-196.3507512606338
 20
-128.7477722167969
 30
0.0
 11
-194.3507528530031
 21
-128.2118726818993
 31
0.0
  0
LINE
  5
26F
  8
LAYER0014
  6
CONTINUOUS
 62
     7
 10
-196.3507512606338
 20
-128.7477722167969
 30
0.0
 11
-194.3507528530031
 21
-128.7477722167969
 31
0.0
  0
ENDBLK
  5
F0
  8
0
  0
BLOCK
  8
0
  2
DC_GROUP_56
 70
     0
 10
0.0
 20
0.0
 30
0.0
  3
DC_GROUP_56
  1

  0
LINE
  5
270
  8
LAYER0014
  6
CONTINUOUS
 62
     7
 10
113.1887537442494
 20
157.5104895019528
 30
0.0
 11
113.1887537442494
 21
167.1719665527341
 31
0.0
  0
LINE
  5
271
  8
LAYER0014
  6
CONTINUOUS
 62
     7
 10
-4.920824807831863
 20
91.83382844508813
 30
0.0
 11
-11.11057280544529
 21
95.40654261325994
 31
0.0
  0
ARC
  5
272
  8
LAYER0014
  6
CONTINUOUS
 62
     7
 10
113.1896692715928
 20
23.64306640625
 30
0.0
 40
142.5289001464844
 50
90.00036450450418
 51
150.0004071552913
  0
INSERT
  5
273
  8
LAYER0014
  6
CONTINUOUS
  2
DC_GROUP_57
 10
0.0
 20
0.0
 30
0.0
  0
INSERT
  5
274
  8
LAYER0014
  6
CONTINUOUS
  2
DC_GROUP_58
 10
0.0
 20
0.0
 30
0.0
  0
TEXT
  5
275
  8
LAYER0014
 62
     7
 10
41.35265666965081
 20
148.682705405991
 30
0.0
 40
4.0
  1
60ﾟ
 50
28.0
 41
0.800000000000001
  7
FDASTYLE0
 72
     5
 11
49.82895356109652
 21
153.1896324087356
 31
0.0
  0
ENDBLK
  5
F3
  8
0
  0
BLOCK
  8
0
  2
DC_GROUP_57
 70
     0
 10
0.0
 20
0.0
 30
0.0
  3
DC_GROUP_57
  1

  0
LINE
  5
276
  8
LAYER0014
  6
CONTINUOUS
 62
     7
 10
111.1850501258106
 20
166.6938080396798
 30
0.0
 11
113.1887625307033
 21
166.1719665498501
 31
0.0
  0
LINE
  5
277
  8
LAYER0014
  6
CONTINUOUS
 62
     7
 10
113.1887625307033
 20
166.1719665498501
 30
0.0
 11
111.1925767502699
 21
165.6220353977738
 31
0.0
  0
LINE
  5
278
  8
LAYER0014
  6
CONTINUOUS
 62
     7
 10
113.1887625307033
 20
166.1719665498501
 30
0.0
 11
111.1888134380402
 21
166.1579217187268
 31
0.0
  0
ENDBLK
  5
F6
  8
0
  0
BLOCK
  8
0
  2
DC_GROUP_58
 70
     0
 10
0.0
 20
0.0
 30
0.0
  3
DC_GROUP_58
  1

  0
LINE
  5
279
  8
LAYER0014
  6
CONTINUOUS
 62
     7
 10
-8.770157786494039
 20
96.36044121032523
 30
0.0
 11
-10.24448544506531
 21
94.90663933345189
 31
0.0
  0
LINE
  5
27A
  8
LAYER0014
  6
CONTINUOUS
 62
     7
 10
-10.24448544506531
 20
94.90663933345189
 30
0.0
 11
-9.694584114259293
 21
96.90283332913629
 31
0.0
  0
LINE
  5
27B
  8
LAYER0014
  6
CONTINUOUS
 62
     7
 10
-10.24448544506531
 20
94.90663933345189
 30
0.0
 11
-9.232370950376669
 21
96.63163726973076
 31
0.0
  0
ENDBLK
  5
F9
  8
0
  0
BLOCK
  8
0
  2
DC_GROUP_59
 70
     0
 10
0.0
 20
0.0
 30
0.0
  3
DC_GROUP_59
  1

  0
LINE
  5
27C
  8
LAYER0014
  6
CONTINUOUS
 62
     7
 10
-196.3507360018447
 20
133.68306640625
 30
0.0
 11
-196.3507360018447
 21
168.9816741943359
 31
0.0
  0
LINE
  5
27D
  8
LAYER0014
  6
CONTINUOUS
 62
     7
 10
-181.3724645174697
 20
74.18306640625001
 30
0.0
 11
-181.3724645174697
 21
168.9816741943359
 31
0.0
  0
LINE
  5
27E
  8
LAYER0014
  6
CONTINUOUS
 62
     7
 10
-196.3507360018447
 20
167.9816741943359
 30
0.0
 11
-181.3724645174697
 21
167.9816741943359
 31
0.0
  0
LINE
  5
27F
  8
LAYER0014
  6
CONTINUOUS
 62
     7
 10
-217.783035631757
 20
167.9816741943359
 30
0.0
 11
-196.3507360018447
 21
167.9816741943359
 31
0.0
  0
LINE
  5
280
  8
LAYER0014
  6
CONTINUOUS
 62
     7
 10
-176.3724645174697
 20
167.9816741943359
 30
0.0
 11
-181.3724645174697
 21
167.9816741943359
 31
0.0
  0
INSERT
  5
281
  8
LAYER0014
  6
CONTINUOUS
  2
DC_GROUP_60
 10
0.0
 20
0.0
 30
0.0
  0
INSERT
  5
282
  8
LAYER0014
  6
CONTINUOUS
  2
DC_GROUP_61
 10
0.0
 20
0.0
 30
0.0
  0
TEXT
  5
283
  8
LAYER0014
 62
     7
 10
-216.783035631757
 20
168.9816741943359
 30
0.0
 40
4.0
  1
ＭAX30
 41
0.7396449704142013
  7
FDASTYLE0
 72
     5
 11
-201.3984202471416
 21
168.9816741943359
 31
0.0
  0
ENDBLK
  5
FC
  8
0
  0
BLOCK
  8
0
  2
DC_GROUP_60
 70
     0
 10
0.0
 20
0.0
 30
0.0
  3
DC_GROUP_60
  1

  0
LINE
  5
284
  8
LAYER0014
  6
CONTINUOUS
 62
     7
 10
-198.3507344094754
 20
168.5175737292335
 30
0.0
 11
-196.3507360018447
 21
167.9816741943359
 31
0.0
  0
LINE
  5
285
  8
LAYER0014
  6
CONTINUOUS
 62
     7
 10
-196.3507360018447
 20
167.9816741943359
 30
0.0
 11
-198.3507344094754
 21
167.4457746594383
 31
0.0
  0
LINE
  5
286
  8
LAYER0014
  6
CONTINUOUS
 62
     7
 10
-196.3507360018447
 20
167.9816741943359
 30
0.0
 11
-198.3507344094754
 21
167.9816741943359
 31
0.0
  0
ENDBLK
  5
FF
  8
0
  0
BLOCK
  8
0
  2
DC_GROUP_61
 70
     0
 10
0.0
 20
0.0
 30
0.0
  3
DC_GROUP_61
  1

  0
LINE
  5
287
  8
LAYER0014
  6
CONTINUOUS
 62
     7
 10
-179.372466109839
 20
167.4457746594383
 30
0.0
 11
-181.3724645174697
 21
167.9816741943359
 31
0.0
  0
LINE
  5
288
  8
LAYER0014
  6
CONTINUOUS
 62
     7
 10
-181.3724645174697
 20
167.9816741943359
 30
0.0
 11
-179.372466109839
 21
168.5175737292335
 31
0.0
  0
LINE
  5
289
  8
LAYER0014
  6
CONTINUOUS
 62
     7
 10
-181.3724645174697
 20
167.9816741943359
 30
0.0
 11
-179.372466109839
 21
167.9816741943359
 31
0.0
  0
ENDBLK
  5
102
  8
0
  0
BLOCK
  8
0
  2
DC_GROUP_62
 70
     0
 10
0.0
 20
0.0
 30
0.0
  3
DC_GROUP_62
  1

  0
LINE
  5
28A
  8
LAYER0014
  6
CONTINUOUS
 62
     7
 10
-97.51074057948141
 20
139.64306640625
 30
0.0
 11
-54.45586905848532
 21
139.64306640625
 31
0.0
  0
LINE
  5
28B
  8
LAYER0014
  6
CONTINUOUS
 62
     7
 10
-63.73359850589032
 20
83.64306640625
 30
0.0
 11
-54.45586905848532
 21
83.64306640625
 31
0.0
  0
LINE
  5
28C
  8
LAYER0014
  6
CONTINUOUS
 62
     7
 10
-55.45586905848532
 20
139.64306640625
 30
0.0
 11
-55.45586905848532
 21
83.64306640625
 31
0.0
  0
INSERT
  5
28D
  8
LAYER0014
  6
CONTINUOUS
  2
DC_GROUP_63
 10
0.0
 20
0.0
 30
0.0
  0
INSERT
  5
28E
  8
LAYER0014
  6
CONTINUOUS
  2
DC_GROUP_64
 10
0.0
 20
0.0
 30
0.0
  0
TEXT
  5
28F
  8
LAYER0014
 62
     7
 10
-56.45586905848532
 20
108.44306640625
 30
0.0
 40
4.0
  1
56
 50
90.0
 41
0.8000000000000007
  7
FDASTYLE0
 72
     5
 11
-56.45586905848532
 21
114.84306640625
 31
0.0
  0
ENDBLK
  5
105
  8
0
  0
BLOCK
  8
0
  2
DC_GROUP_63
 70
     0
 10
0.0
 20
0.0
 30
0.0
  3
DC_GROUP_63
  1

  0
LINE
  5
290
  8
LAYER0014
  6
CONTINUOUS
 62
     7
 10
-55.99176859338293
 20
137.6430679986193
 30
0.0
 11
-55.45586905848532
 21
139.64306640625
 31
0.0
  0
LINE
  5
291
  8
LAYER0014
  6
CONTINUOUS
 62
     7
 10
-55.45586905848532
 20
139.64306640625
 30
0.0
 11
-54.91996952358771
 21
137.6430679986193
 31
0.0
  0
LINE
  5
292
  8
LAYER0014
  6
CONTINUOUS
 62
     7
 10
-55.45586905848532
 20
139.64306640625
 30
0.0
 11
-55.45586905848532
 21
137.6430679986193
 31
0.0
  0
ENDBLK
  5
108
  8
0
  0
BLOCK
  8
0
  2
DC_GROUP_64
 70
     0
 10
0.0
 20
0.0
 30
0.0
  3
DC_GROUP_64
  1

  0
LINE
  5
293
  8
LAYER0014
  6
CONTINUOUS
 62
     7
 10
-54.91996952358771
 20
85.64306481388066
 30
0.0
 11
-55.45586905848532
 21
83.64306640625
 31
0.0
  0
LINE
  5
294
  8
LAYER0014
  6
CONTINUOUS
 62
     7
 10
-55.45586905848532
 20
83.64306640625
 30
0.0
 11
-55.99176859338293
 21
85.64306481388066
 31
0.0
  0
LINE
  5
295
  8
LAYER0014
  6
CONTINUOUS
 62
     7
 10
-55.45586905848532
 20
83.64306640625
 30
0.0
 11
-55.45586905848532
 21
85.64306481388066
 31
0.0
  0
ENDBLK
  5
10B
  8
0
  0
BLOCK
  8
0
  2
DC_GROUP_65
 70
     0
 10
0.0
 20
0.0
 30
0.0
  3
DC_GROUP_65
  1

  0
LINE
  5
296
  8
LAYER0014
  6
CONTINUOUS
 62
     7
 10
-67.48362571131736
 20
96.64306640625
 30
0.0
 11
-64.45586905848532
 21
96.64306640625
 31
0.0
  0
LINE
  5
297
  8
LAYER0014
  6
CONTINUOUS
 62
     7
 10
-67.28362113368063
 20
126.64306640625
 30
0.0
 11
-64.45586905848532
 21
126.64306640625
 31
0.0
  0
LINE
  5
298
  8
LAYER0014
  6
CONTINUOUS
 62
     7
 10
-65.45586905848532
 20
96.64306640625
 30
0.0
 11
-65.45586905848532
 21
126.64306640625
 31
0.0
  0
INSERT
  5
299
  8
LAYER0014
  6
CONTINUOUS
  2
DC_GROUP_66
 10
0.0
 20
0.0
 30
0.0
  0
INSERT
  5
29A
  8
LAYER0014
  6
CONTINUOUS
  2
DC_GROUP_67
 10
0.0
 20
0.0
 30
0.0
  0
TEXT
  5
29B
  8
LAYER0014
 62
     7
 10
-66.45586905848532
 20
108.44306640625
 30
0.0
 40
4.0
  1
30
 50
90.0
 41
0.8000000000000007
  7
FDASTYLE0
 72
     5
 11
-66.45586905848532
 21
114.84306640625
 31
0.0
  0
ENDBLK
  5
10E
  8
0
  0
BLOCK
  8
0
  2
DC_GROUP_66
 70
     0
 10
0.0
 20
0.0
 30
0.0
  3
DC_GROUP_66
  1

  0
LINE
  5
29C
  8
LAYER0014
  6
CONTINUOUS
 62
     7
 10
-64.9199695235877
 20
98.64306481388067
 30
0.0
 11
-65.45586905848532
 21
96.64306640625
 31
0.0
  0
LINE
  5
29D
  8
LAYER0014
  6
CONTINUOUS
 62
     7
 10
-65.45586905848532
 20
96.64306640625
 30
0.0
 11
-65.99176859338293
 21
98.64306481388067
 31
0.0
  0
LINE
  5
29E
  8
LAYER0014
  6
CONTINUOUS
 62
     7
 10
-65.45586905848532
 20
96.64306640625
 30
0.0
 11
-65.45586905848532
 21
98.64306481388067
 31
0.0
  0
ENDBLK
  5
111
  8
0
  0
BLOCK
  8
0
  2
DC_GROUP_67
 70
     0
 10
0.0
 20
0.0
 30
0.0
  3
DC_GROUP_67
  1

  0
LINE
  5
29F
  8
LAYER0014
  6
CONTINUOUS
 62
     7
 10
-65.99176859338294
 20
124.6430679986193
 30
0.0
 11
-65.45586905848532
 21
126.64306640625
 31
0.0
  0
LINE
  5
2A0
  8
LAYER0014
  6
CONTINUOUS
 62
     7
 10
-65.45586905848532
 20
126.64306640625
 30
0.0
 11
-64.91996952358771
 21
124.6430679986193
 31
0.0
  0
LINE
  5
2A1
  8
LAYER0014
  6
CONTINUOUS
 62
     7
 10
-65.45586905848532
 20
126.64306640625
 30
0.0
 11
-65.45586905848532
 21
124.6430679986193
 31
0.0
  0
ENDBLK
  5
114
  8
0
  0
BLOCK
  8
0
  2
DC_GROUP_68
 70
     0
 10
0.0
 20
0.0
 30
0.0
  3
DC_GROUP_68
  1

  0
LINE
  5
2A2
  8
LAYER0014
  6
CONTINUOUS
 62
     7
 10
115.242425971962
 20
-40.15783237622827
 30
0.0
 11
152.5441344659112
 21
-117.9999869108315
 31
0.0
  0
LINE
  5
2A3
  8
LAYER0014
  6
CONTINUOUS
 62
     7
 10
152.5441309415147
 20
-117.9999923706055
 30
0.0
 11
200.1611811124131
 21
-117.9999923706055
 31
0.0
  0
INSERT
  5
2A4
  8
LAYER0014
  6
CONTINUOUS
  2
DC_GROUP_69
 10
0.0
 20
0.0
 30
0.0
  0
TEXT
  5
2A5
  8
LAYER0014
 62
     7
 10
153.5326105557725
 20
-116.4000076293945
 30
0.0
 40
4.0
  1
3-M8x15 PCD120
 41
0.8000000000000002
  7
FDASTYLE0
 72
     5
 11
198.3326105557725
 21
-116.4000076293945
 31
0.0
  0
ENDBLK
  5
117
  8
0
  0
BLOCK
  8
0
  2
DC_GROUP_69
 70
     0
 10
0.0
 20
0.0
 30
0.0
  3
DC_GROUP_69
  1

  0
LINE
  5
2A6
  8
LAYER0014
  6
CONTINUOUS
 62
     7
 10
115.6234326686951
 20
-42.19302667630708
 30
0.0
 11
115.242425971962
 21
-40.15783237622827
 31
0.0
  0
LINE
  5
2A7
  8
LAYER0014
  6
CONTINUOUS
 62
     7
 10
115.242425971962
 20
-40.15783237622827
 30
0.0
 11
116.5899869129767
 21
-41.72985701098447
 31
0.0
  0
LINE
  5
2A8
  8
LAYER0014
  6
CONTINUOUS
 62
     7
 10
115.242425971962
 20
-40.15783237622827
 30
0.0
 11
116.1067097908359
 21
-41.96144184364577
 31
0.0
  0
ENDBLK
  5
11A
  8
0
  0
BLOCK
  8
0
  2
DC_GROUP_70
 70
     0
 10
0.0
 20
0.0
 30
0.0
  3
DC_GROUP_70
  1

  0
LINE
  5
2A9
  8
LAYER0014
  6
CONTINUOUS
 62
     7
 10
-200.550748208876
 20
-141.0811157226563
 30
0.0
 11
-196.3507512606338
 21
-141.0811157226563
 31
0.0
  0
LINE
  5
2AA
  8
LAYER0014
  6
CONTINUOUS
 62
     7
 10
-200.550748208876
 20
-103.89693359375
 30
0.0
 11
-200.550748208876
 21
-142.0811157226563
 31
0.0
  0
LINE
  5
2AB
  8
LAYER0014
  6
CONTINUOUS
 62
     7
 10
-196.3507360018447
 20
-86.39693359375001
 30
0.0
 11
-196.3507515396686
 21
-142.0811157226562
 31
0.0
  0
LINE
  5
2AC
  8
LAYER0014
  6
CONTINUOUS
 62
     7
 10
-215.1696151701423
 20
-141.0811157226563
 30
0.0
 11
-200.550748208876
 21
-141.0811157226563
 31
0.0
  0
LINE
  5
2AD
  8
LAYER0014
  6
CONTINUOUS
 62
     7
 10
-191.3507512606338
 20
-141.0811157226563
 30
0.0
 11
-196.3507512606338
 21
-141.0811157226563
 31
0.0
  0
INSERT
  5
2AE
  8
LAYER0014
  6
CONTINUOUS
  2
DC_GROUP_71
 10
0.0
 20
0.0
 30
0.0
  0
INSERT
  5
2AF
  8
LAYER0014
  6
CONTINUOUS
  2
DC_GROUP_72
 10
0.0
 20
0.0
 30
0.0
  0
TEXT
  5
2B0
  8
LAYER0014
 62
     7
 10
-214.1696005485098
 20
-140.0643605703436
 30
0.0
 40
4.0
  1
4.2
 50
-0.1000000000000078
 41
0.8000000000000002
  7
FDASTYLE0
 72
     5
 11
-204.5696151701422
 21
-140.0811157226562
 31
0.0
  0
ENDBLK
  5
11D
  8
0
  0
BLOCK
  8
0
  2
DC_GROUP_71
 70
     0
 10
0.0
 20
0.0
 30
0.0
  3
DC_GROUP_71
  1

  0
LINE
  5
2B1
  8
LAYER0014
  6
CONTINUOUS
 62
     7
 10
-202.5507466165067
 20
-140.5452161877587
 30
0.0
 11
-200.550748208876
 21
-141.0811157226563
 31
0.0
  0
LINE
  5
2B2
  8
LAYER0014
  6
CONTINUOUS
 62
     7
 10
-200.550748208876
 20
-141.0811157226563
 30
0.0
 11
-202.5507466165067
 21
-141.6170152575539
 31
0.0
  0
LINE
  5
2B3
  8
LAYER0014
  6
CONTINUOUS
 62
     7
 10
-200.550748208876
 20
-141.0811157226563
 30
0.0
 11
-202.5507466165067
 21
-141.0811157226563
 31
0.0
  0
ENDBLK
  5
120
  8
0
  0
BLOCK
  8
0
  2
DC_GROUP_72
 70
     0
 10
0.0
 20
0.0
 30
0.0
  3
DC_GROUP_72
  1

  0
LINE
  5
2B4
  8
LAYER0014
  6
CONTINUOUS
 62
     7
 10
-194.3507528530031
 20
-141.6170152575539
 30
0.0
 11
-196.3507512606338
 21
-141.0811157226563
 31
0.0
  0
LINE
  5
2B5
  8
LAYER0014
  6
CONTINUOUS
 62
     7
 10
-196.3507512606338
 20
-141.0811157226563
 30
0.0
 11
-194.3507528530031
 21
-140.5452161877587
 31
0.0
  0
LINE
  5
2B6
  8
LAYER0014
  6
CONTINUOUS
 62
     7
 10
-196.3507512606338
 20
-141.0811157226563
 30
0.0
 11
-194.3507528530031
 21
-141.0811157226563
 31
0.0
  0
ENDBLK
  5
123
  8
0
  0
BLOCK
  8
0
  2
DC_GROUP_73
 70
     0
 10
0.0
 20
0.0
 30
0.0
  3
DC_GROUP_73
  1

  0
LINE
  5
2B7
  8
LAYER0014
  6
CONTINUOUS
 62
     7
 10
-196.3507512606338
 20
-141.0811157226563
 30
0.0
 11
-100.5507482088759
 21
-141.0811157226563
 31
0.0
  0
LINE
  5
2B8
  8
LAYER0014
  6
CONTINUOUS
 62
     7
 10
-196.3507360018447
 20
-86.39693359375001
 30
0.0
 11
-196.3507515396686
 21
-142.0811157226562
 31
0.0
  0
LINE
  5
2B9
  8
LAYER0014
  6
CONTINUOUS
 62
     7
 10
-100.5507482088759
 20
-101.89693359375
 30
0.0
 11
-100.5507482088759
 21
-142.0811157226563
 31
0.0
  0
INSERT
  5
2BA
  8
LAYER0014
  6
CONTINUOUS
  2
DC_GROUP_74
 10
0.0
 20
0.0
 30
0.0
  0
INSERT
  5
2BB
  8
LAYER0014
  6
CONTINUOUS
  2
DC_GROUP_75
 10
0.0
 20
0.0
 30
0.0
  0
TEXT
  5
2BC
  8
LAYER0014
 62
     7
 10
-154.8507497347549
 20
-140.0811157226563
 30
0.0
 40
4.0
  1
95.8
 41
0.8000000000000007
  7
FDASTYLE0
 72
     5
 11
-142.0507497347549
 21
-140.0811157226563
 31
0.0
  0
ENDBLK
  5
126
  8
0
  0
BLOCK
  8
0
  2
DC_GROUP_74
 70
     0
 10
0.0
 20
0.0
 30
0.0
  3
DC_GROUP_74
  1

  0
LINE
  5
2BD
  8
LAYER0014
  6
CONTINUOUS
 62
     7
 10
-194.3507528530031
 20
-141.6170152575539
 30
0.0
 11
-196.3507512606338
 21
-141.0811157226563
 31
0.0
  0
LINE
  5
2BE
  8
LAYER0014
  6
CONTINUOUS
 62
     7
 10
-196.3507512606338
 20
-141.0811157226563
 30
0.0
 11
-194.3507528530031
 21
-140.5452161877587
 31
0.0
  0
LINE
  5
2BF
  8
LAYER0014
  6
CONTINUOUS
 62
     7
 10
-196.3507512606338
 20
-141.0811157226563
 30
0.0
 11
-194.3507528530031
 21
-141.0811157226563
 31
0.0
  0
ENDBLK
  5
129
  8
0
  0
BLOCK
  8
0
  2
DC_GROUP_75
 70
     0
 10
0.0
 20
0.0
 30
0.0
  3
DC_GROUP_75
  1

  0
LINE
  5
2C0
  8
LAYER0014
  6
CONTINUOUS
 62
     7
 10
-102.5507466165066
 20
-140.5452161877587
 30
0.0
 11
-100.5507482088759
 21
-141.0811157226563
 31
0.0
  0
LINE
  5
2C1
  8
LAYER0014
  6
CONTINUOUS
 62
     7
 10
-100.5507482088759
 20
-141.0811157226563
 30
0.0
 11
-102.5507466165066
 21
-141.6170152575539
 31
0.0
  0
LINE
  5
2C2
  8
LAYER0014
  6
CONTINUOUS
 62
     7
 10
-100.5507482088759
 20
-141.0811157226563
 30
0.0
 11
-102.5507466165066
 21
-141.0811157226563
 31
0.0
  0
ENDBLK
  5
12C
  8
0
  0
BLOCK
  8
0
  2
DC_GROUP_76
 70
     0
 10
0.0
 20
0.0
 30
0.0
  3
DC_GROUP_76
  1

  0
LINE
  5
2C3
  8
LAYER0014
  6
CONTINUOUS
 62
     7
 10
-200.550748208876
 20
-153.7477722167969
 30
0.0
 11
-100.5507482088759
 21
-153.7477722167969
 31
0.0
  0
LINE
  5
2C4
  8
LAYER0014
  6
CONTINUOUS
 62
     7
 10
-200.550748208876
 20
-122.7857427978516
 30
0.0
 11
-200.550748208876
 21
-154.7477722167969
 31
0.0
  0
LINE
  5
2C5
  8
LAYER0014
  6
CONTINUOUS
 62
     7
 10
-100.5507482088759
 20
-101.89693359375
 30
0.0
 11
-100.5507482088759
 21
-154.7477722167969
 31
0.0
  0
INSERT
  5
2C6
  8
LAYER0014
  6
CONTINUOUS
  2
DC_GROUP_77
 10
0.0
 20
0.0
 30
0.0
  0
INSERT
  5
2C7
  8
LAYER0014
  6
CONTINUOUS
  2
DC_GROUP_78
 10
0.0
 20
0.0
 30
0.0
  0
TEXT
  5
2C8
  8
LAYER0014
 62
     7
 10
-155.350748208876
 20
-152.7477722167969
 30
0.0
 40
4.0
  1
100
 41
0.8000000000000019
  7
FDASTYLE0
 72
     5
 11
-145.750748208876
 21
-152.7477722167969
 31
0.0
  0
ENDBLK
  5
12F
  8
0
  0
BLOCK
  8
0
  2
DC_GROUP_77
 70
     0
 10
0.0
 20
0.0
 30
0.0
  3
DC_GROUP_77
  1

  0
LINE
  5
2C9
  8
LAYER0014
  6
CONTINUOUS
 62
     7
 10
-198.5507498012453
 20
-154.2836717516945
 30
0.0
 11
-200.550748208876
 21
-153.7477722167969
 31
0.0
  0
LINE
  5
2CA
  8
LAYER0014
  6
CONTINUOUS
 62
     7
 10
-200.550748208876
 20
-153.7477722167969
 30
0.0
 11
-198.5507498012453
 21
-153.2118726818993
 31
0.0
  0
LINE
  5
2CB
  8
LAYER0014
  6
CONTINUOUS
 62
     7
 10
-200.550748208876
 20
-153.7477722167969
 30
0.0
 11
-198.5507498012453
 21
-153.7477722167969
 31
0.0
  0
ENDBLK
  5
132
  8
0
  0
BLOCK
  8
0
  2
DC_GROUP_78
 70
     0
 10
0.0
 20
0.0
 30
0.0
  3
DC_GROUP_78
  1

  0
LINE
  5
2CC
  8
LAYER0014
  6
CONTINUOUS
 62
     7
 10
-102.5507466165066
 20
-153.2118726818993
 30
0.0
 11
-100.5507482088759
 21
-153.7477722167969
 31
0.0
  0
LINE
  5
2CD
  8
LAYER0014
  6
CONTINUOUS
 62
     7
 10
-100.5507482088759
 20
-153.7477722167969
 30
0.0
 11
-102.5507466165066
 21
-154.2836717516945
 31
0.0
  0
LINE
  5
2CE
  8
LAYER0014
  6
CONTINUOUS
 62
     7
 10
-100.5507482088759
 20
-153.7477722167969
 30
0.0
 11
-102.5507466165066
 21
-153.7477722167969
 31
0.0
  0
ENDBLK
  5
135
  8
0
  0
BLOCK
  8
0
  2
DC_GROUP_79
 70
     0
 10
0.0
 20
0.0
 30
0.0
  3
DC_GROUP_79
  1

  0
TEXT
  5
2CF
  8
LAYER0014
 62
     7
 10
-217.1187789874137
 20
163.0130416681431
 30
0.0
 40
4.0
  1
ＭＩＮ 0
 41
0.637755102040816
  7
FDASTYLE0
 72
     5
 11
-202.8330647016994
 21
163.0130416681431
 31
0.0
  0
ENDBLK
  5
138
  8
0
  0
BLOCK
  8
0
  2
DC_GROUP_80
 70
     0
 10
0.0
 20
0.0
 30
0.0
  3
DC_GROUP_80
  1

  0
LINE
  5
2D0
  8
LAYER0014
  6
CONTINUOUS
 62
     7
 10
-99.06904441248922
 20
82.64306640625
 30
0.0
 11
-54.45586905848532
 21
82.64306640625
 31
0.0
  0
LINE
  5
2D1
  8
LAYER0014
  6
CONTINUOUS
 62
     7
 10
-55.45586905848532
 20
23.64306831359863
 30
0.0
 11
-55.45586905848532
 21
82.64306640625
 31
0.0
  0
LINE
  5
2D2
  8
LAYER0014
  6
CONTINUOUS
 62
     7
 10
-94.75658372330881
 20
23.64306640625
 30
0.0
 11
-82.94350903364725
 21
23.64306640625
 31
0.0
  0
LINE
  5
2D3
  8
LAYER0014
  6
CONTINUOUS
 62
     7
 10
-65.45586905848532
 20
23.64306640625
 30
0.0
 11
-54.45586905848532
 21
23.64306640625
 31
0.0
  0
INSERT
  5
2D4
  8
LAYER0014
  6
CONTINUOUS
  2
DC_GROUP_81
 10
0.0
 20
0.0
 30
0.0
  0
INSERT
  5
2D5
  8
LAYER0014
  6
CONTINUOUS
  2
DC_GROUP_82
 10
0.0
 20
0.0
 30
0.0
  0
TEXT
  5
2D6
  8
LAYER0014
 62
     7
 10
-56.45586905848532
 20
43.54306735992432
 30
0.0
 40
4.0
  1
MAX 64
 50
90.0
 41
0.8000000000000002
  7
FDASTYLE0
 72
     5
 11
-56.45586905848532
 21
62.74306735992433
 31
0.0
  0
ENDBLK
  5
13B
  8
0
  0
BLOCK
  8
0
  2
DC_GROUP_81
 70
     0
 10
0.0
 20
0.0
 30
0.0
  3
DC_GROUP_81
  1

  0
LINE
  5
2D7
  8
LAYER0014
  6
CONTINUOUS
 62
     7
 10
-54.91996952358771
 20
25.64306672122929
 30
0.0
 11
-55.45586905848532
 21
23.64306831359863
 31
0.0
  0
LINE
  5
2D8
  8
LAYER0014
  6
CONTINUOUS
 62
     7
 10
-55.45586905848532
 20
23.64306831359863
 30
0.0
 11
-55.99176859338293
 21
25.64306672122929
 31
0.0
  0
LINE
  5
2D9
  8
LAYER0014
  6
CONTINUOUS
 62
     7
 10
-55.45586905848532
 20
23.64306831359863
 30
0.0
 11
-55.45586905848532
 21
25.64306672122929
 31
0.0
  0
ENDBLK
  5
13E
  8
0
  0
BLOCK
  8
0
  2
DC_GROUP_82
 70
     0
 10
0.0
 20
0.0
 30
0.0
  3
DC_GROUP_82
  1

  0
LINE
  5
2DA
  8
LAYER0014
  6
CONTINUOUS
 62
     7
 10
-55.99176859338293
 20
80.64306799861934
 30
0.0
 11
-55.45586905848532
 21
82.64306640625
 31
0.0
  0
LINE
  5
2DB
  8
LAYER0014
  6
CONTINUOUS
 62
     7
 10
-55.45586905848532
 20
82.64306640625
 30
0.0
 11
-54.91996952358771
 21
80.64306799861934
 31
0.0
  0
LINE
  5
2DC
  8
LAYER0014
  6
CONTINUOUS
 62
     7
 10
-55.45586905848532
 20
82.64306640625
 30
0.0
 11
-55.45586905848532
 21
80.64306799861934
 31
0.0
  0
ENDBLK
  5
141
  8
0
  0
BLOCK
  8
0
  2
DC_GROUP_83
 70
     0
 10
0.0
 20
0.0
 30
0.0
  3
DC_GROUP_83
  1

  0
LINE
  5
2DD
  8
0
  6
CONTINUOUS
 62
     5
 10
194.7177356574161
 20
86.3931147598974
 30
0.0
 11
196.9677375796647
 21
82.49599502093423
 31
0.0
  0
LINE
  5
2DE
  8
0
  6
CONTINUOUS
 62
     5
 10
195.7422267325543
 20
86.11861778946695
 30
0.0
 11
194.7177139623488
 21
86.39313527533936
 31
0.0
  0
LINE
  5
2DF
  8
0
  6
CONTINUOUS
 62
     5
 10
194.4432590701771
 20
85.36857517592208
 30
0.0
 11
194.7177803325939
 21
86.39310273126671
 31
0.0
  0
LINE
  5
2E0
  8
0
  6
CONTINUOUS
 62
     5
 10
196.9678154731393
 20
82.49596722406008
 30
0.0
 11
197.2423367355562
 21
83.52049477940471
 31
0.0
  0
LINE
  5
2E1
  8
0
  6
CONTINUOUS
 62
     5
 10
196.9677260842853
 20
82.49602463324946
 30
0.0
 11
195.9431985752216
 21
82.7705460683887
 31
0.0
  0
LINE
  5
2E2
  8
0
  6
CONTINUOUS
 62
     5
 10
187.8475192808555
 20
83.29263493061768
 30
0.0
 11
200.837901892607
 21
90.79263180137383
 31
0.0
  0
LINE
  5
2E3
  8
0
  6
CONTINUOUS
 62
     5
 10
193.2036594296102
 20
92.76709525685544
 30
0.0
 11
192.4369486459763
 21
92.14622535413355
 31
0.0
  0
LINE
  5
2E4
  8
0
  6
CONTINUOUS
 62
     5
 10
193.2036787491728
 20
92.76711364918954
 30
0.0
 11
192.5828183257418
 21
93.53381243538483
 31
0.0
  0
LINE
  5
2E5
  8
0
  6
CONTINUOUS
 62
     5
 10
200.8379079038111
 20
90.79263664845236
 30
0.0
 11
197.0879089915961
 21
97.28782878023442
 31
0.0
  0
LINE
  5
2E6
  8
0
  6
CONTINUOUS
 62
     5
 10
184.0975237150576
 20
89.7878193588828
 30
0.0
 11
197.0879063268091
 21
97.28781622963895
 31
0.0
  0
LINE
  5
2E7
  8
0
  6
CONTINUOUS
 62
     5
 10
187.8475190681122
 20
83.29262957705195
 30
0.0
 11
182.222521891882
 21
93.03541570995934
 31
0.0
  0
LINE
  5
2E8
  8
0
  6
CONTINUOUS
 62
     5
 10
182.22252336916
 20
93.03541601226164
 30
0.0
 11
184.1710807609227
 21
94.16041554287506
 31
0.0
  0
LINE
  5
2E9
  8
0
  6
CONTINUOUS
 62
     5
 10
184.7335918379655
 20
93.18613346695129
 30
0.0
 11
184.1710958873544
 21
94.16040555558239
 31
0.0
  0
LINE
  5
2EA
  8
0
  6
CONTINUOUS
 62
     5
 10
184.7335807646479
 20
93.18613643404055
 30
0.0
 11
186.032619025823
 21
93.93613612111616
 31
0.0
  0
LINE
  5
2EB
  8
0
  6
CONTINUOUS
 62
     5
 10
186.5951106427177
 20
92.96185437256159
 30
0.0
 11
186.032610877411
 21
93.93613306844296
 31
0.0
  0
LINE
  5
2EC
  8
0
  6
CONTINUOUS
 62
     5
 10
186.5951370124183
 20
92.96185638261017
 30
0.0
 11
187.8941752735935
 21
93.71185606968578
 31
0.0
  0
LINE
  5
2ED
  8
0
  6
CONTINUOUS
 62
     5
 10
188.6441439292747
 20
92.41281338233534
 30
0.0
 11
187.8941443614084
 21
93.71185143703393
 31
0.0
  0
LINE
  5
2EE
  8
0
  6
CONTINUOUS
 62
     5
 10
188.7681055868493
 20
95.19820904858463
 30
0.0
 11
189.0426268492661
 21
96.22273660392925
 31
0.0
  0
LINE
  5
2EF
  8
0
  6
CONTINUOUS
 62
     5
 10
186.479476792277
 20
94.74291262816308
 30
0.0
 11
189.0425877607139
 21
96.22272464118935
 31
0.0
  0
LINE
  5
2F0
  8
0
  6
CONTINUOUS
 62
     5
 10
189.0425834951117
 20
96.22275401482648
 30
0.0
 11
188.0180707249061
 21
96.49727150069889
 31
0.0
  0
ARC
  5
2F1
  8
0
  6
CONTINUOUS
 62
     5
 10
192.5242639981553
 20
90.23152923583984
 30
0.0
 40
2.625001907348633
 50
75.00008446424575
 51
369.9999367173828
  0
TEXT
  5
2F2
  8
0
 62
     5
 10
194.6916921958243
 20
82.67841926804373
 30
0.0
 40
2.5
  1
F
 50
119.9999866787419
 41
0.8791213035583614
  7
FDASTYLE0
 72
     5
 11
193.5927910089057
 21
84.58177297826218
 31
0.0
  0
TEXT
  5
2F3
  8
0
 62
     5
 10
197.3064418915916
 20
93.18775660459781
 30
0.0
 40
2.5
  1
N min
 50
119.9999866787419
 41
0.7983872809842205
  7
FDASTYLE0
 72
     5
 11
192.3165233948888
 21
101.8305536071372
 31
0.0
  0
TEXT
  5
2F4
  8
0
 62
     5
 10
189.2971686762124
 20
103.5025382670296
 30
0.0
 40
1.25
  1
-1
 50
119.9999866787419
 41
0.782608910634554
  7
FDASTYLE0
 72
     5
 11
188.3189079318665
 21
105.1969364890691
 31
0.0
  0
TEXT
  5
2F5
  8
0
 62
     5
 10
188.0369233662184
 20
97.60971718718784
 30
0.0
 40
2.5
  1
ΣS
 50
119.9999866787419
 41
0.8718556116435157
  7
FDASTYLE0
 72
     5
 11
185.6393213997171
 21
101.7624878392641
 31
0.0
  0
ENDBLK
  5
144
  8
0
  0
BLOCK
  8
0
  2
DC_GROUP_84
 70
     0
 10
0.0
 20
0.0
 30
0.0
  3
DC_GROUP_84
  1

  0
LINE
  5
2F6
  8
0
  6
CONTINUOUS
 62
     9
 10
-151.3724645174697
 20
-20.10693359374999
 30
0.0
 11
-227.430831314506
 21
-20.10693359374999
 31
0.0
  0
LINE
  5
2F7
  8
0
  6
CONTINUOUS
 62
     9
 10
-151.3724645174697
 20
67.39306640625
 30
0.0
 11
-227.430831314506
 21
67.39306640625
 31
0.0
  0
LINE
  5
2F8
  8
0
  6
CONTINUOUS
 62
     9
 10
-226.430831314506
 20
-20.10693359374999
 30
0.0
 11
-226.430831314506
 21
67.39306640625
 31
0.0
  0
INSERT
  5
2F9
  8
0
  6
CONTINUOUS
  2
DC_GROUP_85
 10
0.0
 20
0.0
 30
0.0
  0
INSERT
  5
2FA
  8
0
  6
CONTINUOUS
  2
DC_GROUP_86
 10
0.0
 20
0.0
 30
0.0
  0
TEXT
  5
2FB
  8
0
 62
     7
 10
-227.430831314506
 20
12.44306640625001
 30
0.0
 40
4.0
  1
φ87.5Ｈ7
 50
90.0
 41
0.7158509861212555
  7
FDASTYLE0
 72
     5
 11
-227.430831314506
 21
33.63225559543918
 31
0.0
  0
ENDBLK
  5
147
  8
0
  0
BLOCK
  8
0
  2
DC_GROUP_85
 70
     0
 10
0.0
 20
0.0
 30
0.0
  3
DC_GROUP_85
  1

  0
LINE
  5
2FC
  8
0
  6
CONTINUOUS
 62
     9
 10
-225.8949317796084
 20
-18.10693518611933
 30
0.0
 11
-226.430831314506
 21
-20.10693359374999
 31
0.0
  0
LINE
  5
2FD
  8
0
  6
CONTINUOUS
 62
     9
 10
-226.430831314506
 20
-20.10693359374999
 30
0.0
 11
-226.9667308494036
 21
-18.10693518611933
 31
0.0
  0
LINE
  5
2FE
  8
0
  6
CONTINUOUS
 62
     9
 10
-226.430831314506
 20
-20.10693359374999
 30
0.0
 11
-226.430831314506
 21
-18.10693518611933
 31
0.0
  0
ENDBLK
  5
14A
  8
0
  0
BLOCK
  8
0
  2
DC_GROUP_86
 70
     0
 10
0.0
 20
0.0
 30
0.0
  3
DC_GROUP_86
  1

  0
LINE
  5
2FF
  8
0
  6
CONTINUOUS
 62
     9
 10
-226.9667308494036
 20
65.39306799861934
 30
0.0
 11
-226.430831314506
 21
67.39306640625
 31
0.0
  0
LINE
  5
300
  8
0
  6
CONTINUOUS
 62
     9
 10
-226.430831314506
 20
67.39306640625
 30
0.0
 11
-225.8949317796084
 21
65.39306799861934
 31
0.0
  0
LINE
  5
301
  8
0
  6
CONTINUOUS
 62
     9
 10
-226.430831314506
 20
67.39306640625
 30
0.0
 11
-226.430831314506
 21
65.39306799861934
 31
0.0
  0
ENDBLK
  5
14D
  8
0
  0
BLOCK
  8
0
  2
DC_GROUP_87
 70
     0
 10
0.0
 20
0.0
 30
0.0
  3
DC_GROUP_87
  1

  0
LINE
  5
302
  8
0
  6
CONTINUOUS
 62
     9
 10
-181.3724645174697
 20
-11.35693359375
 30
0.0
 11
-215.5743262031913
 21
-11.35693359375
 31
0.0
  0
LINE
  5
303
  8
0
  6
CONTINUOUS
 62
     9
 10
-181.3724645174697
 20
58.64306640625
 30
0.0
 11
-215.5743262031913
 21
58.64306640625
 31
0.0
  0
LINE
  5
304
  8
0
  6
CONTINUOUS
 62
     9
 10
-214.5743262031913
 20
-11.35693359375
 30
0.0
 11
-214.5743262031913
 21
58.64306640625
 31
0.0
  0
INSERT
  5
305
  8
0
  6
CONTINUOUS
  2
DC_GROUP_88
 10
0.0
 20
0.0
 30
0.0
  0
INSERT
  5
306
  8
0
  6
CONTINUOUS
  2
DC_GROUP_89
 10
0.0
 20
0.0
 30
0.0
  0
TEXT
  5
307
  8
0
 62
     7
 10
-215.5743262031913
 20
18.84306640624999
 30
0.0
 40
4.0
  1
φ70
 50
90.0
 41
0.7031250000000022
  7
FDASTYLE0
 72
     5
 11
-215.5743262031913
 21
27.84306640625002
 31
0.0
  0
TEXT
  5
308
  8
0
 62
     7
 10
-217.7743262031913
 20
29.44306640625001
 30
0.0
 40
2.2
  1
+0.5
 50
90.0
 41
0.7999999999999991
  7
FDASTYLE0
 72
     5
 11
-217.7743262031913
 21
36.48306640625
 31
0.0
  0
TEXT
  5
309
  8
0
 62
     7
 10
-215.3743262031913
 20
29.44306640625001
 30
0.0
 40
2.2
  1
　0
 50
90.0
 41
0.661157024793392
  7
FDASTYLE0
 72
     5
 11
-215.3743262031913
 21
32.64306640625003
 31
0.0
  0
ENDBLK
  5
150
  8
0
  0
BLOCK
  8
0
  2
DC_GROUP_88
 70
     0
 10
0.0
 20
0.0
 30
0.0
  3
DC_GROUP_88
  1

  0
LINE
  5
30A
  8
0
  6
CONTINUOUS
 62
     9
 10
-214.0384266682937
 20
-9.356935186119339
 30
0.0
 11
-214.5743262031913
 21
-11.35693359375
 31
0.0
  0
LINE
  5
30B
  8
0
  6
CONTINUOUS
 62
     9
 10
-214.5743262031913
 20
-11.35693359375
 30
0.0
 11
-215.1102257380889
 21
-9.356935186119339
 31
0.0
  0
LINE
  5
30C
  8
0
  6
CONTINUOUS
 62
     9
 10
-214.5743262031913
 20
-11.35693359375
 30
0.0
 11
-214.5743262031913
 21
-9.356935186119339
 31
0.0
  0
ENDBLK
  5
153
  8
0
  0
BLOCK
  8
0
  2
DC_GROUP_89
 70
     0
 10
0.0
 20
0.0
 30
0.0
  3
DC_GROUP_89
  1

  0
LINE
  5
30D
  8
0
  6
CONTINUOUS
 62
     9
 10
-215.1102257380889
 20
56.64306799861934
 30
0.0
 11
-214.5743262031913
 21
58.64306640625
 31
0.0
  0
LINE
  5
30E
  8
0
  6
CONTINUOUS
 62
     9
 10
-214.5743262031913
 20
58.64306640625
 30
0.0
 11
-214.0384266682937
 21
56.64306799861934
 31
0.0
  0
LINE
  5
30F
  8
0
  6
CONTINUOUS
 62
     9
 10
-214.5743262031913
 20
58.64306640625
 30
0.0
 11
-214.5743262031913
 21
56.64306799861934
 31
0.0
  0
ENDBLK
  5
156
  8
0
  0
BLOCK
  8
0
  2
DC_GROUP_90
 70
     0
 10
0.0
 20
0.0
 30
0.0
  3
DC_GROUP_90
  1

  0
LINE
  5
310
  8
0
  6
CONTINUOUS
 62
     9
 10
-214.550748208876
 20
-49.03193664550781
 30
0.0
 11
-227.5656667055131
 21
-49.03193664550781
 31
0.0
  0
LINE
  5
311
  8
0
  6
CONTINUOUS
 62
     9
 10
-214.550748208876
 20
-37.03193664550781
 30
0.0
 11
-227.5656667055131
 21
-37.03193664550781
 31
0.0
  0
LINE
  5
312
  8
0
  6
CONTINUOUS
 62
     9
 10
-226.5656667055131
 20
-49.03193664550781
 30
0.0
 11
-226.5656667055131
 21
-37.03193664550781
 31
0.0
  0
LINE
  5
313
  8
0
  6
CONTINUOUS
 62
     9
 10
-226.5656667055131
 20
-62.53131500458201
 30
0.0
 11
-226.5656667055131
 21
-49.03193664550781
 31
0.0
  0
LINE
  5
314
  8
0
  6
CONTINUOUS
 62
     9
 10
-226.5656667055131
 20
-32.03193664550781
 30
0.0
 11
-226.5656667055131
 21
-37.03193664550781
 31
0.0
  0
INSERT
  5
315
  8
0
  6
CONTINUOUS
  2
DC_GROUP_91
 10
0.0
 20
0.0
 30
0.0
  0
INSERT
  5
316
  8
0
  6
CONTINUOUS
  2
DC_GROUP_92
 10
0.0
 20
0.0
 30
0.0
  0
TEXT
  5
317
  8
0
 62
     7
 10
-227.5656667055131
 20
-61.53131500458201
 30
0.0
 40
4.0
  1
M12
 50
90.0
 41
0.7999999999999995
  7
FDASTYLE0
 72
     5
 11
-227.5656667055131
 21
-51.93131500458202
 31
0.0
  0
ENDBLK
  5
159
  8
0
  0
BLOCK
  8
0
  2
DC_GROUP_91
 70
     0
 10
0.0
 20
0.0
 30
0.0
  3
DC_GROUP_91
  1

  0
LINE
  5
318
  8
0
  6
CONTINUOUS
 62
     9
 10
-227.1015662404107
 20
-51.03193505313848
 30
0.0
 11
-226.5656667055131
 21
-49.03193664550781
 31
0.0
  0
LINE
  5
319
  8
0
  6
CONTINUOUS
 62
     9
 10
-226.5656667055131
 20
-49.03193664550781
 30
0.0
 11
-226.0297671706155
 21
-51.03193505313848
 31
0.0
  0
LINE
  5
31A
  8
0
  6
CONTINUOUS
 62
     9
 10
-226.5656667055131
 20
-49.03193664550781
 30
0.0
 11
-226.5656667055131
 21
-51.03193505313848
 31
0.0
  0
ENDBLK
  5
15C
  8
0
  0
BLOCK
  8
0
  2
DC_GROUP_92
 70
     0
 10
0.0
 20
0.0
 30
0.0
  3
DC_GROUP_92
  1

  0
LINE
  5
31B
  8
0
  6
CONTINUOUS
 62
     9
 10
-226.0297671706155
 20
-35.03193823787715
 30
0.0
 11
-226.5656667055131
 21
-37.03193664550781
 31
0.0
  0
LINE
  5
31C
  8
0
  6
CONTINUOUS
 62
     9
 10
-226.5656667055131
 20
-37.03193664550781
 30
0.0
 11
-227.1015662404107
 21
-35.03193823787715
 31
0.0
  0
LINE
  5
31D
  8
0
  6
CONTINUOUS
 62
     9
 10
-226.5656667055131
 20
-37.03193664550781
 30
0.0
 11
-226.5656667055131
 21
-35.03193823787715
 31
0.0
  0
ENDBLK
  5
15F
  8
0
  0
BLOCK
  8
0
  2
DC_GROUP_93
 70
     0
 10
0.0
 20
0.0
 30
0.0
  3
DC_GROUP_93
  1

  0
LINE
  5
31E
  8
0
  6
CONTINUOUS
 62
     9
 10
106.9927902408282
 20
0.5160352101596801
 30
0.0
 11
100.0740031875568
 21
-25.30522640972917
 31
0.0
  0
ARC
  5
31F
  8
0
  6
CONTINUOUS
 62
     9
 10
113.1896692715928
 20
23.64309974447247
 30
0.0
 40
24.94289923330502
 50
254.9999982305801
 51
270.0
  0
ARC
  5
320
  8
0
  6
CONTINUOUS
 62
     9
 10
113.1896692715928
 20
23.64309974447247
 30
0.0
 40
24.94289923330502
 50
224.9498390255967
 51
254.9999982305801
  0
INSERT
  5
321
  8
0
  6
CONTINUOUS
  2
DC_GROUP_94
 10
0.0
 20
0.0
 30
0.0
  0
TEXT
  5
322
  8
0
 62
     7
 10
96.78316831518102
 20
5.556387769559579
 30
0.0
 40
4.0
  1
15°
 50
-30.87504187511683
 41
0.703124999999999
  7
FDASTYLE0
 72
     5
 11
104.5077650278016
 21
0.9378809083141508
 31
0.0
  0
ENDBLK
  5
162
  8
0
  0
BLOCK
  8
0
  2
DC_GROUP_94
 70
     0
 10
0.0
 20
0.0
 30
0.0
  3
DC_GROUP_94
  1

  0
LINE
  5
323
  8
0
  6
CONTINUOUS
 62
     9
 10
104.9837577265945
 20
0.6564252865869875
 30
0.0
 11
106.7339711658958
 21
-0.4498906081364851
 31
0.0
  0
LINE
  5
324
  8
0
  6
CONTINUOUS
 62
     9
 10
106.7339711658958
 20
-0.4498906081364851
 30
0.0
 11
104.6650837959692
 21
-0.3669027018672218
 31
0.0
  0
LINE
  5
325
  8
0
  6
CONTINUOUS
 62
     9
 10
106.7339711658958
 20
-0.4498906081364851
 30
0.0
 11
104.8244207612819
 21
0.1447612923598811
 31
0.0
  0
ENDBLK
  5
165
  8
0
  0
BLOCK
  8
0
  2
DC_GROUP_95
 70
     0
 10
0.0
 20
0.0
 30
0.0
  3
DC_GROUP_95
  1

  0
LINE
  5
326
  8
0
  6
CONTINUOUS
 62
     9
 10
119.3865483023574
 20
0.5160352101596801
 30
0.0
 11
126.3053353556288
 21
-25.30522640972917
 31
0.0
  0
ARC
  5
327
  8
0
  6
CONTINUOUS
 62
     9
 10
113.1896692715928
 20
23.64309974447247
 30
0.0
 40
24.94289923330502
 50
270.0
 51
285.0000017694199
  0
ARC
  5
328
  8
0
  6
CONTINUOUS
 62
     9
 10
113.1896692715928
 20
23.64309974447247
 30
0.0
 40
24.94289923330502
 50
285.0000017694199
 51
315.0501609744034
  0
INSERT
  5
329
  8
0
  6
CONTINUOUS
  2
DC_GROUP_96
 10
0.0
 20
0.0
 30
0.0
  0
INSERT
  5
32A
  8
0
  6
CONTINUOUS
  2
DC_GROUP_98
 10
0.0
 20
0.0
 30
0.0
  0
TEXT
  5
32B
  8
0
 62
     7
 10
121.3566004012093
 20
0.6299804508977855
 30
0.0
 40
4.0
  1
15°
 50
30.87504187511682
 41
0.7031250000000014
  7
FDASTYLE0
 72
     5
 11
129.0811971138299
 21
5.248487312143228
 31
0.0
  0
ENDBLK
  5
168
  8
0
  0
BLOCK
  8
0
  2
DC_GROUP_96
 70
     0
 10
0.0
 20
0.0
 30
0.0
  3
DC_GROUP_96
  1

  0
INSERT
  5
32C
  8
0
  6
CONTINUOUS
  2
DC_GROUP_97
 10
0.0
 20
0.0
 30
0.0
  0
LINE
  5
32D
  8
0
  6
CONTINUOUS
 62
     9
 10
114.4386648234913
 20
-1.2496984774871
 30
0.0
 11
115.6876603753898
 21
-1.199597466141645
 31
0.0
  0
ENDBLK
  5
16B
  8
0
  0
BLOCK
  8
0
  2
DC_GROUP_97
 70
     0
 10
0.0
 20
0.0
 30
0.0
  3
DC_GROUP_97
  1

  0
ARC
  5
32E
  8
0
  6
CONTINUOUS
 62
     9
 10
113.1896692715928
 20
-1.299799488832555
 30
0.0
 40
0.625
 50
2.297076510949918
 51
182.29707651095
  0
ARC
  5
32F
  8
0
  6
CONTINUOUS
 62
     9
 10
113.1896692715928
 20
-1.299799488832555
 30
0.0
 40
0.625
 50
182.29707651095
 51
362.2970765109499
  0
ENDBLK
  5
16E
  8
0
  0
BLOCK
  8
0
  2
DC_GROUP_98
 70
     0
 10
0.0
 20
0.0
 30
0.0
  3
DC_GROUP_98
  1

  0
LINE
  5
330
  8
0
  6
CONTINUOUS
 62
     9
 10
121.7142547472164
 20
-0.3669027018672182
 30
0.0
 11
119.6453673772898
 21
-0.4498906081364851
 31
0.0
  0
LINE
  5
331
  8
0
  6
CONTINUOUS
 62
     9
 10
119.6453673772898
 20
-0.4498906081364851
 30
0.0
 11
121.3955808165911
 21
0.6564252865869875
 31
0.0
  0
LINE
  5
332
  8
0
  6
CONTINUOUS
 62
     9
 10
119.6453673772898
 20
-0.4498906081364851
 30
0.0
 11
121.5549177819038
 21
0.1447612923598811
 31
0.0
  0
ENDBLK
  5
171
  8
0
  0
BLOCK
  8
0
  2
DC_GROUP_99
 70
     0
 10
0.0
 20
0.0
 30
0.0
  3
DC_GROUP_99
  1

  0
LINE
  5
333
  8
0
  6
CONTINUOUS
 62
     7
 10
-148.8507360018447
 20
-101.35693359375
 30
0.0
 11
-137.2415310962466
 21
-115.404127359057
 31
0.0
  0
LINE
  5
334
  8
0
  6
CONTINUOUS
 62
     7
 10
-137.2415310962466
 20
-115.404127359057
 30
0.0
 11
-118.4186498078003
 21
-115.404127359057
 31
0.0
  0
INSERT
  5
335
  8
0
  6
CONTINUOUS
  2
DC_GROUP_100
 10
0.0
 20
0.0
 30
0.0
  0
TEXT
  5
336
  8
0
 62
     7
 10
-137.6186498078003
 20
-115.404127359057
 30
0.0
 40
4.0
  1
Ｍ10×20
 41
0.703125
  7
FDASTYLE0
 72
     5
 11
-119.6186498078003
 21
-115.404127359057
 31
0.0
  0
ENDBLK
  5
174
  8
0
  0
BLOCK
  8
0
  2
DC_GROUP_100
 70
     0
 10
0.0
 20
0.0
 30
0.0
  3
DC_GROUP_100
  1

  0
LINE
  5
337
  8
0
  6
CONTINUOUS
 62
     7
 10
-147.9897337197033
 20
-103.2399782061201
 30
0.0
 11
-148.8507360018447
 21
-101.35693359375
 31
0.0
  0
LINE
  5
338
  8
0
  6
CONTINUOUS
 62
     7
 10
-148.8507360018447
 20
-101.35693359375
 30
0.0
 11
-147.1635620809143
 21
-102.5571944414664
 31
0.0
  0
LINE
  5
339
  8
0
  6
CONTINUOUS
 62
     7
 10
-148.8507360018447
 20
-101.35693359375
 30
0.0
 11
-147.5766479003088
 21
-102.8985863237933
 31
0.0
  0
ENDBLK
  5
177
  8
0
  0
BLOCK
  8
0
  2
DC_GROUP_101
 70
     0
 10
0.0
 20
0.0
 30
0.0
  3
DC_GROUP_101
  1

  0
LINE
  5
33A
  8
0
  6
CONTINUOUS
 62
     9
 10
-148.8507360018447
 20
-107.1362862722509
 30
0.0
 11
-148.8507360018447
 21
-115.405360477639
 31
0.0
  0
LINE
  5
33B
  8
0
  6
CONTINUOUS
 62
     9
 10
-196.3507360018447
 20
-84.85693359375
 30
0.0
 11
-196.3507360018447
 21
-115.405360477639
 31
0.0
  0
LINE
  5
33C
  8
0
  6
CONTINUOUS
 62
     9
 10
-196.3507360018447
 20
-114.405360477639
 30
0.0
 11
-148.8507360018447
 21
-114.405360477639
 31
0.0
  0
INSERT
  5
33D
  8
0
  6
CONTINUOUS
  2
DC_GROUP_102
 10
0.0
 20
0.0
 30
0.0
  0
INSERT
  5
33E
  8
0
  6
CONTINUOUS
  2
DC_GROUP_103
 10
0.0
 20
0.0
 30
0.0
  0
TEXT
  5
33F
  8
0
 62
     7
 10
-179.0007360018447
 20
-113.405360477639
 30
0.0
 40
4.0
  1
47.5
 41
0.8000000000000007
  7
FDASTYLE0
 72
     5
 11
-166.2007360018447
 21
-113.405360477639
 31
0.0
  0
ENDBLK
  5
17A
  8
0
  0
BLOCK
  8
0
  2
DC_GROUP_102
 70
     0
 10
0.0
 20
0.0
 30
0.0
  3
DC_GROUP_102
  1

  0
LINE
  5
340
  8
0
  6
CONTINUOUS
 62
     9
 10
-194.350737594214
 20
-114.9412600125366
 30
0.0
 11
-196.3507360018447
 21
-114.405360477639
 31
0.0
  0
LINE
  5
341
  8
0
  6
CONTINUOUS
 62
     9
 10
-196.3507360018447
 20
-114.405360477639
 30
0.0
 11
-194.350737594214
 21
-113.8694609427414
 31
0.0
  0
LINE
  5
342
  8
0
  6
CONTINUOUS
 62
     9
 10
-196.3507360018447
 20
-114.405360477639
 30
0.0
 11
-194.350737594214
 21
-114.405360477639
 31
0.0
  0
ENDBLK
  5
17D
  8
0
  0
BLOCK
  8
0
  2
DC_GROUP_103
 70
     0
 10
0.0
 20
0.0
 30
0.0
  3
DC_GROUP_103
  1

  0
LINE
  5
343
  8
0
  6
CONTINUOUS
 62
     9
 10
-150.8507344094754
 20
-113.8694609427414
 30
0.0
 11
-148.8507360018447
 21
-114.405360477639
 31
0.0
  0
LINE
  5
344
  8
0
  6
CONTINUOUS
 62
     9
 10
-148.8507360018447
 20
-114.405360477639
 30
0.0
 11
-150.8507344094754
 21
-114.9412600125366
 31
0.0
  0
LINE
  5
345
  8
0
  6
CONTINUOUS
 62
     9
 10
-148.8507360018447
 20
-114.405360477639
 30
0.0
 11
-150.8507344094754
 21
-114.405360477639
 31
0.0
  0
ENDBLK
  5
180
  8
0
  0
BLOCK
  8
0
  2
DC_GROUP_104
 70
     0
 10
0.0
 20
0.0
 30
0.0
  3
DC_GROUP_104
  1

  0
LINE
  5
346
  8
0
  6
CONTINUOUS
 62
     9
 10
256.4762208339581
 20
23.64306640625
 30
0.0
 11
251.1453882657334
 21
23.64306640625
 31
0.0
  0
LINE
  5
347
  8
0
  6
CONTINUOUS
 62
     9
 10
237.2794635117416
 20
95.28634692817221
 30
0.0
 11
225.9974977999919
 21
88.77270170714556
 31
0.0
  0
ARC
  5
348
  8
0
  6
CONTINUOUS
 62
     9
 10
113.1896479171811
 20
23.64306640625
 30
0.0
 40
142.286572916777
 50
0.0
 51
29.99999725896548
  0
INSERT
  5
349
  8
0
  6
CONTINUOUS
  2
DC_GROUP_105
 10
0.0
 20
0.0
 30
0.0
  0
INSERT
  5
34A
  8
0
  6
CONTINUOUS
  2
DC_GROUP_106
 10
0.0
 20
0.0
 30
0.0
  0
TEXT
  5
34B
  8
0
 62
     7
 10
250.9043297856576
 20
55.57427503404985
 30
0.0
 40
4.0
  1
30°
 50
104.9999986294827
 41
0.7031249999999996
  7
FDASTYLE0
 72
     5
 11
248.5749585876798
 21
64.26760752637011
 31
0.0
  0
ENDBLK
  5
183
  8
0
  0
BLOCK
  8
0
  2
DC_GROUP_105
 70
     0
 10
0.0
 20
0.0
 30
0.0
  3
DC_GROUP_105
  1

  0
LINE
  5
34C
  8
0
  6
CONTINUOUS
 62
     9
 10
255.9980511284487
 20
25.64678172679343
 30
0.0
 11
255.4762208339581
 21
23.64306640625
 31
0.0
  0
LINE
  5
34D
  8
0
  6
CONTINUOUS
 62
     9
 10
255.4762208339581
 20
23.64306640625
 30
0.0
 11
254.926278528613
 21
25.6392491140251
 31
0.0
  0
LINE
  5
34E
  8
0
  6
CONTINUOUS
 62
     9
 10
255.4762208339581
 20
23.64306640625
 30
0.0
 11
255.4621648285309
 21
25.64301542040927
 31
0.0
  0
ENDBLK
  5
186
  8
0
  0
BLOCK
  8
0
  2
DC_GROUP_106
 70
     0
 10
0.0
 20
0.0
 30
0.0
  3
DC_GROUP_106
  1

  0
LINE
  5
34F
  8
0
  6
CONTINUOUS
 62
     9
 10
236.9352653350221
 20
92.78263085643765
 30
0.0
 11
236.4134380840371
 21
94.78634696960293
 31
0.0
  0
LINE
  5
350
  8
0
  6
CONTINUOUS
 62
     9
 10
236.4134380840371
 20
94.78634696960293
 30
0.0
 11
237.8672139652688
 21
93.31199367775677
 31
0.0
  0
LINE
  5
351
  8
0
  6
CONTINUOUS
 62
     9
 10
236.4134380840371
 20
94.78634696960293
 30
0.0
 11
237.4012396501454
 21
93.04731226709721
 31
0.0
  0
ENDBLK
  5
189
  8
0
  0
BLOCK
  8
0
  2
DC_GROUP_107
 70
     0
 10
0.0
 20
0.0
 30
0.0
  3
DC_GROUP_107
  1

  0
LINE
  5
352
  8
0
  6
CONTINUOUS
 62
     9
 10
152.6895966790116
 20
29.96433067321777
 30
0.0
 11
152.6895966790116
 21
39.00942285041224
 31
0.0
  0
LINE
  5
353
  8
0
  6
CONTINUOUS
 62
     9
 10
73.6895966790116
 20
30.30908203125
 30
0.0
 11
73.6895966790116
 21
39.00942285041224
 31
0.0
  0
LINE
  5
354
  8
0
  6
CONTINUOUS
 62
     9
 10
73.6895966790116
 20
38.00942285041224
 30
0.0
 11
152.6895966790116
 21
38.00942285041224
 31
0.0
  0
INSERT
  5
355
  8
0
  6
PHANTOM2
  2
DC_GROUP_108
 10
0.0
 20
0.0
 30
0.0
  0
INSERT
  5
356
  8
0
  6
CONTINUOUS
  2
DC_GROUP_109
 10
0.0
 20
0.0
 30
0.0
  0
TEXT
  5
357
  8
0
 62
     7
 10
105.1895966790116
 20
39.00942285041224
 30
0.0
 40
4.0
  1
PCD79
 41
0.8
  7
FDASTYLE0
 72
     5
 11
121.1895966790116
 21
39.00942285041224
 31
0.0
  0
ENDBLK
  5
18C
  8
0
  0
BLOCK
  8
0
  2
DC_GROUP_108
 70
     0
 10
0.0
 20
0.0
 30
0.0
  3
DC_GROUP_108
  1

  0
LINE
  5
358
  8
0
  6
CONTINUOUS
 62
     9
 10
75.68959508664226
 20
37.47352331551463
 30
0.0
 11
73.6895966790116
 21
38.00942285041224
 31
0.0
  0
LINE
  5
359
  8
0
  6
CONTINUOUS
 62
     9
 10
73.6895966790116
 20
38.00942285041224
 30
0.0
 11
75.68959508664226
 21
38.54532238530985
 31
0.0
  0
LINE
  5
35A
  8
0
  6
CONTINUOUS
 62
     9
 10
73.6895966790116
 20
38.00942285041224
 30
0.0
 11
75.68959508664226
 21
38.00942285041224
 31
0.0
  0
ENDBLK
  5
18F
  8
0
  0
BLOCK
  8
0
  2
DC_GROUP_109
 70
     0
 10
0.0
 20
0.0
 30
0.0
  3
DC_GROUP_109
  1

  0
LINE
  5
35B
  8
0
  6
CONTINUOUS
 62
     9
 10
150.689598271381
 20
38.54532238530985
 30
0.0
 11
152.6895966790116
 21
38.00942285041224
 31
0.0
  0
LINE
  5
35C
  8
0
  6
CONTINUOUS
 62
     9
 10
152.6895966790116
 20
38.00942285041224
 30
0.0
 11
150.689598271381
 21
37.47352331551463
 31
0.0
  0
LINE
  5
35D
  8
0
  6
CONTINUOUS
 62
     9
 10
152.6895966790116
 20
38.00942285041224
 30
0.0
 11
150.689598271381
 21
38.00942285041224
 31
0.0
  0
ENDBLK
  5
192
  8
0
  0
BLOCK
  8
0
  2
DC_GROUP_110
 70
     0
 10
0.0
 20
0.0
 30
0.0
  3
DC_GROUP_110
  1

  0
LINE
  5
35E
  8
0
  6
CONTINUOUS
 62
     7
 10
154.231229664544
 20
26.33255839297173
 30
0.0
 11
193.5087683975599
 21
140.4672163329407
 31
0.0
  0
LINE
  5
35F
  8
0
  6
CONTINUOUS
 62
     7
 10
193.5087683975599
 20
140.4672163329407
 30
0.0
 11
212.7087683975598
 21
140.4672163329407
 31
0.0
  0
INSERT
  5
360
  8
0
  6
DASHEDX2
  2
DC_GROUP_111
 10
0.0
 20
0.0
 30
0.0
  0
TEXT
  5
361
  8
0
 62
     7
 10
193.5087683975599
 20
140.4672163329407
 30
0.0
 40
4.0
  1
2-φ6.2
 41
0.7492195629552543
  7
FDASTYLE0
 72
     5
 11
212.0894135588502
 21
140.4672163329407
 31
0.0
  0
ENDBLK
  5
195
  8
0
  0
BLOCK
  8
0
  2
DC_GROUP_111
 70
     0
 10
0.0
 20
0.0
 30
0.0
  3
DC_GROUP_111
  1

  0
LINE
  5
362
  8
0
  6
CONTINUOUS
 62
     7
 10
155.3887702183785
 20
28.04932331813098
 30
0.0
 11
154.231229664544
 21
26.33255839297173
 31
0.0
  0
LINE
  5
363
  8
0
  6
CONTINUOUS
 62
     7
 10
154.231229664544
 20
26.33255839297173
 30
0.0
 11
154.37530368891
 21
28.39809091935122
 31
0.0
  0
LINE
  5
364
  8
0
  6
CONTINUOUS
 62
     7
 10
154.231229664544
 20
26.33255839297173
 30
0.0
 11
154.8820369536443
 21
28.2237071187411
 31
0.0
  0
ENDBLK
  5
198
  8
0
  0
ENDSEC
  0
SECTION
  2
ENTITIES
  0
LINE
  5
365
  8
LAYER0002
  6
CONTINUOUS
 62
     3
 10
-282.5803560625893
 20
-190.0
 30
0.0
 11
-282.5803560625893
 21
190.0
 31
0.0
  0
LINE
  5
366
  8
LAYER0002
  6
CONTINUOUS
 62
     3
 10
271.4196439374107
 20
-190.0
 30
0.0
 11
271.4196439374107
 21
190.0
 31
0.0
  0
LINE
  5
367
  8
LAYER0002
  6
CONTINUOUS
 62
     3
 10
-282.5803560625893
 20
-190.0
 30
0.0
 11
271.4196439374107
 21
-190.0
 31
0.0
  0
LINE
  5
368
  8
LAYER0002
  6
CONTINUOUS
 62
     3
 10
-282.5803560625893
 20
189.9999999999999
 30
0.0
 11
271.4196439374107
 21
189.9999999999999
 31
0.0
  0
LINE
  5
369
  8
LAYER0002
  6
CONTINUOUS
 62
     3
 10
95.41964393741081
 20
179.9999999999999
 30
0.0
 11
271.4196439374107
 21
179.9999999999999
 31
0.0
  0
LINE
  5
36A
  8
LAYER0002
  6
CONTINUOUS
 62
     3
 10
95.41964393741081
 20
179.9999999999999
 30
0.0
 11
95.41964393741081
 21
189.9999999999999
 31
0.0
  0
LINE
  5
36B
  8
LAYER0002
  6
CONTINUOUS
 62
     3
 10
91.41964393741073
 20
-190.0
 30
0.0
 11
91.41964393741073
 21
-130.0
 31
0.0
  0
LINE
  5
36C
  8
LAYER0002
  6
CONTINUOUS
 62
     3
 10
91.41964393741073
 20
-176.0
 30
0.0
 11
271.4196439374107
 21
-176.0
 31
0.0
  0
LINE
  5
36D
  8
LAYER0002
  6
CONTINUOUS
 62
     3
 10
140.4196439374107
 20
-162.0
 30
0.0
 11
271.4196439374107
 21
-162.0
 31
0.0
  0
LINE
  5
36E
  8
LAYER0002
  6
CONTINUOUS
 62
     3
 10
140.4196439374107
 20
-148.0
 30
0.0
 11
271.4196439374107
 21
-148.0
 31
0.0
  0
LINE
  5
36F
  8
LAYER0002
  6
CONTINUOUS
 62
     3
 10
140.4196439374107
 20
-138.0
 30
0.0
 11
271.4196439374107
 21
-138.0
 31
0.0
  0
LINE
  5
370
  8
LAYER0002
  6
CONTINUOUS
 62
     3
 10
140.4196439374107
 20
-176.0
 30
0.0
 11
140.4196439374107
 21
-130.0
 31
0.0
  0
LINE
  5
371
  8
LAYER0002
  6
CONTINUOUS
 62
     3
 10
249.4196439374107
 20
-176.0
 30
0.0
 11
249.4196439374107
 21
-130.0
 31
0.0
  0
LINE
  5
372
  8
LAYER0002
  6
CONTINUOUS
 62
     3
 10
165.4196439374107
 20
-190.0
 30
0.0
 11
165.4196439374107
 21
-176.0
 31
0.0
  0
LINE
  5
373
  8
LAYER0002
  6
CONTINUOUS
 62
     3
 10
256.4196439374107
 20
-188.0
 30
0.0
 11
266.4196439374107
 21
-188.0
 31
0.0
  0
LINE
  5
374
  8
LAYER0002
  6
CONTINUOUS
 62
     3
 10
261.4196439374107
 20
-178.0
 30
0.0
 11
256.4196439374107
 21
-188.0
 31
0.0
  0
LINE
  5
375
  8
LAYER0002
  6
CONTINUOUS
 62
     3
 10
261.4196439374107
 20
-178.0
 30
0.0
 11
266.4196439374107
 21
-188.0
 31
0.0
  0
LINE
  5
376
  8
LAYER0002
  6
CONTINUOUS
 62
     3
 10
91.41964393741073
 20
-130.0
 30
0.0
 11
271.4196439374107
 21
-130.0
 31
0.0
  0
LINE
  5
377
  8
LAYER0002
  6
CONTINUOUS
 62
     3
 10
220.4196439374107
 20
-176.0
 30
0.0
 11
220.4196439374107
 21
-148.0
 31
0.0
  0
LINE
  5
378
  8
LAYER0002
  6
CONTINUOUS
 62
     4
 10
253.1696439374108
 20
179.9999999999999
 30
0.0
 11
253.1696439374108
 21
189.9999999999999
 31
0.0
  0
LINE
  5
379
  8
LAYER0002
  6
CONTINUOUS
 62
     4
 10
234.9196439374108
 20
179.9999999999999
 30
0.0
 11
234.9196439374108
 21
189.9999999999999
 31
0.0
  0
LINE
  5
37A
  8
LAYER0002
  6
CONTINUOUS
 62
     4
 10
216.6696439374108
 20
179.9999999999999
 30
0.0
 11
216.6696439374108
 21
189.9999999999999
 31
0.0
  0
LINE
  5
37B
  8
LAYER0002
  6
CONTINUOUS
 62
     4
 10
198.4196439374108
 20
179.9999999999999
 30
0.0
 11
198.4196439374108
 21
189.9999999999999
 31
0.0
  0
LINE
  5
37C
  8
LAYER0002
  6
CONTINUOUS
 62
     4
 10
180.1696439374108
 20
179.9999999999999
 30
0.0
 11
180.1696439374108
 21
189.9999999999999
 31
0.0
  0
LINE
  5
37D
  8
LAYER0002
  6
CONTINUOUS
 62
     4
 10
161.9196439374108
 20
179.9999999999999
 30
0.0
 11
161.9196439374108
 21
189.9999999999999
 31
0.0
  0
LINE
  5
37E
  8
LAYER0002
  6
CONTINUOUS
 62
     4
 10
143.6696439374108
 20
179.9999999999999
 30
0.0
 11
143.6696439374108
 21
189.9999999999999
 31
0.0
  0
LINE
  5
37F
  8
LAYER0002
  6
CONTINUOUS
 62
     4
 10
125.4196439374108
 20
183.3333333333337
 30
0.0
 11
271.2755768927514
 21
183.3333333333337
 31
0.0
  0
LINE
  5
380
  8
LAYER0002
  6
CONTINUOUS
 62
     4
 10
125.4196439374108
 20
189.9999999999999
 30
0.0
 11
125.4196439374108
 21
179.9999999999999
 31
0.0
  0
LINE
  5
381
  8
LAYER0002
  6
CONTINUOUS
 62
     4
 10
99.41964393741071
 20
-172.0
 30
0.0
 11
99.41964393741071
 21
-130.0
 31
0.0
  0
LINE
  5
382
  8
LAYER0002
  6
CONTINUOUS
 62
     4
 10
103.4196439374107
 20
-172.0
 30
0.0
 11
103.4196439374107
 21
-130.0
 31
0.0
  0
LINE
  5
383
  8
LAYER0002
  6
CONTINUOUS
 62
     4
 10
115.9196439374107
 20
-176.0
 30
0.0
 11
115.9196439374107
 21
-130.0
 31
0.0
  0
LINE
  5
384
  8
LAYER0002
  6
CONTINUOUS
 62
     4
 10
91.41964393741073
 20
-137.0
 30
0.0
 11
140.4196439374107
 21
-137.0
 31
0.0
  0
LINE
  5
385
  8
LAYER0002
  6
CONTINUOUS
 62
     4
 10
91.41964393741073
 20
-144.0
 30
0.0
 11
140.4196439374107
 21
-144.0
 31
0.0
  0
LINE
  5
386
  8
LAYER0002
  6
CONTINUOUS
 62
     4
 10
91.41964393741073
 20
-165.0
 30
0.0
 11
140.4196439374107
 21
-165.0
 31
0.0
  0
LINE
  5
387
  8
LAYER0002
  6
CONTINUOUS
 62
     4
 10
91.41964393741073
 20
-172.0
 30
0.0
 11
140.4196439374107
 21
-172.0
 31
0.0
  0
LINE
  5
388
  8
LAYER0002
  6
CONTINUOUS
 62
     4
 10
249.4196439374107
 20
-166.0
 30
0.0
 11
271.4196439374107
 21
-166.0
 31
0.0
  0
LINE
  5
389
  8
LAYER0002
  6
CONTINUOUS
 62
     4
 10
147.4196439374107
 20
-139.5
 30
0.0
 11
147.4196439374107
 21
-130.0
 31
0.0
  0
LINE
  5
38A
  8
LAYER0002
  6
CONTINUOUS
 62
     4
 10
196.4196439374107
 20
-148.0
 30
0.0
 11
196.4196439374107
 21
-146.5
 31
0.0
  0
LINE
  5
38B
  8
LAYER0002
  6
CONTINUOUS
 62
     4
 10
220.4196439374107
 20
-148.0
 30
0.0
 11
220.4196439374107
 21
-146.5
 31
0.0
  0
LINE
  5
38C
  8
LAYER0002
  6
CONTINUOUS
 62
     4
 10
237.4196439374107
 20
-148.0
 30
0.0
 11
237.4196439374107
 21
-146.5
 31
0.0
  0
LINE
  5
38D
  8
LAYER0002
  6
CONTINUOUS
 62
     4
 10
196.4196439374107
 20
-139.5
 30
0.0
 11
196.4196439374107
 21
-130.0
 31
0.0
  0
LINE
  5
38E
  8
LAYER0002
  6
CONTINUOUS
 62
     4
 10
220.4196439374107
 20
-139.5
 30
0.0
 11
220.4196439374107
 21
-130.0
 31
0.0
  0
LINE
  5
38F
  8
LAYER0002
  6
CONTINUOUS
 62
     4
 10
237.4196439374107
 20
-139.5
 30
0.0
 11
237.4196439374107
 21
-130.0
 31
0.0
  0
LINE
  5
390
  8
LAYER0002
  6
CONTINUOUS
 62
     4
 10
91.41964393741073
 20
-151.0
 30
0.0
 11
140.4196439374107
 21
-151.0
 31
0.0
  0
LINE
  5
391
  8
LAYER0002
  6
CONTINUOUS
 62
     4
 10
91.41964393741073
 20
-158.0
 30
0.0
 11
140.4196439374107
 21
-158.0
 31
0.0
  0
LINE
  5
392
  8
LAYER0002
  6
CONTINUOUS
 62
     4
 10
95.41964393741071
 20
-130.5
 30
0.0
 11
92.41964393741073
 21
-136.5
 31
0.0
  0
LINE
  5
393
  8
LAYER0002
  6
CONTINUOUS
 62
     4
 10
95.41964393741071
 20
-130.5
 30
0.0
 11
98.41964393741071
 21
-136.5
 31
0.0
  0
LINE
  5
394
  8
LAYER0002
  6
CONTINUOUS
 62
     4
 10
92.41964393741073
 20
-136.5
 30
0.0
 11
98.41964393741071
 21
-136.5
 31
0.0
  0
LINE
  5
395
  8
LAYER0002
  6
CONTINUOUS
 62
     4
 10
95.41964393741071
 20
-158.5
 30
0.0
 11
92.41964393741073
 21
-164.5
 31
0.0
  0
LINE
  5
396
  8
LAYER0002
  6
CONTINUOUS
 62
     4
 10
95.41964393741071
 20
-158.5
 30
0.0
 11
98.41964393741071
 21
-164.5
 31
0.0
  0
LINE
  5
397
  8
LAYER0002
  6
CONTINUOUS
 62
     4
 10
92.41964393741073
 20
-164.5
 30
0.0
 11
98.41964393741071
 21
-164.5
 31
0.0
  0
LINE
  5
398
  8
LAYER0002
  6
CONTINUOUS
 62
     4
 10
95.41964393741071
 20
-151.5
 30
0.0
 11
92.41964393741073
 21
-157.5
 31
0.0
  0
LINE
  5
399
  8
LAYER0002
  6
CONTINUOUS
 62
     4
 10
95.41964393741071
 20
-151.5
 30
0.0
 11
98.41964393741071
 21
-157.5
 31
0.0
  0
LINE
  5
39A
  8
LAYER0002
  6
CONTINUOUS
 62
     4
 10
92.41964393741073
 20
-157.5
 30
0.0
 11
98.41964393741071
 21
-157.5
 31
0.0
  0
LINE
  5
39B
  8
LAYER0002
  6
CONTINUOUS
 62
     4
 10
95.41964393741071
 20
-144.5
 30
0.0
 11
92.41964393741073
 21
-150.5
 31
0.0
  0
LINE
  5
39C
  8
LAYER0002
  6
CONTINUOUS
 62
     4
 10
95.41964393741071
 20
-144.5
 30
0.0
 11
98.41964393741071
 21
-150.5
 31
0.0
  0
LINE
  5
39D
  8
LAYER0002
  6
CONTINUOUS
 62
     4
 10
92.41964393741073
 20
-150.5
 30
0.0
 11
98.41964393741071
 21
-150.5
 31
0.0
  0
LINE
  5
39E
  8
LAYER0002
  6
CONTINUOUS
 62
     4
 10
95.41964393741071
 20
-137.5
 30
0.0
 11
92.41964393741073
 21
-143.5
 31
0.0
  0
LINE
  5
39F
  8
LAYER0002
  6
CONTINUOUS
 62
     4
 10
95.41964393741071
 20
-137.5
 30
0.0
 11
98.41964393741071
 21
-143.5
 31
0.0
  0
LINE
  5
3A0
  8
LAYER0002
  6
CONTINUOUS
 62
     4
 10
92.41964393741073
 20
-143.5
 30
0.0
 11
98.41964393741071
 21
-143.5
 31
0.0
  0
LINE
  5
3A1
  8
LAYER0002
  6
CONTINUOUS
 62
     4
 10
167.0863106040773
 20
-176.0
 30
0.0
 11
167.0863106040773
 21
-162.0
 31
0.0
  0
LINE
  5
3A2
  8
LAYER0002
  6
CONTINUOUS
 62
     4
 10
193.752977270744
 20
-176.0
 30
0.0
 11
193.752977270744
 21
-161.9509415757253
 31
0.0
  0
LINE
  5
3A3
  8
LAYER0002
  6
CONTINUOUS
 62
     4
 10
207.0863106040773
 20
-167.5
 30
0.0
 11
207.0863106040773
 21
-161.9509415757253
 31
0.0
  0
LINE
  5
3A4
  8
LAYER0002
  6
CONTINUOUS
 62
     4
 10
220.4196439374107
 20
-155.0
 30
0.0
 11
249.4196439374107
 21
-155.0
 31
0.0
  0
LINE
  5
3A5
  8
LAYER0002
  6
CONTINUOUS
 62
     4
 10
140.4196439374107
 20
-166.0
 30
0.0
 11
220.4196439374107
 21
-166.0
 31
0.0
  0
TEXT
  5
3A6
  8
LAYER0002
 62
     7
 10
100.4196439374108
 20
186.8333333333332
 30
0.0
 40
2.0
  1
特ニ指定ノナイ機械加
 41
0.6944444444444446
  7
FDASTYLE0
 72
     5
 11
117.0863106040775
 21
186.8333333333332
 31
0.0
  0
TEXT
  5
3A7
  8
LAYER0002
 62
     7
 10
100.4196439374108
 20
183.9999999999999
 30
0.0
 40
2.0
  1
工部分ノ寸法ニ対スル
 41
0.6944444444444446
  7
FDASTYLE0
 72
     5
 11
117.0863106040775
 21
183.9999999999999
 31
0.0
  0
TEXT
  5
3A8
  8
LAYER0002
 62
     7
 10
100.9117551746412
 20
181.1666666666666
 30
0.0
 40
2.0
  1
寸法差 (単位mm)
 41
0.8264462809917351
  7
FDASTYLE0
 72
     5
 11
119.0935733564594
 21
181.1666666666666
 31
0.0
  0
TEXT
  5
3A9
  8
LAYER0002
 62
     7
 10
127.1800866161849
 20
187.1111133333332
 30
0.0
 40
2.0
  1
呼ビ寸法
 41
0.7478632478632482
  7
FDASTYLE0
 72
     5
 11
134.3595737956721
 21
187.1111133333332
 31
0.0
  0
TEXT
  5
3AA
  8
LAYER0002
 62
     7
 10
127.5447347433131
 20
184.2222200000003
 30
0.0
 40
2.0
  1
ノ区分
 41
0.767543859649121
  7
FDASTYLE0
 72
     5
 11
133.0710505327868
 21
184.2222200000003
 31
0.0
  0
TEXT
  5
3AB
  8
LAYER0002
 62
     7
 10
127.5446439374108
 20
180.6666733333338
 30
0.0
 40
2.0
  1
寸法差
 41
0.767543859649121
  7
FDASTYLE0
 72
     5
 11
133.0709597268845
 21
180.6666733333338
 31
0.0
  0
TEXT
  5
3AC
  8
LAYER0002
 62
     7
 10
145.4300866161849
 20
187.1111133333336
 30
0.0
 40
2.0
  1
１以上
 41
0.767543859649121
  7
FDASTYLE0
 72
     5
 11
150.9564024056586
 21
187.1111133333336
 31
0.0
  0
TEXT
  5
3AD
  8
LAYER0002
 62
     7
 10
145.7947347433131
 20
184.2222200000006
 30
0.0
 40
2.0
  1
４以下
 41
0.767543859649121
  7
FDASTYLE0
 72
     5
 11
151.3210505327868
 21
184.2222200000006
 31
0.0
  0
TEXT
  5
3AE
  8
LAYER0002
 62
     7
 10
145.7946439374108
 20
180.6666733333341
 30
0.0
 40
2.0
  1
 ±０．１ 
 41
0.8126934984520126
  7
FDASTYLE0
 72
     5
 11
156.8472755163582
 21
180.6666733333341
 31
0.0
  0
TEXT
  5
3AF
  8
LAYER0002
 62
     7
 10
164.0447347433131
 20
184.2222200000006
 30
0.0
 40
2.0
  1
１６以下
 41
0.7478632478632482
  7
FDASTYLE0
 72
     5
 11
171.2242219228003
 21
184.2222200000006
 31
0.0
  0
TEXT
  5
3B0
  8
LAYER0002
 62
     7
 10
163.6800866161849
 20
187.1111133333336
 30
0.0
 40
2.0
  1
 ４ヲコエ
 41
0.8266414737836572
  7
FDASTYLE0
 72
     5
 11
173.2691277120754
 21
187.1111133333336
 31
0.0
  0
TEXT
  5
3B1
  8
LAYER0002
 62
     7
 10
164.0446439374108
 20
180.6666733333341
 30
0.0
 40
2.0
  1
 ±０．２ 
 41
0.8126934984520126
  7
FDASTYLE0
 72
     5
 11
175.0972755163582
 21
180.6666733333341
 31
0.0
  0
TEXT
  5
3B2
  8
LAYER0002
 62
     7
 10
181.9300866161849
 20
187.1111133333336
 30
0.0
 40
2.0
  1
１６ヲコエ
 41
0.7291666666666666
  7
FDASTYLE0
 72
     5
 11
190.6800866161849
 21
187.1111133333336
 31
0.0
  0
TEXT
  5
3B3
  8
LAYER0002
 62
     7
 10
182.2947347433131
 20
184.2222200000006
 30
0.0
 40
2.0
  1
６３以下
 41
0.7478632478632482
  7
FDASTYLE0
 72
     5
 11
189.4742219228003
 21
184.2222200000006
 31
0.0
  0
TEXT
  5
3B4
  8
LAYER0002
 62
     7
 10
182.2946439374108
 20
180.6666733333341
 30
0.0
 40
2.0
  1
 ±０．３ 
 41
0.8126934984520126
  7
FDASTYLE0
 72
     5
 11
193.3472755163582
 21
180.6666733333341
 31
0.0
  0
TEXT
  5
3B5
  8
LAYER0002
 62
     7
 10
200.5447347433131
 20
184.2222200000006
 30
0.0
 40
2.0
  1
２５０以下
 41
0.7291666666666666
  7
FDASTYLE0
 72
     5
 11
209.2947347433131
 21
184.2222200000006
 31
0.0
  0
TEXT
  5
3B6
  8
LAYER0002
 62
     7
 10
200.1800866161849
 20
187.1111133333336
 30
0.0
 40
2.0
  1
 ６３ヲコエ
 41
0.7692307692307695
  7
FDASTYLE0
 72
     5
 11
210.9493173854157
 21
187.1111133333336
 31
0.0
  0
TEXT
  5
3B7
  8
LAYER0002
 62
     7
 10
200.5446439374108
 20
180.6666733333341
 30
0.0
 40
2.0
  1
 ±０．５ 
 41
0.8126934984520126
  7
FDASTYLE0
 72
     5
 11
211.5972755163582
 21
180.6666733333341
 31
0.0
  0
TEXT
  5
3B8
  8
LAYER0002
 62
     7
 10
218.7947347433131
 20
184.2222200000006
 30
0.0
 40
2.0
  1
１０００以下
 41
0.7113821138211387
  7
FDASTYLE0
 72
     5
 11
229.0386371823375
 21
184.2222200000006
 31
0.0
  0
TEXT
  5
3B9
  8
LAYER0002
 62
     7
 10
218.7946439374108
 20
180.6666733333341
 30
0.0
 40
2.0
  1
 ±０．８ 
 41
0.8126934984520126
  7
FDASTYLE0
 72
     5
 11
229.8472755163582
 21
180.6666733333341
 31
0.0
  0
TEXT
  5
3BA
  8
LAYER0002
 62
     7
 10
236.6800866161849
 20
187.1111133333336
 30
0.0
 40
2.0
  1
１０００ヲコエ
 41
0.6944444444444439
  7
FDASTYLE0
 72
     5
 11
248.3467532828516
 21
187.1111133333336
 31
0.0
  0
TEXT
  5
3BB
  8
LAYER0002
 62
     7
 10
237.0447347433131
 20
184.2222200000006
 30
0.0
 40
2.0
  1
２０００以下
 41
0.7113821138211407
  7
FDASTYLE0
 72
     5
 11
247.2886371823375
 21
184.2222200000006
 31
0.0
  0
TEXT
  5
3BC
  8
LAYER0002
 62
     7
 10
218.4300866161849
 20
187.1111133333336
 30
0.0
 40
2.0
  1
 ２５０ヲコエ
 41
0.7287328970850695
  7
FDASTYLE0
 72
     5
 11
230.3813061283801
 21
187.1111133333336
 31
0.0
  0
TEXT
  5
3BD
  8
LAYER0002
 62
     7
 10
254.9300866161849
 20
187.1111133333336
 30
0.0
 40
2.0
  1
２０００ヲ
 41
0.7291666666666643
  7
FDASTYLE0
 72
     5
 11
263.6800866161849
 21
187.1111133333336
 31
0.0
  0
TEXT
  5
3BE
  8
LAYER0002
 62
     7
 10
255.2947347433132
 20
184.2222200000006
 30
0.0
 40
2.0
  1
コエルモノ
 41
0.7291666666666691
  7
FDASTYLE0
 72
     5
 11
264.0447347433133
 21
184.2222200000006
 31
0.0
  0
TEXT
  5
3BF
  8
LAYER0002
 62
     7
 10
237.0446439374108
 20
180.6666733333341
 30
0.0
 40
2.0
  1
 ±１．０ 
 41
0.8126934984520126
  7
FDASTYLE0
 72
     5
 11
248.0972755163582
 21
180.6666733333341
 31
0.0
  0
TEXT
  5
3C0
  8
LAYER0002
 62
     7
 10
255.1505768927513
 20
180.6666733333341
 30
0.0
 40
2.0
  1
 ±２．０ 
 41
0.8126934984520126
  7
FDASTYLE0
 72
     5
 11
266.2032084716987
 21
180.6666733333341
 31
0.0
  0
TEXT
  5
3C2
  8
LAYER0002
 62
     7
 10
141.4134020848854
 20
-130.821188728956
 30
0.0
 40
2.44248928
  1
符号
 41
0.8
  7
FDASTYLE1
  0
TEXT
  5
3C3
  8
LAYER0002
 62
     7
 10
156.8337750593165
 20
-135.8245525019963
 30
0.0
 40
4.0
  1
品       名
 41
0.7333635129017656
  7
FDASTYLE0
 72
     5
 11
184.4082431444229
 21
-135.8245525019963
 31
0.0
  0
TEXT
  5
3C4
  8
LAYER0002
 62
     7
 10
201.6528003787203
 20
-135.8245525019963
 30
0.0
 40
4.0
  1
材  料
 41
0.6611570247933895
  7
FDASTYLE0
 72
     5
 11
213.289164015084
 21
-135.8245525019963
 31
0.0
  0
TEXT
  5
3C5
  8
LAYER0002
 62
     7
 10
223.9357056222657
 20
-135.8245525019963
 30
0.0
 40
4.0
  1
個 数
 41
0.6228373702422144
  7
FDASTYLE0
 72
     5
 11
232.4062938575598
 21
-135.8245525019963
 31
0.0
  0
TEXT
  5
3C6
  8
LAYER0002
 62
     7
 10
240.1414548902987
 20
-133.5649080050572
 30
0.0
 40
2.5
  1
単重量
 41
0.5555555555555556
  7
FDASTYLE0
 72
     5
 11
245.1414548902987
 21
-133.5649080050572
 31
0.0
  0
TEXT
  5
3C7
  8
LAYER0002
 62
     7
 10
239.1285955610466
 20
-137.3631304897525
 30
0.0
 40
2.5
  1
(kg)
 41
0.8
  7
FDASTYLE0
 72
     5
 11
247.1285955610466
 21
-137.3631304897525
 31
0.0
  0
TEXT
  5
3C8
  8
LAYER0002
 62
     7
 10
253.5618410028885
 20
-135.8245525019963
 30
0.0
 40
4.0
  1
記  事
 41
0.6611570247933895
  7
FDASTYLE0
 72
     5
 11
265.1982046392521
 21
-135.8245525019963
 31
0.0
  0
TEXT
  5
3C9
  8
LAYER0002
 62
     7
 10
253.2647233925752
 20
-165.4873041997729
 30
0.0
 40
3.0
  1
コード番号
 41
0.555555555555554
  7
FDASTYLE0
 72
     5
 11
263.2647233925752
 21
-165.4873041997729
 31
0.0
  0
TEXT
  5
3CA
  8
LAYER0002
 62
     7
 10
96.33163595324241
 20
-175.1879010540338
 30
0.0
 40
2.5
  1
訂 正 来 歴
 41
0.64431295200526
  7
FDASTYLE0
 72
     5
 11
108.895738517345
 21
-175.1879010540338
 31
0.0
  0
TEXT
  5
3CB
  8
LAYER0002
 62
     7
 10
120.3099787841757
 20
-175.2166697391651
 30
0.0
 40
2.5
  1
工 事 番 号
 41
0.64431295200526
  7
FDASTYLE0
 72
     5
 11
132.8740813482783
 21
-175.2166697391651
 31
0.0
  0
TEXT
  5
3CC
  8
LAYER0002
 62
     7
 10
93.3536442840136
 20
-165.9634530565915
 30
0.0
 40
1.90819475
  1
記号
 41
0.8
  7
FDASTYLE1
  0
TEXT
  5
3CD
  8
LAYER0002
 62
     7
 10
99.29303134417251
 20
-165.9634530565915
 30
0.0
 40
1.90819475
  1
理由
 41
0.8
  7
FDASTYLE1
  0
TEXT
  5
3CE
  8
LAYER0002
 62
     7
 10
106.039010728395
 20
-169.8786046700178
 30
0.0
 40
3.0
  1
日 付
 41
0.6228373702422138
  7
FDASTYLE0
 72
     5
 11
112.3919519048656
 21
-169.8786046700178
 31
0.0
  0
TEXT
  5
3CF
  8
LAYER0002
 62
     7
 10
147.8678129193759
 20
-165.7187911464244
 30
0.0
 40
3.0
  1
承   認
 41
0.6858710562414269
  7
FDASTYLE0
 72
     5
 11
158.978924030487
 21
-165.7187911464244
 31
0.0
  0
TEXT
  5
3D0
  8
LAYER0002
 62
     7
 10
174.2828719706447
 20
-165.4873041997729
 30
0.0
 40
3.0
  1
検   図
 41
0.6858710562414269
  7
FDASTYLE0
 72
     5
 11
185.3939830817558
 21
-165.4873041997729
 31
0.0
  0
TEXT
  5
3D1
  8
LAYER0002
 62
     7
 10
195.8968360357858
 20
-165.4873041997729
 30
0.0
 40
3.0
  1
担  当
 41
0.6611570247933879
  7
FDASTYLE0
 72
     5
 11
204.6241087630585
 21
-165.4873041997729
 31
0.0
  0
TEXT
  5
3D2
  8
LAYER0002
 62
     7
 10
209.0967014215219
 20
-165.4873041997729
 30
0.0
 40
3.0
  1
製  図
 41
0.6611570247933879
  7
FDASTYLE0
 72
     5
 11
217.8239741487946
 21
-165.4873041997729
 31
0.0
  0
TEXT
  5
3D3
  8
LAYER0002
 62
     7
 10
221.3658811678306
 20
-153.2184960272417
 30
0.0
 40
3.0
  1
作図
 41
0.5555555555555556
  7
FDASTYLE0
 72
     5
 11
225.3658811678306
 21
-153.2184960272417
 31
0.0
  0
TEXT
  5
3D4
  8
LAYER0002
 62
     7
 10
222.5233159010883
 20
-160.2371566401815
 30
0.0
 40
4.0
  1
第 三 角 法
 41
0.6443129520052602
  7
FDASTYLE0
 72
     5
 11
242.6258800036524
 21
-160.2371566401815
 31
0.0
  0
TEXT
  5
3D5
  8
LAYER0002
 62
     7
 10
221.8288550611337
 20
-166.413251986379
 30
0.0
 40
3.0
  1
尺度
 41
0.5555555555555556
  7
FDASTYLE0
 72
     5
 11
225.8288550611337
 21
-166.413251986379
 31
0.0
  0
TEXT
  5
3D7
  8
LAYER0002
 62
     3
 10
99.79879830744471
 20
-185.9272077185017
 30
0.0
 40
7.0
  1
株式会社 野村製作所
 41
0.4314821561072638
  7
FDASTYLE2
 72
     5
 11
140.1449687964105
 21
-185.9272077185017
 31
0.0
  0
TEXT
  5
3D9
  8
LAYER0002
 62
     3
 10
178.0314657308272
 20
-187.1216685584563
 30
0.0
 40
8.0
  1
２－
 41
0.7311772135933162
  7
FDASTYLE3
 72
     5
 11
191.2219026640507
 21
-187.1216685584563
 31
0.0
  0
TEXT
  5
3DA
  8
LAYER0002
 62
     6
 10
194.943423355234
 20
-187.1216685584563
 30
0.0
 40
8.0
  1
9310023
 41
0.7780320000000002
  7
FDASTYLE0
 72
     5
 11
238.513215355234
 21
-187.1216685584563
 31
0.0
  0
TEXT
  5
3DB
  8
LAYER0002
 62
     6
 10
225.5348566381977
 20
-146.1941968197806
 30
0.0
 40
4.0
  1
一式
 41
0.4861111111111102
  7
FDASTYLE0
 72
     5
 11
230.2015233048644
 21
-146.1941968197806
 31
0.0
  0
TEXT
  5
3DC
  8
LAYER0002
 62
     6
 10
157.2933264888894
 20
-145.3589000228561
 30
0.0
 40
5.0
  1
外　形　図
 41
0.4861111111111114
  7
FDASTYLE0
 72
     5
 11
171.8766598222228
 21
-145.3589000228561
 31
0.0
  0
TEXT
  5
3DD
  8
LAYER0002
 62
     4
 10
233.7208228280506
 20
-172.297487439201
 30
0.0
 40
3.0
  1
1/1
 41
0.7000000000000013
  7
FDASTYLE0
 72
     5
 11
240.0208228280506
 21
-172.297487439201
 31
0.0
  0
TEXT
  5
3DE
  8
0
 62
     6
 10
143.3519868011261
 20
-154.3580193026319
 30
0.0
 40
5.0
  1
日鋼プレシジォン
 41
0.5555555555555554
  7
FDASTYLE0
 72
     5
 11
170.0186534677928
 21
-154.3580193026319
 31
0.0
  0
TEXT
  5
3DF
  8
0
 62
     6
 10
152.1467157749806
 20
-160.926795036144
 30
0.0
 40
5.0
  1
MO3-10型 チャック
 41
0.6816568047337276
  7
FDASTYLE0
 72
     5
 11
196.4544080826729
 21
-160.926795036144
 31
0.0
  0
TEXT
  5
3E0
  8
0
 62
     6
 10
-68.17695925604849
 20
-125.0429122447968
 30
0.0
 40
3.599999904632568
  1
仕  様
 41
0.8143452148062848
  7
FDASTYLE0
 72
     5
 11
-55.27773139522979
 21
-125.0429122447968
 31
0.0
  0
TEXT
  5
3E1
  8
0
 62
     6
 10
14.29247522879095
 20
-131.245706140995
 30
0.0
 40
2.699999928474426
  1
（直径ﾆﾃ）
 41
0.7791039992312284
  7
FDASTYLE0
 72
     5
 11
28.59682427574045
 21
-131.245706140995
 31
0.0
  0
TEXT
  5
3E2
  8
0
 62
     6
 10
-68.20854256522208
 20
-138.348507642746
 30
0.0
 40
3.599999904632568
  1
ピｽﾄﾝｽﾄﾛ-ｸ　　   　　　　　　              30 mm
 41
0.8859250758774375
  7
FDASTYLE0
 72
     5
 11
61.91612913252925
 21
-138.348507642746
 31
0.0
  0
TEXT
  5
3E3
  8
0
 62
     6
 10
-68.1454250611022
 20
-145.1314718758762
 30
0.0
 40
3.599999904632568
  1
許容ｼﾘﾝダ力 
 41
0.7783849477188664
  7
FDASTYLE0
 72
     5
 11
-43.48619057061517
 21
-145.1314718758762
 31
0.0
  0
TEXT
  5
3E4
  8
0
 62
     6
 10
36.07394768822641
 20
-145.1314718758762
 30
0.0
 40
3.599999904632568
  1
 33.4 ｋN
 41
0.8841529204041366
  7
FDASTYLE0
 72
     5
 11
62.1741412071375
 21
-145.1314718758762
 31
0.0
  0
TEXT
  5
3E5
  8
0
 62
     6
 10
-68.20854256522208
 20
-151.7842733895481
 30
0.0
 40
3.599999904632568
  1
最大静的把握力 　  　　　　　　　　              66.7 ｋN
 41
0.8263958720032356
  7
FDASTYLE0
 72
     5
 11
60.9075450561551
 21
-151.7842733895481
 31
0.0
  0
TEXT
  5
3E6
  8
0
 62
     6
 10
-68.15765056979208
 20
-158.437059644431
 30
0.0
 40
3.599999904632568
  1
最高使用回転速度 　　　　　　　　　　　             2500 min
 41
0.8015829716940571
  7
FDASTYLE0
 72
     5
 11
61.12164768029348
 21
-158.437059644431
 31
0.0
  0
TEXT
  5
3E7
  8
0
 62
     6
 10
-68.18268893134146
 20
-165.0898611581029
 30
0.0
 40
3.599999904632568
  1
慣性モーメント  　　 　　　　　　　　            0.35 ｋg・m
 41
0.8068144145820482
  7
FDASTYLE0
 72
     5
 11
61.94033640536816
 21
-165.0898611581029
 31
0.0
  0
TEXT
  5
3E8
  8
0
 62
     6
 10
62.71035428757255
 20
-162.427671717429
 30
0.0
 40
1.799999952316284
  1
2
 41
0.8823044666264938
  7
FDASTYLE0
 72
     5
 11
64.29850228542868
 21
-162.427671717429
 31
0.0
  0
TEXT
  5
3E9
  8
0
 62
     6
 10
-68.20854256522208
 20
-178.3954641854465
 30
0.0
 40
3.599999904632568
  1
ｱﾝバﾗﾝｽ量              
 41
0.9043987242105473
  7
FDASTYLE0
 72
     5
 11
1.466333302204546
 21
-178.3954641854465
 31
0.0
  0
TEXT
  5
3EA
  8
0
 62
     6
 10
26.53331439722032
 20
-177.9454641973675
 30
0.0
 40
2.699999928474426
  1
外周ﾆﾃ
 41
0.8283203048986362
  7
FDASTYLE0
 72
     5
 11
36.37375935873335
 21
-177.9454641973675
 31
0.0
  0
TEXT
  5
3EB
  8
0
 62
     6
 10
40.25232245552988
 20
-178.3954641854465
 30
0.0
 40
3.599999904632568
  1
  6g 以内
 41
0.8672663918961424
  7
FDASTYLE0
 72
     5
 11
63.35629852359674
 21
-178.3954641854465
 31
0.0
  0
TEXT
  5
3EC
  8
0
 62
     6
 10
-68.20854256522208
 20
-171.7426626717747
 30
0.0
 40
3.599999904632568
  1
質 量                      　　　　　　　　 32 ｋg
 41
0.8689686606115008
  7
FDASTYLE0
 72
     5
 11
60.67688576237777
 21
-171.7426626717747
 31
0.0
  0
TEXT
  5
3ED
  8
0
 62
     6
 10
13.04393058592093
 20
-171.3572356141794
 30
0.0
 40
3.200000047683716
  1
チャック単体
 41
0.5519135029052212
  7
FDASTYLE0
 72
     5
 11
25.76001788234169
 21
-171.3572356141794
 31
0.0
  0
TEXT
  5
3EE
  8
0
 62
     6
 10
-68.23525188338309
 20
-131.6957061290741
 30
0.0
 40
3.599999904632568
  1
爪ノｽﾄﾛ-ｸ           
 41
0.9125302905674508
  7
FDASTYLE0
 72
     5
 11
-7.789247037467483
 21
-131.6957061290741
 31
0.0
  0
TEXT
  5
3EF
  8
0
 62
     6
 10
35.12949558127374
 20
-131.6957061290741
 30
0.0
 40
3.599999904632568
  1
   20 mm
 41
0.9329097023343554
  7
FDASTYLE0
 72
     5
 11
61.99729429674956
 21
-131.6957061290741
 31
0.0
  0
TEXT
  5
3F0
  8
0
 62
     6
 10
61.93622728741691
 20
-155.7396328187431
 30
0.0
 40
1.799999952316284
  1
-1
 41
0.8878690191782316
  7
FDASTYLE0
 72
     5
 11
65.13255567178476
 21
-155.7396328187431
 31
0.0
  0
TEXT
  5
3F1
  8
0
 62
     7
 10
251.4140411276137
 20
-142.7641187278597
 30
0.0
 40
3.200000047683716
  1
標 準
 41
0.6497949343786904
  7
FDASTYLE0
 72
     5
 11
258.4838101190017
 21
-142.7641187278597
 31
0.0
  0
TEXT
  5
3F2
  8
0
 62
     7
 10
-50.43797431361227
 20
43.57763519287109
 30
0.0
 40
4.0
  1
MIN 54
 50
90.0
 41
0.8000000000000002
  7
FDASTYLE0
 72
     5
 11
-50.43797431361227
 21
62.7776351928711
 31
0.0
  0
TEXT
  5
3F3
  8
0
 62
     7
 10
-184.2426270557392
 20
-133.826042008625
 30
0.0
 40
4.0
  1
MIN 29
 41
0.8000000000000007
  7
FDASTYLE0
 72
     5
 11
-165.0426270557392
 21
-133.826042008625
 31
0.0
  0
LINE
  5
3F4
  8
0
  6
CENTER
 62
     7
 10
-204.6668037787085
 20
23.64306640625
 30
0.0
 11
-96.17307320383408
 21
23.64306640625
 31
0.0
  0
LINE
  5
3F5
  8
0
  6
CENTER
 62
     7
 10
-126.6961339510635
 20
-36.35693359375
 30
0.0
 11
-93.65038047205954
 21
-36.35693359375
 31
0.0
  0
LINE
  5
3F6
  8
0
  6
CENTER
 62
     7
 10
-2.499077405397458
 20
-43.14984292153554
 30
0.0
 11
113.1896580496479
 21
23.64307225623179
 31
0.0
  0
LINE
  5
3F7
  8
0
  6
CENTER
 62
     7
 10
53.96042785159952
 20
57.83908656162845
 30
0.0
 11
69.43929641556187
 21
48.90235861682095
 31
0.0
  0
LINE
  5
3F8
  8
0
  6
CENTER
 62
     7
 10
165.0357242538582
 20
37.53517537909886
 30
0.0
 11
190.1497953846107
 21
44.26446973878285
 31
0.0
  0
LINE
  5
3F9
  8
0
  6
CENTER
 62
     7
 10
36.22951042594761
 20
44.26446183049416
 30
0.0
 11
61.34357787198562
 21
37.53516845812635
 31
0.0
  0
LINE
  5
3FA
  8
0
  6
CENTER
 62
     7
 10
56.85094696636188
 20
79.98182705130353
 30
0.0
 11
75.23572586099007
 21
61.59704970639621
 31
0.0
  0
LINE
  5
3FB
  8
0
  6
CENTER
 62
     7
 10
151.1436353939249
 20
61.59702175076654
 30
0.0
 11
169.5284021502599
 21
79.9817869573817
 31
0.0
  0
LINE
  5
3FC
  8
0
  6
CENTER
 62
     7
 10
92.05061258824506
 20
-55.24892407642165
 30
0.0
 11
99.81518411262441
 21
-26.27115222802533
 31
0.0
  0
LINE
  5
3FD
  8
0
  6
CENTER
 62
     7
 10
126.5641314984527
 20
-26.2711524208662
 30
0.0
 11
134.3287027142956
 21
-55.24892311778922
 31
0.0
  0
LINE
  5
3FE
  8
0
  6
CENTER
 62
     7
 10
-124.6236241854385
 20
126.64306640625
 30
0.0
 11
-69.82362113368063
 21
126.64306640625
 31
0.0
  0
LINE
  5
3FF
  8
0
  6
CENTER
 62
     7
 10
-124.6236241854385
 20
96.64306640625
 30
0.0
 11
-70.02362571131735
 21
96.64306640625
 31
0.0
  0
LINE
  5
400
  8
0
  6
CENTER
 62
     7
 10
25.56709160435648
 20
116.14306640625
 30
0.0
 11
78.36709847081156
 21
116.14306640625
 31
0.0
  0
LINE
  5
401
  8
0
  6
CENTER
 62
     7
 10
99.01420845616312
 20
96.64306640625
 30
0.0
 11
127.8215052090928
 21
96.64306640625
 31
0.0
  0
LINE
  5
402
  8
0
  6
CENTER
 62
     7
 10
169.5377277111939
 20
-24.75926246677864
 30
0.0
 11
183.2062207041305
 21
-1.084741387252052
 31
0.0
  0
LINE
  5
403
  8
0
  6
CENTER
 62
     7
 10
43.3671045544439
 20
-1.420706678002716
 30
0.0
 11
56.68684453034197
 21
-24.49116989557683
 31
0.0
  0
LINE
  5
404
  8
0
  6
CENTER
 62
     7
 10
99.01420845616312
 20
126.64306640625
 30
0.0
 11
127.8215052090928
 21
126.64306640625
 31
0.0
  0
LINE
  5
405
  8
0
  6
CENTER
 62
     7
 10
17.38634125540713
 20
-16.42070941981649
 30
0.0
 11
30.70608313865406
 21
-39.49117594101529
 31
0.0
  0
LINE
  5
406
  8
0
  6
CENTER
 62
     7
 10
-217.5912776790818
 20
-43.03193664550781
 30
0.0
 11
-161.6524175203994
 21
-43.03193664550781
 31
0.0
  0
LINE
  5
407
  8
0
  6
CENTER
 62
     7
 10
157.0788699595225
 20
48.98251776736743
 30
0.0
 11
225.1314723722874
 21
88.27270174857628
 31
0.0
  0
ARC
  5
408
  8
0
  6
CENTER
 62
     7
 10
113.1896692715928
 20
23.64306640625
 30
0.0
 40
66.67500305175781
 50
3.81094588231728
 51
25.92896391023563
  0
ARC
  5
409
  8
0
  6
CENTER
 62
     7
 10
113.1896692715928
 20
23.64306640625
 30
0.0
 40
60.0
 50
23.05597460946399
 51
36.92508865316697
  0
ARC
  5
40A
  8
0
  6
CENTER
 62
     7
 10
113.1896692715928
 20
23.64306640625
 30
0.0
 40
66.67500305175781
 50
33.81094927846429
 51
56.18905664110847
  0
ARC
  5
40B
  8
0
  6
CENTER
 62
     7
 10
113.1896692715928
 20
23.64306640625
 30
0.0
 40
66.67500305175781
 50
123.8109620282262
 51
146.1890796361542
  0
ARC
  5
40C
  8
0
  6
CENTER
 62
     7
 10
113.1896692715928
 20
23.64306640625
 30
0.0
 40
66.67500305175781
 50
153.8109696932414
 51
176.189073640791
  0
ARC
  5
40D
  8
0
  6
CENTER
 62
     7
 10
113.1896692715928
 20
23.64306640625
 30
0.0
 40
66.67500305175781
 50
242.0826989235511
 51
267.9172610817207
  0
ARC
  5
40E
  8
0
  6
CENTER
 62
     7
 10
113.1896692715928
 20
23.64306640625
 30
0.0
 40
66.67500305175781
 50
272.0827270791338
 51
297.9172824071142
  0
ARC
  5
40F
  8
0
  6
CENTER
 62
     7
 10
113.1896692715928
 20
23.64306640625
 30
0.0
 40
60.0
 50
143.1775809292038
 51
156.862493308728
  0
ARC
  5
410
  8
0
  6
CENTER
 62
     7
 10
113.1896692715928
 20
23.64306640625
 30
0.0
 40
60.0
 50
263.5068371799142
 51
277.2043854094029
  0
LINE
  5
411
  8
0
  6
CENTER
 62
     7
 10
-23.14072165858298
 20
23.64306640625
 30
0.0
 11
250.1453882657334
 21
23.64306640625
 31
0.0
  0
LINE
  5
412
  8
0
  6
CENTER
 62
     7
 10
195.5184949435216
 20
-39.75928509881214
 30
0.0
 11
209.1869917511559
 21
-16.0847574120362
 31
0.0
  0
LINE
  5
413
  8
0
  6
CENTER
 62
     7
 10
113.189663577809
 20
23.64307514924713
 30
0.0
 11
228.725963172356
 21
-43.06183115315071
 31
0.0
  0
LINE
  5
414
  8
0
  6
CENTER
 62
     7
 10
-138.3905767000869
 20
63.14306640624999
 30
0.0
 11
-120.6497777498916
 21
63.14306640624999
 31
0.0
  0
LINE
  5
415
  8
0
  6
CENTER
 62
     7
 10
73.6895966790116
 20
29.30908203125
 30
0.0
 11
73.6895966790116
 21
17.64306640625
 31
0.0
  0
LINE
  5
416
  8
0
  6
CENTER
 62
     7
 10
109.0482011101639
 20
63.14306640624999
 30
0.0
 11
117.7273382625623
 21
63.14306640624999
 31
0.0
  0
LINE
  5
417
  8
0
  6
CENTER
 62
     7
 10
152.6895966790116
 20
28.96433067321777
 30
0.0
 11
152.6895966790116
 21
17.64306640625
 31
0.0
  0
LINE
  5
418
  8
0
  6
CENTER
 62
     7
 10
149.468374770175
 20
7.479664549548851
 30
0.0
 11
145.1288061939758
 21
-0.0366887073574915
 31
0.0
  0
LINE
  5
419
  8
0
  6
CENTER
 62
     7
 10
81.05236787120441
 20
0.3064682629511637
 30
0.0
 11
76.71279929500521
 21
7.822821519857534
 31
0.0
  0
LINE
  5
41A
  8
0
  6
CENTER
 62
     7
 10
113.1896692715928
 20
154.9705047607422
 30
0.0
 11
113.1896692715928
 21
44.82528464860619
 31
0.0
  0
LINE
  5
41B
  8
0
  6
CENTER
 62
     7
 10
113.1896692715928
 20
35.81075775422065
 30
0.0
 11
113.1896692715928
 21
-111.4365768432617
 31
0.0
  0
LINE
  5
41C
  8
0
  6
CENTER
 62
     7
 10
-148.8507360018447
 20
-70.98207434536523
 30
0.0
 11
-148.8507360018447
 21
-106.1362862722509
 31
0.0
  0
LINE
  5
41D
  8
0
  6
CONTINUOUS
 62
     7
 10
-110.3724597212538
 20
72.64306469822452
 30
0.0
 11
-109.3724586596643
 21
71.64306363663502
 31
0.0
  0
LINE
  5
41E
  8
0
  6
CONTINUOUS
 62
     7
 10
-100.0507405794814
 20
83.64306640625
 30
0.0
 11
-67.47365699183493
 21
83.64306640625
 31
0.0
  0
LINE
  5
41F
  8
0
  6
DASHED2
 62
     7
 10
50.68966164219827
 20
131.896240234375
 30
0.0
 11
50.68966164219827
 21
104.14306640625
 31
0.0
  0
LINE
  5
420
  8
0
  6
DASHED2
 62
     7
 10
17.56146874058695
 20
104.14306640625
 30
0.0
 11
50.68965401280374
 21
104.14306640625
 31
0.0
  0
LINE
  5
421
  8
0
  6
DASHED2
 62
     7
 10
50.68965401280374
 20
125.14306640625
 30
0.0
 11
75.48598732579202
 21
125.14306640625
 31
0.0
  0
LINE
  5
422
  8
0
  6
DASHED2
 62
     7
 10
50.68965401280374
 20
107.14306640625
 30
0.0
 11
70.96535744297952
 21
107.14306640625
 31
0.0
  0
LINE
  5
423
  8
0
  6
DASHED2
 62
     7
 10
38.68965782750101
 20
118.5430679321289
 30
0.0
 11
38.68965782750101
 21
113.7430648803711
 31
0.0
  0
LINE
  5
424
  8
0
  6
DASHED2
 62
     7
 10
41.38965859044046
 20
119.4430694580078
 30
0.0
 11
41.38965859044046
 21
112.8430633544922
 31
0.0
  0
LINE
  5
425
  8
0
  6
DASHED2
 62
     7
 10
47.12840523350687
 20
110.4430694580078
 30
0.0
 11
50.25090279210062
 21
110.4430694580078
 31
0.0
  0
LINE
  5
426
  8
0
  6
DASHED2
 62
     7
 10
47.12840523350687
 20
121.8430633544922
 30
0.0
 11
50.25090279210062
 21
121.8430633544922
 31
0.0
  0
LINE
  5
427
  8
0
  6
DASHED2
 62
     7
 10
41.38964386035124
 20
112.8430239906483
 30
0.0
 11
38.68964344428147
 21
113.7430240162463
 31
0.0
  0
LINE
  5
428
  8
0
  6
DASHED2
 62
     7
 10
41.38967252107349
 20
119.443037703235
 30
0.0
 11
38.68966848606405
 21
118.5430364713238
 31
0.0
  0
LINE
  5
429
  8
0
  6
DASHED2
 62
     7
 10
42.38965859044046
 20
118.8883972167969
 30
0.0
 11
42.38965859044046
 21
113.3475875854492
 31
0.0
  0
LINE
  5
42A
  8
0
  6
DASHED2
 62
     7
 10
46.68966164219827
 20
120.5930633544922
 30
0.0
 11
46.68966164219827
 21
111.6930694580078
 31
0.0
  0
LINE
  5
42B
  8
0
  6
DASHED2
 62
     7
 10
47.43355049717874
 20
119.0367279052734
 30
0.0
 11
49.9457727872178
 21
119.0367279052734
 31
0.0
  0
LINE
  5
42C
  8
0
  6
DASHED2
 62
     7
 10
47.43355049717874
 20
113.2494049072266
 30
0.0
 11
49.9457727872178
 21
113.2494049072266
 31
0.0
  0
ARC
  5
42D
  8
0
  6
DASHED2
 62
     7
 10
41.38965859044046
 20
116.14306640625
 30
0.0
 40
3.299999952316284
 50
73.48282241201397
 51
89.99998201391068
  0
ARC
  5
42E
  8
0
  6
DASHED2
 62
     7
 10
41.38965859044046
 20
116.14306640625
 30
0.0
 40
3.299999952316284
 50
270.0000179860894
 51
286.5171775879861
  0
ARC
  5
42F
  8
0
  6
DASHED2
 62
     7
 10
48.68966164219827
 20
120.5930633544922
 30
0.0
 40
2.0
 50
0.0
 51
38.68218896809866
  0
ARC
  5
430
  8
0
  6
DASHED2
 62
     7
 10
48.68966164219827
 20
111.6930694580078
 30
0.0
 40
2.0
 50
0.0
 51
51.09316519948326
  0
ARC
  5
431
  8
0
  6
DASHED2
 62
     7
 10
44.68966164219827
 20
116.14306640625
 30
0.0
 40
6.0
 50
0.0
 51
28.83423780766658
  0
ARC
  5
432
  8
0
  6
DASHED2
 62
     7
 10
52.68966164219827
 20
116.14306640625
 30
0.0
 40
6.0
 50
151.1657740314788
 51
208.8342086656771
  0
ARC
  5
433
  8
0
  6
DASHED2
 62
     7
 10
44.68966164219827
 20
116.14306640625
 30
0.0
 40
6.0
 50
331.1657621923334
 51
360.0
  0
ARC
  5
434
  8
0
  6
DASHED2
 62
     7
 10
48.68966164219827
 20
120.5930633544922
 30
0.0
 40
2.0
 50
308.9068348005167
 51
360.0
  0
ARC
  5
435
  8
0
  6
DASHED2
 62
     7
 10
48.68966164219827
 20
120.5930633544922
 30
0.0
 40
2.0
 50
141.3178297012362
 51
231.0931121518319
  0
ARC
  5
436
  8
0
  6
DASHED2
 62
     7
 10
48.68966164219827
 20
111.6930694580078
 30
0.0
 40
2.0
 50
128.9068568849459
 51
218.6821529959199
  0
ARC
  5
437
  8
0
  6
DASHED2
 62
     7
 10
48.68966164219827
 20
111.6930694580078
 30
0.0
 40
2.0
 50
321.3178110319012
 51
360.0
  0
ARC
  5
438
  8
0
  6
DASHED2
 62
     7
 10
42.72285713780374
 20
124.9430694580078
 30
0.0
 40
5.650000095367432
 50
265.9910930942637
 51
315.0592540539054
  0
ARC
  5
439
  8
0
  6
DASHED2
 62
     7
 10
42.72285713780374
 20
107.3430633544922
 30
0.0
 40
5.650000095367432
 50
44.94074594609464
 51
94.00890690573625
  0
ARC
  5
43A
  8
0
  6
DASHED2
 62
     7
 10
39.38965859044046
 20
116.14306640625
 30
0.0
 40
1.5
 50
117.818154050457
 51
242.1818423070773
  0
LINE
  5
43B
  8
0
  6
DASHED2
 62
     7
 10
-144.5507360018446
 20
-76.30541952338068
 30
0.0
 11
-148.8507360018446
 21
-73.82281336586527
 31
0.0
  0
LINE
  5
43C
  8
0
  6
DASHED2
 62
     7
 10
-143.8507360018447
 20
-81.30541952338064
 30
0.0
 11
-143.8507360018447
 21
-101.3054195233806
 31
0.0
  0
LINE
  5
43D
  8
0
  6
DASHED2
 62
     7
 10
-153.8507360018447
 20
-81.30541952338064
 30
0.0
 11
-143.8507360018447
 21
-81.30541952338064
 31
0.0
  0
LINE
  5
43E
  8
0
  6
DASHED2
 62
     7
 10
-153.1507360018447
 20
-76.30541952338064
 30
0.0
 11
-144.5507360018447
 21
-76.30541952338064
 31
0.0
  0
LINE
  5
43F
  8
0
  6
DASHED2
 62
     7
 10
-144.5507360018447
 20
-76.30541952338064
 30
0.0
 11
-144.5507360018447
 21
-101.3054195233806
 31
0.0
  0
LINE
  5
440
  8
0
  6
DASHED2
 62
     7
 10
-153.1507360018448
 20
-76.30541952338068
 30
0.0
 11
-148.8507360018448
 21
-73.82281336586527
 31
0.0
  0
LINE
  5
441
  8
0
  6
DASHED2
 62
     7
 10
-153.8507360018447
 20
-81.30541952338064
 30
0.0
 11
-153.8507360018447
 21
-101.3054195233806
 31
0.0
  0
LINE
  5
442
  8
0
  6
DASHED2
 62
     7
 10
-153.1507360018447
 20
-76.30541952338064
 30
0.0
 11
-153.1507360018447
 21
-101.3054195233806
 31
0.0
  0
LINE
  5
443
  8
0
  6
DASHED2
 62
     7
 10
201.5777175436753
 20
80.44744787641423
 30
0.0
 11
218.898225619364
 21
90.44744787641423
 31
0.0
  0
LINE
  5
444
  8
0
  6
DASHED2
 62
     7
 10
197.5975905247531
 20
77.34123009376515
 30
0.0
 11
219.248225619364
 21
89.84123009376513
 31
0.0
  0
LINE
  5
445
  8
0
  6
DASHED2
 62
     7
 10
206.5777175436753
 20
71.78719383856983
 30
0.0
 11
223.898225619364
 21
81.78719383856983
 31
0.0
  0
LINE
  5
446
  8
0
  6
DASHED2
 62
     7
 10
201.8975905247531
 20
69.89341162121895
 30
0.0
 11
223.548225619364
 21
82.39341162121895
 31
0.0
  0
LINE
  5
447
  8
0
  6
DASHED2
 62
     7
 10
201.8975905247532
 20
69.89341162121887
 30
0.0
 11
197.5975905247531
 21
72.37601777873428
 31
0.0
  0
LINE
  5
448
  8
0
  6
DASHED2
 62
     7
 10
201.8975905247531
 20
69.89341162121895
 30
0.0
 11
197.5975905247531
 21
77.34123009376515
 31
0.0
  0
LINE
  5
449
  8
0
  6
DASHED2
 62
     7
 10
197.597590524753
 20
77.34123009376523
 30
0.0
 11
197.5975905247531
 21
72.37601777873442
 31
0.0
  0
LINE
  5
44A
  8
0
  6
DASHED2
 62
     7
 10
206.5777175436753
 20
71.78719383856983
 30
0.0
 11
201.5777175436753
 21
80.44744787641423
 31
0.0
  0
LINE
  5
44B
  8
0
  6
CONTINUOUS
 62
     3
 10
-100.5507482088759
 20
146.64306640625
 30
0.0
 11
-100.5507482088759
 21
139.64306640625
 31
0.0
  0
LINE
  5
44C
  8
0
  6
CONTINUOUS
 62
     3
 10
-200.550748208876
 20
148.64306640625
 30
0.0
 11
-200.550748208876
 21
-88.85693359375
 31
0.0
  0
LINE
  5
44D
  8
0
  6
CONTINUOUS
 62
     3
 10
-200.550748208876
 20
-101.35693359375
 30
0.0
 11
-102.5507482088759
 21
-101.35693359375
 31
0.0
  0
LINE
  5
44E
  8
0
  6
CONTINUOUS
 62
     3
 10
-200.550748208876
 20
148.64306640625
 30
0.0
 11
-174.550748208876
 21
148.64306640625
 31
0.0
  0
LINE
  5
44F
  8
0
  6
CONTINUOUS
 62
     3
 10
-101.5507414483417
 20
147.6430431650024
 30
0.0
 11
-100.5507511763452
 21
146.6430528930059
 31
0.0
  0
LINE
  5
450
  8
0
  6
CONTINUOUS
 62
     3
 10
-100.5507356663053
 20
-99.3569216594463
 30
0.0
 11
-102.5507485790773
 21
-101.3569345722183
 31
0.0
  0
LINE
  5
451
  8
0
  6
CONTINUOUS
 62
     3
 10
-196.3507360018447
 20
131.14306640625
 30
0.0
 11
-196.3507360018447
 21
-83.85693359375
 31
0.0
  0
LINE
  5
452
  8
0
  6
CONTINUOUS
 62
     3
 10
-195.8507360018447
 20
136.14306640625
 30
0.0
 11
-195.8507360018447
 21
131.14306640625
 31
0.0
  0
LINE
  5
453
  8
0
  6
CONTINUOUS
 62
     3
 10
-200.550748208876
 20
-88.85693359375
 30
0.0
 11
-195.8507512606338
 21
-88.85693359375
 31
0.0
  0
LINE
  5
454
  8
0
  6
CONTINUOUS
 62
     3
 10
-200.550748208876
 20
136.14306640625
 30
0.0
 11
-195.8507512606338
 21
136.14306640625
 31
0.0
  0
LINE
  5
455
  8
0
  6
CONTINUOUS
 62
     3
 10
-196.3507512606338
 20
-83.85693359375
 30
0.0
 11
-195.8507512606338
 21
-83.85693359375
 31
0.0
  0
LINE
  5
456
  8
0
  6
CONTINUOUS
 62
     3
 10
-196.3507512606338
 20
131.14306640625
 30
0.0
 11
-195.8507512606338
 21
131.14306640625
 31
0.0
  0
LINE
  5
457
  8
0
  6
CONTINUOUS
 62
     3
 10
-103.0507482088759
 20
-28.85693359375
 30
0.0
 11
-100.5507482088759
 21
-28.85693359375
 31
0.0
  0
LINE
  5
458
  8
0
  6
CONTINUOUS
 62
     3
 10
-103.0507482088759
 20
71.07723236083984
 30
0.0
 11
-103.0507482088759
 21
-28.85693168640137
 31
0.0
  0
LINE
  5
459
  8
0
  6
CONTINUOUS
 62
     3
 10
-195.8507360018447
 20
-83.85693359375
 30
0.0
 11
-195.8507360018447
 21
-88.85693359375
 31
0.0
  0
LINE
  5
45A
  8
0
  6
CONTINUOUS
 62
     3
 10
-120.550748208876
 20
-33.10693359375
 30
0.0
 11
-120.550748208876
 21
-39.60693359375
 31
0.0
  0
LINE
  5
45B
  8
0
  6
CONTINUOUS
 62
     3
 10
-120.550748208876
 20
-33.10693359375
 30
0.0
 11
-100.5507482088759
 21
-33.10693359375
 31
0.0
  0
LINE
  5
45C
  8
0
  6
CONTINUOUS
 62
     3
 10
-120.550748208876
 20
-39.60693359375
 30
0.0
 11
-100.5507482088759
 21
-39.60693359375
 31
0.0
  0
LINE
  5
45D
  8
0
  6
CONTINUOUS
 62
     3
 10
-122.4271464544944
 20
-36.35693591942709
 30
0.0
 11
-120.5507576810068
 21
-33.10693567475664
 31
0.0
  0
LINE
  5
45E
  8
0
  6
CONTINUOUS
 62
     3
 10
-122.4271557287487
 20
-36.35693943045988
 30
0.0
 11
-120.550766955261
 21
-39.60693967513032
 31
0.0
  0
LINE
  5
45F
  8
0
  6
CONTINUOUS
 62
     3
 10
-6.313517636080917
 20
-19.37135818630654
 30
0.0
 11
16.18648695347696
 21
-58.34250396076786
 31
0.0
  0
LINE
  5
460
  8
0
  6
CONTINUOUS
 62
     3
 10
16.18648666294311
 20
-58.34250388327125
 30
0.0
 11
86.7426798243076
 21
-17.60687126911375
 31
0.0
  0
LINE
  5
461
  8
0
  6
CONTINUOUS
 62
     3
 10
-6.313516951389744
 20
-19.37136159124837
 30
0.0
 11
64.24268116541211
 21
21.3642738839319
 31
0.0
  0
LINE
  5
462
  8
0
  6
CONTINUOUS
 62
     3
 10
22.71351636359472
 20
-66.1211272783346
 30
0.0
 11
24.90945008673017
 21
-64.85330449223127
 31
0.0
  0
LINE
  5
463
  8
0
  6
CONTINUOUS
 62
     3
 10
-9.786482303859486
 20
-9.829470213823953
 30
0.0
 11
-7.590545277099125
 21
-8.561645520372117
 31
0.0
  0
LINE
  5
464
  8
0
  6
CONTINUOUS
 62
     3
 10
16.18648658846891
 20
-58.34249005853962
 30
0.0
 11
22.71351609270968
 21
-66.1210999505247
 31
0.0
  0
LINE
  5
465
  8
0
  6
CONTINUOUS
 62
     3
 10
-9.786481564452743
 20
-9.829467386282516
 30
0.0
 11
-6.313518473488784
 21
-19.3713547156261
 31
0.0
  0
LINE
  5
466
  8
0
  6
CONTINUOUS
 62
     3
 10
153.0351770818844
 20
-25.34248659599234
 30
0.0
 11
159.285170197547
 21
-14.51718245748089
 31
0.0
  0
LINE
  5
467
  8
0
  6
CONTINUOUS
 62
     3
 10
50.84416392657258
 20
13.62865358117824
 30
0.0
 11
57.09416848632836
 21
2.803329620918703
 31
0.0
  0
LINE
  5
468
  8
0
  6
CONTINUOUS
 62
     3
 10
9.936485639195752
 20
-47.51719099617644
 30
0.0
 11
67.0941639581367
 21
-14.51719367838541
 31
0.0
  0
LINE
  5
469
  8
0
  6
CONTINUOUS
 62
     3
 10
-0.0635181498250006
 20
-30.19668016615374
 30
0.0
 11
57.09416264683463
 21
2.803318582148677
 31
0.0
  0
LINE
  5
46A
  8
0
  6
CONTINUOUS
 62
     3
 10
152.3469322417646
 20
-14.26416402366431
 30
0.0
 11
157.6601653955718
 21
-17.33176027636819
 31
0.0
  0
LINE
  5
46B
  8
0
  6
CONTINUOUS
 62
     3
 10
165.5969390813971
 20
8.685523558739988
 30
0.0
 11
170.9101722352044
 21
5.617927306036108
 31
0.0
  0
LINE
  5
46C
  8
0
  6
CONTINUOUS
 62
     3
 10
55.46916274369218
 20
5.617901287646419
 30
0.0
 11
60.78239589749941
 21
8.685497540350298
 31
0.0
  0
LINE
  5
46D
  8
0
  6
CONTINUOUS
 62
     3
 10
68.71916576862768
 20
-17.33177968750806
 30
0.0
 11
74.03239231518509
 21
-14.26418724950122
 31
0.0
  0
LINE
  5
46E
  8
0
  6
CONTINUOUS
 62
     3
 10
67.09416967842125
 20
-14.51717814389758
 30
0.0
 11
73.34416660878159
 21
-25.3424888896584
 31
0.0
  0
LINE
  5
46F
  8
0
  6
CONTINUOUS
 62
     3
 10
169.2851713896399
 20
2.803325307335399
 30
0.0
 11
175.5351797640934
 21
13.6286558748443
 31
0.0
  0
LINE
  5
470
  8
0
  6
CONTINUOUS
 62
     3
 10
-103.0507482088759
 20
71.07723236083984
 30
0.0
 11
-100.5507482088759
 21
71.07723236083984
 31
0.0
  0
LINE
  5
471
  8
0
  6
CONTINUOUS
 62
     3
 10
-120.550748208876
 20
67.17179107666016
 30
0.0
 11
-103.0507482088759
 21
67.17179107666016
 31
0.0
  0
LINE
  5
472
  8
0
  6
CONTINUOUS
 62
     3
 10
-120.550748208876
 20
82.64306640625
 30
0.0
 11
-120.550748208876
 21
67.17179107666016
 31
0.0
  0
LINE
  5
473
  8
0
  6
CONTINUOUS
 62
     3
 10
-124.3724543530199
 20
-24.35692633392932
 30
0.0
 11
-125.3724554146094
 21
-25.35692739551882
 31
0.0
  0
LINE
  5
474
  8
0
  6
CONTINUOUS
 62
     3
 10
-181.3724528234615
 20
-24.35692363653106
 30
0.0
 11
-180.372451761872
 21
-25.35692469812057
 31
0.0
  0
LINE
  5
475
  8
0
  6
CONTINUOUS
 62
     3
 10
-174.550748208876
 20
148.64306640625
 30
0.0
 11
-102.5507482088759
 21
148.64306640625
 31
0.0
  0
LINE
  5
476
  8
0
  6
CONTINUOUS
 62
     3
 10
-152.3724645174697
 20
67.64306640625
 30
0.0
 11
-152.3724645174697
 21
-20.35693168640137
 31
0.0
  0
LINE
  5
477
  8
0
  6
CONTINUOUS
 62
     3
 10
-150.3724645174697
 20
67.64306640625
 30
0.0
 11
-150.3724645174697
 21
6.760486125946045
 31
0.0
  0
LINE
  5
478
  8
0
  6
CONTINUOUS
 62
     3
 10
-136.3724645174697
 20
69.14306640625
 30
0.0
 11
-136.3724645174697
 21
6.760486125946045
 31
0.0
  0
LINE
  5
479
  8
0
  6
CONTINUOUS
 62
     3
 10
-134.3724645174697
 20
69.14306640625
 30
0.0
 11
-134.3724645174697
 21
-21.85693168640137
 31
0.0
  0
LINE
  5
47A
  8
0
  6
CONTINUOUS
 62
     3
 10
-152.3724645174697
 20
67.64306640625
 30
0.0
 11
-150.3724645174697
 21
67.64306640625
 31
0.0
  0
LINE
  5
47B
  8
0
  6
CONTINUOUS
 62
     3
 10
-152.3724645174697
 20
-20.35693359375
 30
0.0
 11
-150.3724645174697
 21
-20.35693359375
 31
0.0
  0
LINE
  5
47C
  8
0
  6
CONTINUOUS
 62
     3
 10
-136.3724645174697
 20
-21.85693359375
 30
0.0
 11
-134.3724645174697
 21
-21.85693359375
 31
0.0
  0
LINE
  5
47D
  8
0
  6
CONTINUOUS
 62
     3
 10
-136.3724645174697
 20
69.14306640625
 30
0.0
 11
-134.3724645174697
 21
69.14306640625
 31
0.0
  0
LINE
  5
47E
  8
0
  6
CONTINUOUS
 62
     3
 10
-134.3724645174697
 20
-21.35693359375
 30
0.0
 11
-124.3724568880752
 21
-21.35693359375
 31
0.0
  0
LINE
  5
47F
  8
0
  6
CONTINUOUS
 62
     3
 10
-134.3724645174697
 20
68.64306640625
 30
0.0
 11
-124.3724568880752
 21
68.64306640625
 31
0.0
  0
LINE
  5
480
  8
0
  6
CONTINUOUS
 62
     3
 10
-134.3724645174697
 20
-20.55693054199219
 30
0.0
 11
-124.3724568880752
 21
-20.55693054199219
 31
0.0
  0
LINE
  5
481
  8
0
  6
CONTINUOUS
 62
     3
 10
-120.5507405794814
 20
83.64306640625
 30
0.0
 11
-100.0507405794814
 21
83.64306640625
 31
0.0
  0
LINE
  5
482
  8
0
  6
CONTINUOUS
 62
     3
 10
-112.5507405794814
 20
148.64306640625
 30
0.0
 11
-112.5507405794814
 21
139.64306640625
 31
0.0
  0
LINE
  5
483
  8
0
  6
CONTINUOUS
 62
     3
 10
-120.5507405794814
 20
139.64306640625
 30
0.0
 11
-120.5507405794814
 21
83.64306640625
 31
0.0
  0
LINE
  5
484
  8
0
  6
CONTINUOUS
 62
     3
 10
-100.0507405794814
 20
139.64306640625
 30
0.0
 11
-100.0507405794814
 21
132.64306640625
 31
0.0
  0
LINE
  5
485
  8
0
  6
CONTINUOUS
 62
     3
 10
-120.5507405794814
 20
139.64306640625
 30
0.0
 11
-100.0507405794814
 21
139.64306640625
 31
0.0
  0
LINE
  5
486
  8
0
  6
CONTINUOUS
 62
     3
 10
-112.5507405794814
 20
83.64306640625
 30
0.0
 11
-112.5507405794814
 21
82.64306640625
 31
0.0
  0
LINE
  5
487
  8
0
  6
CONTINUOUS
 62
     3
 10
-100.5507482088759
 20
82.64306640625
 30
0.0
 11
-100.5507482088759
 21
-99.35693359375
 31
0.0
  0
LINE
  5
488
  8
0
  6
CONTINUOUS
 62
     3
 10
-121.5507405794814
 20
82.64306640625
 30
0.0
 11
-101.5507405794814
 21
82.64306640625
 31
0.0
  0
LINE
  5
489
  8
0
  6
CONTINUOUS
 62
     3
 10
-100.0507405794814
 20
120.64306640625
 30
0.0
 11
-100.0507405794814
 21
102.64306640625
 31
0.0
  0
LINE
  5
48A
  8
0
  6
CONTINUOUS
 62
     3
 10
-100.0507405794814
 20
90.64306640625
 30
0.0
 11
-100.0507405794814
 21
83.64306640625
 31
0.0
  0
LINE
  5
48B
  8
0
  6
CONTINUOUS
 62
     3
 10
-89.55074057948141
 20
105.64306640625
 30
0.0
 11
-89.55074057948141
 21
87.64306640625
 31
0.0
  0
LINE
  5
48C
  8
0
  6
CONTINUOUS
 62
     3
 10
-89.55074057948141
 20
135.64306640625
 30
0.0
 11
-89.55074057948141
 21
117.64306640625
 31
0.0
  0
LINE
  5
48D
  8
0
  6
CONTINUOUS
 62
     3
 10
-77.55074820887595
 20
135.64306640625
 30
0.0
 11
-77.55074820887595
 21
117.64306640625
 31
0.0
  0
LINE
  5
48E
  8
0
  6
CONTINUOUS
 62
     3
 10
-77.55074820887595
 20
105.64306640625
 30
0.0
 11
-77.55074820887595
 21
87.64306640625
 31
0.0
  0
LINE
  5
48F
  8
0
  6
CONTINUOUS
 62
     3
 10
-120.5507405794814
 20
102.64306640625
 30
0.0
 11
-89.55074057948141
 21
102.64306640625
 31
0.0
  0
LINE
  5
490
  8
0
  6
CONTINUOUS
 62
     3
 10
-120.5507405794814
 20
90.64306640625
 30
0.0
 11
-89.55074057948141
 21
90.64306640625
 31
0.0
  0
LINE
  5
491
  8
0
  6
CONTINUOUS
 62
     3
 10
-120.5507405794814
 20
120.64306640625
 30
0.0
 11
-89.55074057948141
 21
120.64306640625
 31
0.0
  0
LINE
  5
492
  8
0
  6
CONTINUOUS
 62
     3
 10
-120.5507405794814
 20
132.64306640625
 30
0.0
 11
-89.55074057948141
 21
132.64306640625
 31
0.0
  0
LINE
  5
493
  8
0
  6
CONTINUOUS
 62
     3
 10
-89.55074057948141
 20
105.64306640625
 30
0.0
 11
-77.55074057948141
 21
105.64306640625
 31
0.0
  0
LINE
  5
494
  8
0
  6
CONTINUOUS
 62
     3
 10
-89.55074057948141
 20
87.64306640625
 30
0.0
 11
-77.55074057948141
 21
87.64306640625
 31
0.0
  0
LINE
  5
495
  8
0
  6
CONTINUOUS
 62
     3
 10
-89.55074057948141
 20
117.64306640625
 30
0.0
 11
-77.55074057948141
 21
117.64306640625
 31
0.0
  0
LINE
  5
496
  8
0
  6
CONTINUOUS
 62
     3
 10
-89.55074057948141
 20
135.64306640625
 30
0.0
 11
-77.55074057948141
 21
135.64306640625
 31
0.0
  0
LINE
  5
497
  8
0
  6
CONTINUOUS
 62
     3
 10
-114.5507405794814
 20
132.64306640625
 30
0.0
 11
-114.5507405794814
 21
120.64306640625
 31
0.0
  0
LINE
  5
498
  8
0
  6
CONTINUOUS
 62
     3
 10
-114.5507405794814
 20
102.64306640625
 30
0.0
 11
-114.5507405794814
 21
90.64306640625
 31
0.0
  0
LINE
  5
499
  8
0
  6
CONTINUOUS
 62
     3
 10
90.68966164219827
 20
148.64306640625
 30
0.0
 11
135.6896540128037
 21
148.64306640625
 31
0.0
  0
LINE
  5
49A
  8
0
  6
CONTINUOUS
 62
     3
 10
90.68966164219827
 20
148.64306640625
 30
0.0
 11
90.68966164219827
 21
67.17179107666016
 31
0.0
  0
LINE
  5
49B
  8
0
  6
CONTINUOUS
 62
     3
 10
135.6896692715928
 20
148.64306640625
 30
0.0
 11
135.6896692715928
 21
67.17179107666016
 31
0.0
  0
LINE
  5
49C
  8
0
  6
CONTINUOUS
 62
     3
 10
80.68966164219827
 20
146.8797912597656
 30
0.0
 11
80.68966164219827
 21
144.3441467285156
 31
0.0
  0
LINE
  5
49D
  8
0
  6
CONTINUOUS
 62
     3
 10
145.6896692715928
 20
146.8797912597656
 30
0.0
 11
145.6896692715928
 21
144.3441467285156
 31
0.0
  0
LINE
  5
49E
  8
0
  6
CONTINUOUS
 62
     3
 10
80.68965035216215
 20
146.8797600143689
 30
0.0
 11
90.68965786408452
 21
148.6430311969557
 31
0.0
  0
LINE
  5
49F
  8
0
  6
CONTINUOUS
 62
     3
 10
135.6896409209949
 20
148.6430416535245
 30
0.0
 11
145.6896484329173
 21
146.8797704709377
 31
0.0
  0
LINE
  5
4A0
  8
0
  6
CONTINUOUS
 62
     3
 10
123.1896692715928
 20
148.64306640625
 30
0.0
 11
123.1896692715928
 21
82.64306640625
 31
0.0
  0
LINE
  5
4A1
  8
0
  6
CONTINUOUS
 62
     3
 10
103.1896616421983
 20
148.64306640625
 30
0.0
 11
103.1896616421983
 21
82.64306640625
 31
0.0
  0
LINE
  5
4A2
  8
0
  6
CONTINUOUS
 62
     3
 10
99.93966164219832
 20
82.64306640625
 30
0.0
 11
99.93966164219832
 21
76.50787353515625
 31
0.0
  0
LINE
  5
4A3
  8
0
  6
CONTINUOUS
 62
     3
 10
126.4396692715928
 20
82.64306640625
 30
0.0
 11
126.4396692715928
 21
76.50787353515625
 31
0.0
  0
LINE
  5
4A4
  8
0
  6
CONTINUOUS
 62
     3
 10
90.68966164219827
 20
82.64306640625
 30
0.0
 11
103.1896616421983
 21
82.64306640625
 31
0.0
  0
LINE
  5
4A5
  8
0
  6
CONTINUOUS
 62
     3
 10
123.1896692715928
 20
82.64306640625
 30
0.0
 11
135.6896540128037
 21
82.64306640625
 31
0.0
  0
LINE
  5
4A6
  8
0
  6
CONTINUOUS
 62
     3
 10
103.1896616421983
 20
83.64306640625
 30
0.0
 11
123.1896692715928
 21
83.64306640625
 31
0.0
  0
LINE
  5
4A7
  8
0
  6
CONTINUOUS
 62
     3
 10
103.1896616421983
 20
139.64306640625
 30
0.0
 11
123.1896692715928
 21
139.64306640625
 31
0.0
  0
LINE
  5
4A8
  8
0
  6
CONTINUOUS
 62
     3
 10
160.1512126149842
 20
-15.01718353923161
 30
0.0
 11
170.1512138070771
 21
2.303324225584674
 31
0.0
  0
LINE
  5
4A9
  8
0
  6
CONTINUOUS
 62
     3
 10
56.2281450054364
 20
2.303326257689378
 30
0.0
 11
66.22814429018044
 21
-15.01717820350223
 31
0.0
  0
LINE
  5
4AA
  8
0
  6
CONTINUOUS
 62
     3
 10
7.730717846500722
 20
-25.69667580310421
 30
0.0
 11
17.73071713124476
 21
-43.01718026429582
 31
0.0
  0
LINE
  5
4AB
  8
0
  6
CONTINUOUS
 62
     3
 10
-125.3724608094059
 20
72.64306874432191
 30
0.0
 11
-124.3724597478164
 21
71.64306768273241
 31
0.0
  0
LINE
  5
4AC
  8
0
  6
CONTINUOUS
 62
     3
 10
-124.3724568880752
 20
71.64306640625
 30
0.0
 11
-124.3724568880752
 21
-24.35693168640137
 31
0.0
  0
LINE
  5
4AD
  8
0
  6
CONTINUOUS
 62
     3
 10
-181.3724077491628
 20
71.64303733068027
 30
0.0
 11
-180.3724250635254
 21
72.64303527332868
 31
0.0
  0
LINE
  5
4AE
  8
0
  6
CONTINUOUS
 62
     3
 10
-181.3724645174697
 20
71.64306640625
 30
0.0
 11
-181.3724645174697
 21
-24.35693168640137
 31
0.0
  0
LINE
  5
4AF
  8
0
  6
CONTINUOUS
 62
     3
 10
-134.550748208876
 20
76.56990814208984
 30
0.0
 11
-121.5507253206924
 21
76.56990814208984
 31
0.0
  0
LINE
  5
4B0
  8
0
  6
CONTINUOUS
 62
     3
 10
-142.4507268465713
 20
96.41100311279297
 30
0.0
 11
-142.4507268465713
 21
76.56990814208984
 31
0.0
  0
LINE
  5
4B1
  8
0
  6
CONTINUOUS
 62
     3
 10
-134.550748208876
 20
91.64306640625
 30
0.0
 11
-134.550748208876
 21
76.56990814208984
 31
0.0
  0
LINE
  5
4B2
  8
0
  6
CONTINUOUS
 62
     3
 10
-142.4507268465713
 20
91.64306640625
 30
0.0
 11
-134.550748208876
 21
91.64306640625
 31
0.0
  0
LINE
  5
4B3
  8
0
  6
CONTINUOUS
 62
     3
 10
-121.5507253206924
 20
148.64306640625
 30
0.0
 11
-121.5507253206924
 21
70.64306640625
 31
0.0
  0
LINE
  5
4B4
  8
0
  6
CONTINUOUS
 62
     3
 10
-196.3507360018447
 20
72.64306640625
 30
0.0
 11
-125.3724492586806
 21
72.64306640625
 31
0.0
  0
LINE
  5
4B5
  8
0
  6
CONTINUOUS
 62
     3
 10
-142.2507298983291
 20
85.64306640625
 30
0.0
 11
-134.7507298983291
 21
85.64306640625
 31
0.0
  0
LINE
  5
4B6
  8
0
  6
CONTINUOUS
 62
     3
 10
-142.25071463954
 20
85.64306640625
 30
0.0
 11
-142.25071463954
 21
72.64306640625
 31
0.0
  0
LINE
  5
4B7
  8
0
  6
CONTINUOUS
 62
     3
 10
-134.75071463954
 20
85.64306640625
 30
0.0
 11
-134.75071463954
 21
72.64306640625
 31
0.0
  0
LINE
  5
4B8
  8
0
  6
CONTINUOUS
 62
     3
 10
-174.550748208876
 20
148.64306640625
 30
0.0
 11
-174.550748208876
 21
125.6511891279728
 31
0.0
  0
LINE
  5
4B9
  8
0
  6
CONTINUOUS
 62
     3
 10
-196.3507360018447
 20
-25.35692024230957
 30
0.0
 11
-103.0507558382705
 21
-25.35692024230957
 31
0.0
  0
LINE
  5
4BA
  8
0
  6
CONTINUOUS
 62
     3
 10
-134.7507298983291
 20
-25.35691833496094
 30
0.0
 11
-134.7507298983291
 21
-38.3569221496582
 31
0.0
  0
LINE
  5
4BB
  8
0
  6
CONTINUOUS
 62
     3
 10
-142.2507298983291
 20
-25.35691833496094
 30
0.0
 11
-142.2507298983291
 21
-38.3569221496582
 31
0.0
  0
LINE
  5
4BC
  8
0
  6
CONTINUOUS
 62
     3
 10
-142.2507451571181
 20
-38.3569221496582
 30
0.0
 11
-134.7507451571181
 21
-38.3569221496582
 31
0.0
  0
LINE
  5
4BD
  8
0
  6
CONTINUOUS
 62
     3
 10
-150.3724645174697
 20
2.165942668914795
 30
0.0
 11
-150.3724645174697
 21
-20.35693168640137
 31
0.0
  0
LINE
  5
4BE
  8
0
  6
CONTINUOUS
 62
     3
 10
-136.3724645174697
 20
3.084851264953613
 30
0.0
 11
-136.3724645174697
 21
-21.85693168640137
 31
0.0
  0
LINE
  5
4BF
  8
0
  6
CONTINUOUS
 62
     3
 10
-200.550748208876
 20
-88.85693359375
 30
0.0
 11
-200.550748208876
 21
-101.35693359375
 31
0.0
  0
ARC
  5
4C0
  8
0
  6
CONTINUOUS
 62
     3
 10
113.1896692715928
 20
23.64306640625
 30
0.0
 40
125.0
 50
100.3697801174991
 51
199.6302009100047
  0
ARC
  5
4C1
  8
0
  6
CONTINUOUS
 62
     3
 10
113.1896692715928
 20
23.64306640625
 30
0.0
 40
123.0
 50
100.5403026203177
 51
199.4596784071862
  0
ARC
  5
4C2
  8
0
  6
CONTINUOUS
 62
     3
 10
113.1896692715928
 20
23.64306640625
 30
0.0
 40
54.5
 50
65.61638426188354
 51
114.3836344074511
  0
ARC
  5
4C3
  8
0
  6
CONTINUOUS
 62
     3
 10
113.1896692715928
 20
23.64306640625
 30
0.0
 40
54.5
 50
305.6163843376739
 51
354.3836238110709
  0
CIRCLE
  5
4C4
  8
0
  6
CONTINUOUS
 62
     3
 10
113.1896692715928
 20
-36.35693359375
 30
0.0
 40
3.150000095367432
  0
CIRCLE
  5
4C5
  8
0
  6
CONTINUOUS
 62
     3
 10
130.4464136563584
 20
-40.76004028320313
 30
0.0
 40
7.0
  0
CIRCLE
  5
4C6
  8
0
  6
CONTINUOUS
 62
     3
 10
177.5927759610459
 20
40.89982604980469
 30
0.0
 40
7.0
  0
CIRCLE
  5
4C7
  8
0
  6
CONTINUOUS
 62
     3
 10
160.3360010587022
 20
70.78941345214844
 30
0.0
 40
7.0
  0
CIRCLE
  5
4C8
  8
0
  6
CONTINUOUS
 62
     3
 10
66.04331459629984
 20
70.78941345214844
 30
0.0
 40
7.0
  0
CIRCLE
  5
4C9
  8
0
  6
CONTINUOUS
 62
     3
 10
48.78655495274515
 20
40.89982604980469
 30
0.0
 40
7.0
  0
CIRCLE
  5
4CA
  8
0
  6
CONTINUOUS
 62
     3
 10
95.93290199864362
 20
-40.76004028320313
 30
0.0
 40
10.0
  0
CIRCLE
  5
4CB
  8
0
  6
CONTINUOUS
 62
     3
 10
130.4464136563584
 20
-40.76004028320313
 30
0.0
 40
10.0
  0
CIRCLE
  5
4CC
  8
0
  6
CONTINUOUS
 62
     3
 10
113.1896692715928
 20
23.64306640625
 30
0.0
 40
45.0
  0
ARC
  5
4CD
  8
0
  6
CONTINUOUS
 62
     3
 10
113.1896692715928
 20
23.64306640625
 30
0.0
 40
52.5
 50
115.3769488184461
 51
184.6230322090578
  0
ARC
  5
4CE
  8
0
  6
CONTINUOUS
 62
     3
 10
113.1896692715928
 20
23.64306640625
 30
0.0
 40
52.5
 50
355.3769386489527
 51
424.6230698508886
  0
ARC
  5
4CF
  8
0
  6
CONTINUOUS
 62
     3
 10
113.1896692715928
 20
23.64306640625
 30
0.0
 40
52.5
 50
235.376914819081
 51
304.623069926679
  0
CIRCLE
  5
4D0
  8
0
  6
CONTINUOUS
 62
     3
 10
113.1896692715928
 20
23.64306640625
 30
0.0
 40
49.0
  0
ARC
  5
4D1
  8
0
  6
CONTINUOUS
 62
     3
 10
113.1896692715928
 20
23.64306640625
 30
0.0
 40
54.5
 50
185.6163639228968
 51
234.3835867477077
  0
CIRCLE
  5
4D2
  8
0
  6
CONTINUOUS
 62
     3
 10
165.1511866055772
 20
53.64306640625
 30
0.0
 40
3.150000095367432
  0
CIRCLE
  5
4D3
  8
0
  6
CONTINUOUS
 62
     3
 10
61.22813667881937
 20
53.64306640625
 30
0.0
 40
3.150000095367432
  0
CIRCLE
  5
4D4
  8
0
  6
CONTINUOUS
 62
     3
 10
177.5927759610459
 20
40.89982604980469
 30
0.0
 40
10.0
  0
CIRCLE
  5
4D5
  8
0
  6
CONTINUOUS
 62
     3
 10
160.3360010587022
 20
70.78941345214844
 30
0.0
 40
10.0
  0
CIRCLE
  5
4D6
  8
0
  6
CONTINUOUS
 62
     3
 10
66.04331459629984
 20
70.78941345214844
 30
0.0
 40
10.0
  0
CIRCLE
  5
4D7
  8
0
  6
CONTINUOUS
 62
     3
 10
48.78655495274515
 20
40.89982604980469
 30
0.0
 40
10.0
  0
LINE
  5
4D8
  8
0
  6
CONTINUOUS
 62
     3
 10
210.1928885345765
 20
-58.34252002533458
 30
0.0
 11
232.6928874020878
 21
-19.3713841617473
 31
0.0
  0
LINE
  5
4D9
  8
0
  6
CONTINUOUS
 62
     3
 10
201.4698981169045
 20
-64.85330372847875
 30
0.0
 11
203.6658440221568
 21
-66.12113354792973
 31
0.0
  0
LINE
  5
4DA
  8
0
  6
CONTINUOUS
 62
     3
 10
233.9698773801484
 20
-8.561621145236131
 30
0.0
 11
236.1658232854007
 21
-9.829450964687112
 31
0.0
  0
LINE
  5
4DB
  8
0
  6
CONTINUOUS
 62
     3
 10
232.6928884579039
 20
-19.37127377626075
 30
0.0
 11
236.1658156695258
 21
-9.82948502459567
 31
0.0
  0
LINE
  5
4DC
  8
0
  6
CONTINUOUS
 62
     3
 10
203.6657739391454
 20
-66.12109777136811
 30
0.0
 11
210.1928107995069
 21
-58.34247911270086
 31
0.0
  0
LINE
  5
4DD
  8
0
  6
CONTINUOUS
 62
     3
 10
208.6486437562708
 20
-43.01720111373652
 30
0.0
 11
218.6486449483637
 21
-25.69669334892024
 31
0.0
  0
ARC
  5
4DE
  8
0
  6
CONTINUOUS
 62
     3
 10
113.1896692715928
 20
23.64306640625
 30
0.0
 40
125.0
 50
340.369764825364
 51
360.0
  0
LINE
  5
4DF
  8
0
  6
CONTINUOUS
 62
     3
 10
139.6366673469443
 20
-17.60686990931481
 30
0.0
 11
210.1928584435433
 21
-58.34250133137948
 31
0.0
  0
LINE
  5
4E0
  8
0
  6
CONTINUOUS
 62
     3
 10
162.1366566060372
 20
21.36428948037474
 30
0.0
 11
232.6928609171358
 21
-19.37134957108401
 31
0.0
  0
LINE
  5
4E1
  8
0
  6
CONTINUOUS
 62
     3
 10
169.2851685173649
 20
2.803337993288551
 30
0.0
 11
226.4428612896648
 21
-30.19666766915225
 31
0.0
  0
LINE
  5
4E2
  8
0
  6
CONTINUOUS
 62
     3
 10
159.2851652987143
 20
-14.51717757087044
 30
0.0
 11
216.4428448565146
 21
-47.51717560391717
 31
0.0
  0
ARC
  5
4E3
  8
0
  6
CONTINUOUS
 62
     3
 10
113.1896692715928
 20
23.64306640625
 30
0.0
 40
125.0
 50
0.0
 51
79.63023855183556
  0
ARC
  5
4E4
  8
0
  6
CONTINUOUS
 62
     3
 10
113.1896692715928
 20
23.64306640625
 30
0.0
 40
125.0
 50
220.369746118134
 51
319.6302454578151
  0
ARC
  5
4E5
  8
0
  6
CONTINUOUS
 62
     3
 10
113.1896692715928
 20
23.64306640625
 30
0.0
 40
123.0
 50
220.369746118134
 51
319.459719539902
  0
ARC
  5
4E6
  8
0
  6
CONTINUOUS
 62
     3
 10
113.1896692715928
 20
23.64306640625
 30
0.0
 40
123.0
 50
340.5402941583716
 51
439.459716049017
  0
LINE
  5
4E7
  8
0
  6
CONTINUOUS
 62
     3
 10
-180.3724645174697
 20
-11.35693359375
 30
0.0
 11
-153.3724645174697
 21
-11.35693359375
 31
0.0
  0
LINE
  5
4E8
  8
0
  6
CONTINUOUS
 62
     3
 10
-129.3724645174697
 20
66.14306640625
 30
0.0
 11
-129.3724645174697
 21
60.14306640624999
 31
0.0
  0
LINE
  5
4E9
  8
0
  6
CONTINUOUS
 62
     3
 10
-125.3724645174697
 20
66.14306640625
 30
0.0
 11
-125.3724645174697
 21
60.14306640624999
 31
0.0
  0
LINE
  5
4EA
  8
0
  6
CONTINUOUS
 62
     3
 10
-180.3724645174697
 20
58.64306640625
 30
0.0
 11
-153.3724645174697
 21
58.64306640625
 31
0.0
  0
LINE
  5
4EB
  8
0
  6
CONTINUOUS
 62
     3
 10
-180.372465084667
 20
58.64307800119605
 30
0.0
 11
-181.3724642074994
 21
59.64308100154266
 31
0.0
  0
LINE
  5
4EC
  8
0
  6
CONTINUOUS
 62
     3
 10
-153.3724450114413
 20
58.64304372287734
 30
0.0
 11
-152.3724420110947
 21
59.6430429300035
 31
0.0
  0
LINE
  5
4ED
  8
0
  6
CONTINUOUS
 62
     3
 10
-153.3724486036771
 20
-11.35692370532252
 30
0.0
 11
-152.3724491436841
 21
-12.35691557891551
 31
0.0
  0
LINE
  5
4EE
  8
0
  6
CONTINUOUS
 62
     3
 10
-180.3724491551074
 20
-11.35696223131072
 30
0.0
 11
-181.3724432202834
 21
-12.35694871012765
 31
0.0
  0
LINE
  5
4EF
  8
0
  6
CONTINUOUS
 62
     3
 10
-150.3724645174697
 20
-20.10693359374999
 30
0.0
 11
-136.3724645174697
 21
-20.10693359374999
 31
0.0
  0
LINE
  5
4F0
  8
0
  6
CONTINUOUS
 62
     3
 10
-150.3724645174697
 20
67.39306640625
 30
0.0
 11
-136.3724645174697
 21
67.39306640625
 31
0.0
  0
LINE
  5
4F1
  8
0
  6
CONTINUOUS
 62
     3
 10
-134.3724645174697
 20
58.64306640624999
 30
0.0
 11
-124.3724645174697
 21
58.64306640624999
 31
0.0
  0
LINE
  5
4F2
  8
0
  6
CONTINUOUS
 62
     3
 10
-134.3724645174697
 20
66.14306640625
 30
0.0
 11
-124.3724645174697
 21
66.14306640625
 31
0.0
  0
LINE
  5
4F3
  8
0
  6
CONTINUOUS
 62
     3
 10
-134.3724645174697
 20
60.14306640624999
 30
0.0
 11
-124.3724645174697
 21
60.14306640624999
 31
0.0
  0
LINE
  5
4F4
  8
0
  6
CONTINUOUS
 62
     3
 10
-134.3724645174697
 20
-11.35693359375
 30
0.0
 11
-124.3724645174697
 21
-11.35693359375
 31
0.0
  0
CIRCLE
  5
4F5
  8
0
  6
CONTINUOUS
 62
     3
 10
73.6895966790116
 20
23.64306640625
 30
0.0
 40
3.099999904632568
  0
CIRCLE
  5
4F6
  8
0
  6
CONTINUOUS
 62
     3
 10
152.6895966790116
 20
23.64306640625
 30
0.0
 40
3.099999904632568
  0
CIRCLE
  5
4F7
  8
0
  6
CONTINUOUS
 62
     3
 10
113.1896479171811
 20
23.64306640625
 30
0.0
 40
35.0
  0
CIRCLE
  5
4F8
  8
0
  6
CONTINUOUS
 62
     3
 10
113.1895966790116
 20
63.14306640624999
 30
0.0
 40
3.0
  0
CIRCLE
  5
4F9
  8
0
  6
CONTINUOUS
 62
     3
 10
113.1895966790116
 20
63.14306640624999
 30
0.0
 40
3.0
  0
CIRCLE
  5
4FA
  8
0
  6
CONTINUOUS
 62
     3
 10
147.3976769857512
 20
3.893110779806442
 30
0.0
 40
3.0
  0
CIRCLE
  5
4FB
  8
0
  6
CONTINUOUS
 62
     3
 10
147.3976769857512
 20
3.893110779806442
 30
0.0
 40
3.0
  0
CIRCLE
  5
4FC
  8
0
  6
CONTINUOUS
 62
     3
 10
78.98167008678055
 20
3.893022032693544
 30
0.0
 40
2.999999999999999
  0
CIRCLE
  5
4FD
  8
0
  6
CONTINUOUS
 62
     3
 10
78.98167008678055
 20
3.893022032693544
 30
0.0
 40
2.999999999999999
  0
LINE
  5
4FE
  8
0
  6
CONTINUOUS
 62
     4
 10
-115.550748208876
 20
-32.35693359375
 30
0.0
 11
-115.550748208876
 21
-40.35693359375
 31
0.0
  0
LINE
  5
4FF
  8
0
  6
CONTINUOUS
 62
     4
 10
-115.550748208876
 20
-40.35693359375
 30
0.0
 11
-100.5507482088759
 21
-40.35693359375
 31
0.0
  0
LINE
  5
500
  8
0
  6
CONTINUOUS
 62
     4
 10
-115.550748208876
 20
-32.35693359375
 30
0.0
 11
-100.5507482088759
 21
-32.35693359375
 31
0.0
  0
LINE
  5
501
  8
0
  6
CONTINUOUS
 62
     4
 10
171.0842303754999
 20
2.919356191272527
 30
0.0
 11
176.3342310013487
 21
12.01262276780108
 31
0.0
  0
LINE
  5
502
  8
0
  6
CONTINUOUS
 62
     4
 10
172.3832948868586
 20
2.169340843074679
 30
0.0
 11
177.6332955127073
 21
11.26260741960323
 31
0.0
  0
LINE
  5
503
  8
0
  6
CONTINUOUS
 62
     4
 10
173.6823027255246
 20
1.419349405209232
 30
0.0
 11
178.9323033513734
 21
10.51261598173778
 31
0.0
  0
LINE
  5
504
  8
0
  6
CONTINUOUS
 62
     4
 10
174.9813408078859
 20
0.6693493158022648
 30
0.0
 11
180.2313414337346
 21
9.762615892330814
 31
0.0
  0
LINE
  5
505
  8
0
  6
CONTINUOUS
 62
     4
 10
176.2803997341412
 20
-0.0806451885014212
 30
0.0
 11
181.53040035999
 21
9.012621388027128
 31
0.0
  0
LINE
  5
506
  8
0
  6
CONTINUOUS
 62
     4
 10
154.834228438349
 20
-25.22646892655394
 30
0.0
 11
160.0842290641977
 21
-16.13320235002539
 31
0.0
  0
LINE
  5
507
  8
0
  6
CONTINUOUS
 62
     4
 10
156.1332929497076
 20
-25.97648427475178
 30
0.0
 11
161.3832897608587
 21
-16.8832243054726
 31
0.0
  0
LINE
  5
508
  8
0
  6
CONTINUOUS
 62
     4
 10
157.4323007883737
 20
-26.72647571261723
 30
0.0
 11
162.6823014142224
 21
-17.63320913608868
 31
0.0
  0
LINE
  5
509
  8
0
  6
CONTINUOUS
 62
     4
 10
158.7313465001303
 20
-27.47646258752548
 30
0.0
 11
163.9813394965837
 21
-18.38320922549565
 31
0.0
  0
LINE
  5
50A
  8
0
  6
CONTINUOUS
 62
     4
 10
160.0303977969903
 20
-28.22647030632788
 30
0.0
 11
165.280398422839
 21
-19.13320372979933
 31
0.0
  0
LINE
  5
50B
  8
0
  6
CONTINUOUS
 62
     4
 10
50.04512406493879
 20
12.01261602977104
 30
0.0
 11
55.29512564446199
 21
2.919347801430149
 31
0.0
  0
LINE
  5
50C
  8
0
  6
CONTINUOUS
 62
     4
 10
48.74608598257757
 20
11.26261594036407
 30
0.0
 11
53.99608756210077
 21
2.169347712023182
 31
0.0
  0
LINE
  5
50D
  8
0
  6
CONTINUOUS
 62
     4
 10
47.44705260011685
 20
10.51262296927951
 30
0.0
 11
52.69705417964005
 21
1.419354740938616
 31
0.0
  0
LINE
  5
50E
  8
0
  6
CONTINUOUS
 62
     4
 10
46.14801077152956
 20
9.762614109737797
 30
0.0
 11
51.39801139737833
 21
0.6693475332092476
 31
0.0
  0
LINE
  5
50F
  8
0
  6
CONTINUOUS
 62
     4
 10
44.84897268916834
 20
9.01261402033083
 30
0.0
 11
50.09897331501711
 21
-0.0806525561977196
 31
0.0
  0
LINE
  5
510
  8
0
  6
CONTINUOUS
 62
     4
 10
66.29512314106646
 20
-16.1332041326184
 30
0.0
 11
71.54512948896181
 21
-25.22648062002099
 31
0.0
  0
LINE
  5
511
  8
0
  6
CONTINUOUS
 62
     4
 10
64.99608505870523
 20
-16.88320422202537
 30
0.0
 11
70.24609140660058
 21
-25.97648070942796
 31
0.0
  0
LINE
  5
512
  8
0
  6
CONTINUOUS
 62
     4
 10
63.69705167624451
 20
-17.63319719310994
 30
0.0
 11
68.947056116791
 21
-26.72647037688785
 31
0.0
  0
LINE
  5
513
  8
0
  6
CONTINUOUS
 62
     4
 10
62.39800889398279
 20
-18.3832044008393
 30
0.0
 11
67.64801524187814
 21
-27.4764808882419
 31
0.0
  0
LINE
  5
514
  8
0
  6
CONTINUOUS
 62
     4
 10
61.09897081162157
 20
-19.13320449024627
 30
0.0
 11
66.34897715951692
 21
-28.22648097764886
 31
0.0
  0
LINE
  5
515
  8
0
  6
CONTINUOUS
 62
     4
 10
59.79993272926035
 20
-19.88320457965324
 30
0.0
 11
65.0499390771557
 21
-28.97648106705583
 31
0.0
  0
LINE
  5
516
  8
0
  6
CONTINUOUS
 62
     4
 10
58.50089464689913
 20
-20.63320466906021
 30
0.0
 11
63.75090099479448
 21
-29.7264811564628
 31
0.0
  0
LINE
  5
517
  8
0
  6
CONTINUOUS
 62
     4
 10
57.2018565645379
 20
-21.38320475846717
 30
0.0
 11
62.45186291243326
 21
-30.47648124586976
 31
0.0
  0
LINE
  5
518
  8
0
  6
CONTINUOUS
 62
     4
 10
43.54993269945825
 20
8.262617234548543
 30
0.0
 11
48.79993523265588
 21
-0.8306526456046868
 31
0.0
  0
LINE
  5
519
  8
0
  6
CONTINUOUS
 62
     4
 10
42.25089461709703
 20
7.512617145141576
 30
0.0
 11
47.50089715029466
 21
-1.580652735011654
 31
0.0
  0
LINE
  5
51A
  8
0
  6
CONTINUOUS
 62
     4
 10
40.95185653473581
 20
6.762617055734609
 30
0.0
 11
46.20185906793344
 21
-2.330652824418621
 31
0.0
  0
LINE
  5
51B
  8
0
  6
CONTINUOUS
 62
     4
 10
161.3294358793515
 20
-28.97647039573485
 30
0.0
 11
166.5794326905026
 21
-19.88321042645566
 31
0.0
  0
LINE
  5
51C
  8
0
  6
CONTINUOUS
 62
     4
 10
162.6284322739244
 20
-29.72648165534838
 30
0.0
 11
167.8784328997732
 21
-20.63321507881983
 31
0.0
  0
LINE
  5
51D
  8
0
  6
CONTINUOUS
 62
     4
 10
163.9274779856811
 20
-30.47646853025663
 30
0.0
 11
169.1774709821344
 21
-21.3832151682268
 31
0.0
  0
LINE
  5
51E
  8
0
  6
CONTINUOUS
 62
     4
 10
177.5794378165025
 20
-0.8306452779083884
 30
0.0
 11
182.8294384423512
 21
8.262621298620161
 31
0.0
  0
LINE
  5
51F
  8
0
  6
CONTINUOUS
 62
     4
 10
178.8784342110754
 20
-1.580656537521918
 30
0.0
 11
184.1284348369241
 21
7.512610039006631
 31
0.0
  0
LINE
  5
520
  8
0
  6
CONTINUOUS
 62
     4
 10
180.1774722934366
 20
-2.330656626928885
 30
0.0
 11
185.4274729192853
 21
6.762609949599664
 31
0.0
  0
LINE
  5
521
  8
0
  6
CONTINUOUS
 62
     4
 10
7.176862834182851
 20
-12.73738291889629
 30
0.0
 11
12.42686536738049
 21
-21.83065279904952
 31
0.0
  0
LINE
  5
522
  8
0
  6
CONTINUOUS
 62
     4
 10
23.42686667868267
 20
-40.88321134034743
 30
0.0
 11
28.67686730453144
 21
-49.97647791687598
 31
0.0
  0
LINE
  5
523
  8
0
  6
CONTINUOUS
 62
     4
 10
22.12782668897259
 20
-41.63320812612972
 30
0.0
 11
27.37782922217022
 21
-50.72647800628295
 31
0.0
  0
LINE
  5
524
  8
0
  6
CONTINUOUS
 62
     4
 10
20.82878860661137
 20
-42.38320821553668
 30
0.0
 11
26.078791139809
 21
-51.47647809568991
 31
0.0
  0
LINE
  5
525
  8
0
  6
CONTINUOUS
 62
     4
 10
19.52975052425015
 20
-43.13320830494365
 30
0.0
 11
24.77975305744778
 21
-52.22647818509688
 31
0.0
  0
LINE
  5
526
  8
0
  6
CONTINUOUS
 62
     4
 10
18.23071306131855
 20
-43.88320803672271
 30
0.0
 11
23.48071559451618
 21
-52.97647791687594
 31
0.0
  0
LINE
  5
527
  8
0
  6
CONTINUOUS
 62
     4
 10
16.93167497895733
 20
-44.63320812612967
 30
0.0
 11
22.18167751215496
 21
-53.7264780062829
 31
0.0
  0
LINE
  5
528
  8
0
  6
CONTINUOUS
 62
     4
 10
15.63263691595329
 20
-45.38320820436077
 30
0.0
 11
20.88263944915092
 21
-54.476478084514
 31
0.0
  0
LINE
  5
529
  8
0
  6
CONTINUOUS
 62
     4
 10
14.33359798832872
 20
-46.13320878178082
 30
0.0
 11
19.58360052152635
 21
-55.22647866193405
 31
0.0
  0
LINE
  5
52A
  8
0
  6
CONTINUOUS
 62
     4
 10
13.0345599059675
 20
-46.88320887118779
 30
0.0
 11
18.28456243916513
 21
-55.97647875134102
 31
0.0
  0
LINE
  5
52B
  8
0
  6
CONTINUOUS
 62
     4
 10
5.877824751821631
 20
-13.48738300830325
 30
0.0
 11
11.12782728501926
 21
-22.58065288845648
 31
0.0
  0
LINE
  5
52C
  8
0
  6
CONTINUOUS
 62
     4
 10
4.578786669460412
 20
-14.23738309771022
 30
0.0
 11
9.828787295309182
 21
-23.33064967423877
 31
0.0
  0
LINE
  5
52D
  8
0
  6
CONTINUOUS
 62
     4
 10
3.279748587099192
 20
-14.98738318711719
 30
0.0
 11
8.529749212947962
 21
-24.08064976364574
 31
0.0
  0
LINE
  5
52E
  8
0
  6
CONTINUOUS
 62
     4
 10
1.980711124167598
 20
-15.73738291889625
 30
0.0
 11
7.230711750016372
 21
-24.83064949542479
 31
0.0
  0
LINE
  5
52F
  8
0
  6
CONTINUOUS
 62
     4
 10
0.6816730418063779
 20
-16.48738300830321
 30
0.0
 11
5.931673667655151
 21
-25.58064958483176
 31
0.0
  0
LINE
  5
530
  8
0
  6
CONTINUOUS
 62
     4
 10
-0.6173650211976689
 20
-17.23738308653431
 30
0.0
 11
4.632635604651101
 21
-26.33064966306286
 31
0.0
  0
LINE
  5
531
  8
0
  6
CONTINUOUS
 62
     4
 10
-1.916403948822235
 20
-17.98738366395436
 30
0.0
 11
3.333596677026534
 21
-27.08065024048291
 31
0.0
  0
LINE
  5
532
  8
0
  6
CONTINUOUS
 62
     4
 10
-3.215442031183457
 20
-18.73738375336133
 30
0.0
 11
2.034558594665313
 21
-27.83065032988988
 31
0.0
  0
LINE
  5
533
  8
0
  6
CONTINUOUS
 62
     4
 10
-4.514479494115051
 20
-19.48738348514038
 30
0.0
 11
0.7355211317337194
 21
-28.58065006166893
 31
0.0
  0
LINE
  5
534
  8
0
  6
CONTINUOUS
 62
     4
 10
11.7355224430359
 20
-47.63320860296685
 30
0.0
 11
16.98552497623353
 21
-56.72647848312008
 31
0.0
  0
LINE
  5
535
  8
0
  6
CONTINUOUS
 62
     4
 10
-134.3724645174697
 20
67.84307098388672
 30
0.0
 11
-124.3724568880752
 21
67.84307098388672
 31
0.0
  0
LINE
  5
536
  8
0
  6
CONTINUOUS
 62
     4
 10
-101.5507405794814
 20
148.0657196044922
 30
0.0
 11
-101.5507405794814
 21
147.7204284667969
 31
0.0
  0
LINE
  5
537
  8
0
  6
CONTINUOUS
 62
     4
 10
-101.5507405794814
 20
83.64306640625
 30
0.0
 11
-101.5507405794814
 21
82.64306640625
 31
0.0
  0
LINE
  5
538
  8
0
  6
CONTINUOUS
 62
     4
 10
-102.5507405794814
 20
83.64306640625
 30
0.0
 11
-102.5507405794814
 21
82.64306640625
 31
0.0
  0
LINE
  5
539
  8
0
  6
CONTINUOUS
 62
     4
 10
-120.5507405794814
 20
121.4930648803711
 30
0.0
 11
-89.55074057948141
 21
121.4930648803711
 31
0.0
  0
LINE
  5
53A
  8
0
  6
CONTINUOUS
 62
     4
 10
-120.5507405794814
 20
131.7930603027344
 30
0.0
 11
-89.55074057948141
 21
131.7930603027344
 31
0.0
  0
LINE
  5
53B
  8
0
  6
CONTINUOUS
 62
     4
 10
-120.5507405794814
 20
91.49306488037109
 30
0.0
 11
-89.55074057948141
 21
91.49306488037109
 31
0.0
  0
LINE
  5
53C
  8
0
  6
CONTINUOUS
 62
     4
 10
-120.5507405794814
 20
101.7930679321289
 30
0.0
 11
-89.55074057948141
 21
101.7930679321289
 31
0.0
  0
LINE
  5
53D
  8
0
  6
CONTINUOUS
 62
     4
 10
-102.550747493652
 20
148.6430734056221
 30
0.0
 11
-101.5507534485431
 21
148.0657266382768
 31
0.0
  0
LINE
  5
53E
  8
0
  6
CONTINUOUS
 62
     4
 10
-102.5507322138803
 20
147.1430691942073
 30
0.0
 11
-101.5507381687714
 21
146.5657224268621
 31
0.0
  0
LINE
  5
53F
  8
0
  6
CONTINUOUS
 62
     4
 10
-102.5507471778048
 20
145.6430736343309
 30
0.0
 11
-101.5507531326959
 21
145.0657268669856
 31
0.0
  0
LINE
  5
540
  8
0
  6
CONTINUOUS
 62
     4
 10
-102.55073571273
 20
144.1430628156663
 30
0.0
 11
-101.5507416676211
 21
143.5657160483211
 31
0.0
  0
LINE
  5
541
  8
0
  6
CONTINUOUS
 62
     4
 10
-102.5507468619575
 20
142.6430738630397
 30
0.0
 11
-101.5507528168486
 21
142.0657270956945
 31
0.0
  0
LINE
  5
542
  8
0
  6
CONTINUOUS
 62
     4
 10
-102.5507353968827
 20
141.1430630443751
 30
0.0
 11
-101.5507413517738
 21
140.5657162770299
 31
0.0
  0
LINE
  5
543
  8
0
  6
CONTINUOUS
 62
     4
 10
-102.5507504321908
 20
141.1430628232461
 30
0.0
 11
-101.5507448243947
 21
141.7204162663112
 31
0.0
  0
LINE
  5
544
  8
0
  6
CONTINUOUS
 62
     4
 10
-102.5507474224163
 20
142.6430863795732
 30
0.0
 11
-101.5507496607294
 21
143.2204352926855
 31
0.0
  0
LINE
  5
545
  8
0
  6
CONTINUOUS
 62
     4
 10
-102.5507539105635
 20
144.1431044522732
 30
0.0
 11
-101.5507549100172
 21
144.7204540806413
 31
0.0
  0
LINE
  5
546
  8
0
  6
CONTINUOUS
 62
     4
 10
-102.5507581377071
 20
145.6431062110324
 30
0.0
 11
-101.550759963067
 21
146.2204553625633
 31
0.0
  0
LINE
  5
547
  8
0
  6
CONTINUOUS
 62
     4
 10
-102.5507413247189
 20
147.1430848786521
 30
0.0
 11
-101.5507431500788
 21
147.720434030183
 31
0.0
  0
LINE
  5
548
  8
0
  6
CONTINUOUS
 62
     4
 10
-101.5507405794814
 20
146.5657196044922
 30
0.0
 11
-101.5507405794814
 21
146.2204132080078
 31
0.0
  0
LINE
  5
549
  8
0
  6
CONTINUOUS
 62
     4
 10
-101.5507405794814
 20
145.0657196044922
 30
0.0
 11
-101.5507405794814
 21
144.7204132080078
 31
0.0
  0
LINE
  5
54A
  8
0
  6
CONTINUOUS
 62
     4
 10
-101.5507405794814
 20
143.5657196044922
 30
0.0
 11
-101.5507405794814
 21
143.2204132080078
 31
0.0
  0
LINE
  5
54B
  8
0
  6
CONTINUOUS
 62
     4
 10
-101.5507405794814
 20
142.0657196044922
 30
0.0
 11
-101.5507405794814
 21
141.7204132080078
 31
0.0
  0
LINE
  5
54C
  8
0
  6
CONTINUOUS
 62
     4
 10
-101.5507405794814
 20
140.5657196044922
 30
0.0
 11
-101.5507405794814
 21
139.64306640625
 31
0.0
  0
LINE
  5
54D
  8
0
  6
CONTINUOUS
 62
     4
 10
-88.55075072905325
 20
124.5130377905998
 30
0.0
 11
-86.59341594649735
 21
125.6431054293506
 31
0.0
  0
LINE
  5
54E
  8
0
  6
CONTINUOUS
 62
     4
 10
-88.55075635689391
 20
94.31300637729362
 30
0.0
 11
-86.2470065636484
 21
95.64307679362071
 31
0.0
  0
LINE
  5
54F
  8
0
  6
CONTINUOUS
 62
     4
 10
-80.10743872781714
 20
95.64307895989009
 30
0.0
 11
-78.55074424223531
 21
94.74432107888993
 31
0.0
  0
LINE
  5
550
  8
0
  6
CONTINUOUS
 62
     4
 10
-80.25386021100613
 20
125.6430737683461
 30
0.0
 11
-78.55075567675786
 21
124.6597860156753
 31
0.0
  0
LINE
  5
551
  8
0
  6
CONTINUOUS
 62
     4
 10
-83.25385616760028
 20
125.6430800597486
 30
0.0
 11
-78.55074967627584
 21
122.927740560951
 31
0.0
  0
LINE
  5
552
  8
0
  6
CONTINUOUS
 62
     4
 10
-86.25386636083832
 20
125.6430769513486
 30
0.0
 11
-78.5507513051879
 21
121.195681891727
 31
0.0
  0
LINE
  5
553
  8
0
  6
CONTINUOUS
 62
     4
 10
-88.55076504279273
 20
125.2371498868197
 30
0.0
 11
-78.5507519119557
 21
119.4636402516996
 31
0.0
  0
LINE
  5
554
  8
0
  6
CONTINUOUS
 62
     4
 10
-88.55076285700775
 20
123.5050978248455
 30
0.0
 11
-80.12949260438759
 21
118.6430757147423
 31
0.0
  0
LINE
  5
555
  8
0
  6
CONTINUOUS
 62
     4
 10
-88.55076067122278
 20
121.7730457628713
 30
0.0
 11
-83.12949237567878
 21
118.643075398895
 31
0.0
  0
LINE
  5
556
  8
0
  6
CONTINUOUS
 62
     4
 10
-88.55074527093817
 20
120.0409860715031
 30
0.0
 11
-86.12949214696997
 21
118.6430750830477
 31
0.0
  0
LINE
  5
557
  8
0
  6
CONTINUOUS
 62
     4
 10
-83.10744040645685
 20
95.64307534041791
 30
0.0
 11
-78.55075057104867
 21
93.01226952798788
 31
0.0
  0
LINE
  5
558
  8
0
  6
CONTINUOUS
 62
     4
 10
-86.10744017774803
 20
95.64307502457064
 30
0.0
 11
-78.55074838526369
 21
91.28021746601371
 31
0.0
  0
LINE
  5
559
  8
0
  6
CONTINUOUS
 62
     4
 10
-88.55075272306593
 20
95.32167122446253
 30
0.0
 11
-78.55074619947871
 21
89.54816540403954
 31
0.0
  0
LINE
  5
55A
  8
0
  6
CONTINUOUS
 62
     4
 10
-88.55075053728095
 20
93.58961916248836
 30
0.0
 11
-79.98308345049398
 21
88.6430748101086
 31
0.0
  0
LINE
  5
55B
  8
0
  6
CONTINUOUS
 62
     4
 10
-88.55074835149597
 20
91.85756710051419
 30
0.0
 11
-82.98308322178517
 21
88.64307449426133
 31
0.0
  0
LINE
  5
55C
  8
0
  6
CONTINUOUS
 62
     4
 10
-88.55075277296081
 20
90.12551885323705
 30
0.0
 11
-85.98308299307635
 21
88.64307417841405
 31
0.0
  0
LINE
  5
55D
  8
0
  6
CONTINUOUS
 62
     4
 10
-88.55075740193857
 20
92.58096378359204
 30
0.0
 11
-83.24700978114802
 21
95.64308356186038
 31
0.0
  0
LINE
  5
55E
  8
0
  6
CONTINUOUS
 62
     4
 10
-88.55075412121406
 20
90.84890606804231
 30
0.0
 11
-80.24700784697225
 21
95.64307568508903
 31
0.0
  0
LINE
  5
55F
  8
0
  6
CONTINUOUS
 62
     4
 10
-88.55075846988362
 20
89.11686156699221
 30
0.0
 11
-78.55075607582754
 21
94.89036500322956
 31
0.0
  0
LINE
  5
560
  8
0
  6
CONTINUOUS
 62
     4
 10
-86.37136540013253
 20
88.64307499378987
 30
0.0
 11
-78.55075609872793
 21
93.15830538033131
 31
0.0
  0
LINE
  5
561
  8
0
  6
CONTINUOUS
 62
     4
 10
-83.37136397702889
 20
88.64307563161685
 30
0.0
 11
-78.550754980888
 21
91.42625522570566
 31
0.0
  0
LINE
  5
562
  8
0
  6
CONTINUOUS
 62
     4
 10
-80.37136420573771
 20
88.64307531576958
 30
0.0
 11
-78.55075386304807
 21
89.69420507108001
 31
0.0
  0
LINE
  5
563
  8
0
  6
CONTINUOUS
 62
     4
 10
-88.55074095967498
 20
122.7809573922778
 30
0.0
 11
-83.59340427166205
 21
125.6430767473532
 31
0.0
  0
LINE
  5
564
  8
0
  6
CONTINUOUS
 62
     4
 10
-88.5507466453229
 20
121.0489209289889
 30
0.0
 11
-80.59341042633335
 21
125.6430906294822
 31
0.0
  0
LINE
  5
565
  8
0
  6
CONTINUOUS
 62
     4
 10
-88.55074552748297
 20
119.3168707743633
 30
0.0
 11
-78.55074581762213
 21
125.09037266088
 31
0.0
  0
LINE
  5
566
  8
0
  6
CONTINUOUS
 62
     4
 10
-86.7177776838918
 20
118.6430843353467
 30
0.0
 11
-78.5507537847507
 21
123.3583172610459
 31
0.0
  0
LINE
  5
567
  8
0
  6
CONTINUOUS
 62
     4
 10
-83.71778182541667
 20
118.6430993797661
 30
0.0
 11
-78.55076029630484
 21
121.6262803209199
 31
0.0
  0
LINE
  5
568
  8
0
  6
CONTINUOUS
 62
     4
 10
-80.71777628302041
 20
118.6430847765357
 30
0.0
 11
-78.55075490431489
 21
119.8942150146437
 31
0.0
  0
LINE
  5
569
  8
0
  6
CONTINUOUS
 62
     4
 10
91.68966164219827
 20
84.14306640625
 30
0.0
 11
102.1896616421983
 21
84.14306640625
 31
0.0
  0
LINE
  5
56A
  8
0
  6
CONTINUOUS
 62
     4
 10
124.1896540128037
 20
84.14306640625
 30
0.0
 11
134.6896540128037
 21
84.14306640625
 31
0.0
  0
LINE
  5
56B
  8
0
  6
CONTINUOUS
 62
     4
 10
91.68966164219827
 20
147.14306640625
 30
0.0
 11
102.1896616421983
 21
147.14306640625
 31
0.0
  0
LINE
  5
56C
  8
0
  6
CONTINUOUS
 62
     4
 10
124.1896540128037
 20
147.14306640625
 30
0.0
 11
134.6896540128037
 21
147.14306640625
 31
0.0
  0
LINE
  5
56D
  8
0
  6
CONTINUOUS
 62
     4
 10
124.1896540128037
 20
85.64306640625
 30
0.0
 11
134.6896540128037
 21
85.64306640625
 31
0.0
  0
LINE
  5
56E
  8
0
  6
CONTINUOUS
 62
     4
 10
124.1896540128037
 20
87.14306640625
 30
0.0
 11
134.6896540128037
 21
87.14306640625
 31
0.0
  0
LINE
  5
56F
  8
0
  6
CONTINUOUS
 62
     4
 10
124.1896540128037
 20
88.64306640625
 30
0.0
 11
134.6896540128037
 21
88.64306640625
 31
0.0
  0
LINE
  5
570
  8
0
  6
CONTINUOUS
 62
     4
 10
124.1896540128037
 20
90.14306640625
 30
0.0
 11
134.6896540128037
 21
90.14306640625
 31
0.0
  0
LINE
  5
571
  8
0
  6
CONTINUOUS
 62
     4
 10
124.1896540128037
 20
91.64306640625
 30
0.0
 11
134.6896540128037
 21
91.64306640625
 31
0.0
  0
LINE
  5
572
  8
0
  6
CONTINUOUS
 62
     4
 10
91.68966164219827
 20
85.64306640625
 30
0.0
 11
102.1896616421983
 21
85.64306640625
 31
0.0
  0
LINE
  5
573
  8
0
  6
CONTINUOUS
 62
     4
 10
91.68966164219827
 20
87.14306640625
 30
0.0
 11
102.1896616421983
 21
87.14306640625
 31
0.0
  0
LINE
  5
574
  8
0
  6
CONTINUOUS
 62
     4
 10
91.68966164219827
 20
88.64306640625
 30
0.0
 11
102.1896616421983
 21
88.64306640625
 31
0.0
  0
LINE
  5
575
  8
0
  6
CONTINUOUS
 62
     4
 10
91.68966164219827
 20
90.14306640625
 30
0.0
 11
102.1896616421983
 21
90.14306640625
 31
0.0
  0
LINE
  5
576
  8
0
  6
CONTINUOUS
 62
     4
 10
91.68966164219827
 20
91.64306640625
 30
0.0
 11
102.1896616421983
 21
91.64306640625
 31
0.0
  0
LINE
  5
577
  8
0
  6
CONTINUOUS
 62
     4
 10
91.68966164219827
 20
145.64306640625
 30
0.0
 11
102.1896616421983
 21
145.64306640625
 31
0.0
  0
LINE
  5
578
  8
0
  6
CONTINUOUS
 62
     4
 10
91.68966164219827
 20
144.14306640625
 30
0.0
 11
102.1896616421983
 21
144.14306640625
 31
0.0
  0
LINE
  5
579
  8
0
  6
CONTINUOUS
 62
     4
 10
91.68966164219827
 20
142.64306640625
 30
0.0
 11
102.1896616421983
 21
142.64306640625
 31
0.0
  0
LINE
  5
57A
  8
0
  6
CONTINUOUS
 62
     4
 10
91.68966164219827
 20
141.14306640625
 30
0.0
 11
102.1896616421983
 21
141.14306640625
 31
0.0
  0
LINE
  5
57B
  8
0
  6
CONTINUOUS
 62
     4
 10
91.68966164219827
 20
139.64306640625
 30
0.0
 11
102.1896616421983
 21
139.64306640625
 31
0.0
  0
LINE
  5
57C
  8
0
  6
CONTINUOUS
 62
     4
 10
124.1896540128037
 20
145.64306640625
 30
0.0
 11
134.6896540128037
 21
145.64306640625
 31
0.0
  0
LINE
  5
57D
  8
0
  6
CONTINUOUS
 62
     4
 10
124.1896540128037
 20
144.14306640625
 30
0.0
 11
134.6896540128037
 21
144.14306640625
 31
0.0
  0
LINE
  5
57E
  8
0
  6
CONTINUOUS
 62
     4
 10
124.1896540128037
 20
142.64306640625
 30
0.0
 11
134.6896540128037
 21
142.64306640625
 31
0.0
  0
LINE
  5
57F
  8
0
  6
CONTINUOUS
 62
     4
 10
124.1896540128037
 20
141.14306640625
 30
0.0
 11
134.6896540128037
 21
141.14306640625
 31
0.0
  0
LINE
  5
580
  8
0
  6
CONTINUOUS
 62
     4
 10
124.1896540128037
 20
139.64306640625
 30
0.0
 11
134.6896540128037
 21
139.64306640625
 31
0.0
  0
LINE
  5
581
  8
0
  6
CONTINUOUS
 62
     4
 10
124.1896540128037
 20
138.14306640625
 30
0.0
 11
134.6896540128037
 21
138.14306640625
 31
0.0
  0
LINE
  5
582
  8
0
  6
CONTINUOUS
 62
     4
 10
91.68966164219827
 20
138.14306640625
 30
0.0
 11
102.1896616421983
 21
138.14306640625
 31
0.0
  0
LINE
  5
583
  8
0
  6
CONTINUOUS
 62
     4
 10
-200.550748208876
 20
-101.35693359375
 30
0.0
 11
-200.550748208876
 21
-113.8922271728516
 31
0.0
  0
CIRCLE
  5
584
  8
0
  6
CONTINUOUS
 62
     4
 10
113.1896692715928
 20
-36.35693359375
 30
0.0
 40
4.0
  0
CIRCLE
  5
585
  8
0
  6
CONTINUOUS
 62
     4
 10
113.1896692715928
 20
23.64306640625
 30
0.0
 40
44.20000076293945
  0
ARC
  5
586
  8
0
  6
CONTINUOUS
 62
     4
 10
113.1896692715928
 20
23.64306640625
 30
0.0
 40
58.0
 50
114.4433575815537
 51
128.4606816076041
  0
ARC
  5
587
  8
0
  6
CONTINUOUS
 62
     4
 10
113.1896692715928
 20
23.64306640625
 30
0.0
 40
58.0
 50
234.9870476212566
 51
247.3551541703157
  0
ARC
  5
588
  8
0
  6
CONTINUOUS
 62
     4
 10
113.1896692715928
 20
23.64306640625
 30
0.0
 40
58.0
 50
354.9870782813175
 51
368.3195520458954
  0
ARC
  5
589
  8
0
  6
CONTINUOUS
 62
     4
 10
113.1896692715928
 20
23.64306640625
 30
0.0
 40
64.0
 50
112.0243299737778
 51
125.4005792745199
  0
ARC
  5
58A
  8
0
  6
CONTINUOUS
 62
     4
 10
113.1896692715928
 20
23.64306640625
 30
0.0
 40
70.0
 50
110.0510610018044
 51
125.9591521448436
  0
ARC
  5
58B
  8
0
  6
CONTINUOUS
 62
     4
 10
113.1896692715928
 20
23.64306640625
 30
0.0
 40
76.0
 50
108.4084961290648
 51
130.1473831627604
  0
ARC
  5
58C
  8
0
  6
CONTINUOUS
 62
     4
 10
113.1896692715928
 20
23.64306640625
 30
0.0
 40
82.0
 50
107.0186687461831
 51
192.8148878920043
  0
ARC
  5
58D
  8
0
  6
CONTINUOUS
 62
     4
 10
113.1896692715928
 20
23.64306640625
 30
0.0
 40
88.0
 50
105.8266368114757
 51
194.0740469258745
  0
ARC
  5
58E
  8
0
  6
CONTINUOUS
 62
     4
 10
113.1896692715928
 20
23.64306640625
 30
0.0
 40
94.0
 50
104.79251202019
 51
195.2426376513503
  0
ARC
  5
58F
  8
0
  6
CONTINUOUS
 62
     4
 10
113.1896692715928
 20
23.64306640625
 30
0.0
 40
64.0
 50
232.5079894808655
 51
244.7258045474276
  0
ARC
  5
590
  8
0
  6
CONTINUOUS
 62
     4
 10
113.1896692715928
 20
23.64306640625
 30
0.0
 40
70.0
 50
230.4872916752954
 51
245.3184600617096
  0
ARC
  5
591
  8
0
  6
CONTINUOUS
 62
     4
 10
113.1896692715928
 20
23.64306640625
 30
0.0
 40
76.0
 50
228.8061908752586
 51
248.9180039052522
  0
ARC
  5
592
  8
0
  6
CONTINUOUS
 62
     4
 10
113.1896692715928
 20
23.64306640625
 30
0.0
 40
82.0
 50
227.3843503957371
 51
312.7609397944257
  0
ARC
  5
593
  8
0
  6
CONTINUOUS
 62
     4
 10
113.1896692715928
 20
23.64306640625
 30
0.0
 40
88.0
 50
226.1652572515382
 51
313.8209134366254
  0
ARC
  5
594
  8
0
  6
CONTINUOUS
 62
     4
 10
113.1896692715928
 20
23.64306640625
 30
0.0
 40
94.0
 50
225.1079166472635
 51
314.9199250250263
  0
ARC
  5
595
  8
0
  6
CONTINUOUS
 62
     4
 10
113.1896692715928
 20
23.64306640625
 30
0.0
 40
64.0
 50
352.5080098956426
 51
364.9724204044516
  0
ARC
  5
596
  8
0
  6
CONTINUOUS
 62
     4
 10
113.1896692715928
 20
23.64306640625
 30
0.0
 40
70.0
 50
350.4873189202618
 51
365.8060061459507
  0
ARC
  5
597
  8
0
  6
CONTINUOUS
 62
     4
 10
113.1896692715928
 20
23.64306640625
 30
0.0
 40
76.0
 50
348.8062215353195
 51
369.8847547810009
  0
ARC
  5
598
  8
0
  6
CONTINUOUS
 62
     4
 10
113.1896692715928
 20
23.64306640625
 30
0.0
 40
82.0
 50
347.3843750793824
 51
433.0415990218203
  0
ARC
  5
599
  8
0
  6
CONTINUOUS
 62
     4
 10
113.1896692715928
 20
23.64306640625
 30
0.0
 40
58.0
 50
262.6448126651452
 51
265.3532627088113
  0
ARC
  5
59A
  8
0
  6
CONTINUOUS
 62
     4
 10
113.1896692715928
 20
23.64306640625
 30
0.0
 40
64.0
 50
265.274148627655
 51
267.5234801855019
  0
ARC
  5
59B
  8
0
  6
CONTINUOUS
 62
     4
 10
113.1896692715928
 20
23.64306640625
 30
0.0
 40
70.0
 50
264.6815067737513
 51
275.318474556914
  0
ARC
  5
59C
  8
0
  6
CONTINUOUS
 62
     4
 10
113.1896692715928
 20
23.64306640625
 30
0.0
 40
76.0
 50
261.0819561000196
 51
278.9180320608349
  0
ARC
  5
59D
  8
0
  6
CONTINUOUS
 62
     4
 10
113.1896692715928
 20
23.64306640625
 30
0.0
 40
76.0
 50
291.0819842556023
 51
311.1937870403121
  0
ARC
  5
59E
  8
0
  6
CONTINUOUS
 62
     4
 10
113.1896692715928
 20
23.64306640625
 30
0.0
 40
70.0
 50
294.6815349293341
 51
309.5126828251806
  0
ARC
  5
59F
  8
0
  6
CONTINUOUS
 62
     4
 10
113.1896692715928
 20
23.64306640625
 30
0.0
 40
64.0
 50
295.2741699530486
 51
307.491998679989
  0
ARC
  5
5A0
  8
0
  6
CONTINUOUS
 62
     4
 10
113.1896692715928
 20
23.64306640625
 30
0.0
 40
58.0
 50
292.6448339905388
 51
305.0129268792196
  0
ARC
  5
5A1
  8
0
  6
CONTINUOUS
 62
     4
 10
113.1896692715928
 20
23.64306640625
 30
0.0
 40
64.0
 50
272.3787543079512
 51
274.7258395331995
  0
ARC
  5
5A2
  8
0
  6
CONTINUOUS
 62
     4
 10
113.1896692715928
 20
23.64306640625
 30
0.0
 40
58.0
 50
275.0139164218231
 51
277.3551823258985
  0
CIRCLE
  5
5A3
  8
0
  6
CONTINUOUS
 62
     4
 10
61.22813667881937
 20
53.64306640625
 30
0.0
 40
4.0
  0
CIRCLE
  5
5A4
  8
0
  6
CONTINUOUS
 62
     4
 10
165.1511866055772
 20
53.64306640625
 30
0.0
 40
4.0
  0
ARC
  5
5A5
  8
0
  6
CONTINUOUS
 62
     4
 10
113.1896692715928
 20
23.64306640625
 30
0.0
 40
70.0
 50
174.4066811353629
 51
189.5126416924649
  0
ARC
  5
5A6
  8
0
  6
CONTINUOUS
 62
     4
 10
113.1896692715928
 20
23.64306640625
 30
0.0
 40
64.0
 50
174.8353438076728
 51
187.4919575472732
  0
ARC
  5
5A7
  8
0
  6
CONTINUOUS
 62
     4
 10
113.1896692715928
 20
23.64306640625
 30
0.0
 40
58.0
 50
171.4247025060053
 51
185.0128857465038
  0
ARC
  5
5A8
  8
0
  6
CONTINUOUS
 62
     4
 10
113.1896692715928
 20
23.64306640625
 30
0.0
 40
58.0
 50
154.8578327873293
 51
158.9473948924961
  0
ARC
  5
5A9
  8
0
  6
CONTINUOUS
 62
     4
 10
113.1896692715928
 20
23.64306640625
 30
0.0
 40
58.0
 50
141.8436996258137
 51
145.1255098993564
  0
ARC
  5
5AA
  8
0
  6
CONTINUOUS
 62
     4
 10
113.1896692715928
 20
23.64306640625
 30
0.0
 40
64.0
 50
144.5380453288437
 51
147.0689582654135
  0
ARC
  5
5AB
  8
0
  6
CONTINUOUS
 62
     4
 10
113.1896692715928
 20
23.64306640625
 30
0.0
 40
70.0
 50
144.332565917853
 51
155.8650807842311
  0
ARC
  5
5AC
  8
0
  6
CONTINUOUS
 62
     4
 10
113.1896692715928
 20
23.64306640625
 30
0.0
 40
76.0
 50
140.0656374603193
 51
160.9418237905181
  0
ARC
  5
5AD
  8
0
  6
CONTINUOUS
 62
     4
 10
113.1896692715928
 20
23.64306640625
 30
0.0
 40
76.0
 50
170.0811086736154
 51
191.1937424925017
  0
ARC
  5
5AE
  8
0
  6
CONTINUOUS
 62
     4
 10
113.1896692715928
 20
23.64306640625
 30
0.0
 40
58.0
 50
51.74085496300265
 51
65.55666108778097
  0
ARC
  5
5AF
  8
0
  6
CONTINUOUS
 62
     4
 10
113.1896692715928
 20
23.64306640625
 30
0.0
 40
64.0
 50
54.73300032893976
 51
67.97568869555687
  0
ARC
  5
5B0
  8
0
  6
CONTINUOUS
 62
     4
 10
113.1896692715928
 20
23.64306640625
 30
0.0
 40
70.0
 50
54.08686784855112
 51
69.94895766753022
  0
ARC
  5
5B1
  8
0
  6
CONTINUOUS
 62
     4
 10
113.1896692715928
 20
23.64306640625
 30
0.0
 40
76.0
 50
49.23041210337529
 51
71.59152254026994
  0
ARC
  5
5B2
  8
0
  6
CONTINUOUS
 62
     4
 10
113.1896692715928
 20
23.64306640625
 30
0.0
 40
76.0
 50
19.91693065750015
 51
38.99307868855006
  0
ARC
  5
5B3
  8
0
  6
CONTINUOUS
 62
     4
 10
113.1896692715928
 20
23.64306640625
 30
0.0
 40
70.0
 50
23.95966498571733
 51
35.96513288607836
  0
ARC
  5
5B4
  8
0
  6
CONTINUOUS
 62
     4
 10
113.1896692715928
 20
23.64306640625
 30
0.0
 40
64.0
 50
24.03040013230928
 51
26.95105561575115
  0
ARC
  5
5B5
  8
0
  6
CONTINUOUS
 62
     4
 10
113.1896692715928
 20
23.64306640625
 30
0.0
 40
58.0
 50
21.25374040449692
 51
25.14109817438007
  0
ARC
  5
5B6
  8
0
  6
CONTINUOUS
 62
     4
 10
113.1896692715928
 20
23.64306640625
 30
0.0
 40
58.0
 50
34.64191009288802
 51
38.4760299532855
  0
ARC
  5
5B7
  8
0
  6
CONTINUOUS
 62
     4
 10
113.1896692715928
 20
23.64306640625
 30
0.0
 40
64.0
 50
32.55206345216089
 51
35.32537980237453
  0
ARC
  5
5B8
  8
0
  6
CONTINUOUS
 62
     4
 10
113.1896692715928
 20
23.64306640625
 30
0.0
 40
64.0
 50
152.8399490196974
 51
155.4850763795682
  0
LINE
  5
5B9
  8
0
  6
CONTINUOUS
 62
     4
 10
213.9525058930222
 20
-21.83067523244699
 30
0.0
 11
219.202506518871
 21
-12.73740865591844
 31
0.0
  0
LINE
  5
5BA
  8
0
  6
CONTINUOUS
 62
     4
 10
200.3005801205937
 20
-51.47650052908739
 30
0.0
 11
205.550573117047
 21
-42.38324716705756
 31
0.0
  0
LINE
  5
5BB
  8
0
  6
CONTINUOUS
 62
     4
 10
201.5996049884562
 20
-52.22649298909892
 30
0.0
 11
206.8496017996073
 21
-43.13323301981973
 31
0.0
  0
LINE
  5
5BC
  8
0
  6
CONTINUOUS
 62
     4
 10
202.8986430708174
 20
-52.97649307850588
 30
0.0
 11
208.1486436966662
 21
-43.88322650197733
 31
0.0
  0
LINE
  5
5BD
  8
0
  6
CONTINUOUS
 62
     4
 10
204.1976849678764
 20
-53.72648656066349
 30
0.0
 11
209.4476779643297
 21
-44.63323319863366
 31
0.0
  0
LINE
  5
5BE
  8
0
  6
CONTINUOUS
 62
     4
 10
205.4967192355399
 20
-54.47649325731982
 30
0.0
 11
210.7467198613886
 21
-45.38322668079127
 31
0.0
  0
LINE
  5
5BF
  8
0
  6
CONTINUOUS
 62
     4
 10
206.7957611325988
 20
-55.22648673947742
 30
0.0
 11
212.0457617584476
 21
-46.13322016294887
 31
0.0
  0
LINE
  5
5C0
  8
0
  6
CONTINUOUS
 62
     4
 10
208.0948124294587
 20
-55.97649445827983
 30
0.0
 11
213.3448092406098
 21
-46.88323448900064
 31
0.0
  0
LINE
  5
5C1
  8
0
  6
CONTINUOUS
 62
     4
 10
215.2515137316883
 20
-22.58066667031244
 30
0.0
 11
220.501514357537
 21
-13.48740009378389
 31
0.0
  0
LINE
  5
5C2
  8
0
  6
CONTINUOUS
 62
     4
 10
216.5505820577447
 20
-23.33067541126093
 30
0.0
 11
221.8005826835934
 21
-14.23740883473238
 31
0.0
  0
LINE
  5
5C3
  8
0
  6
CONTINUOUS
 62
     4
 10
217.8496031109094
 20
-24.08067447852181
 30
0.0
 11
223.0996037367582
 21
-14.98740790199327
 31
0.0
  0
LINE
  5
5C4
  8
0
  6
CONTINUOUS
 62
     4
 10
219.1486450079684
 20
-24.83066796067942
 30
0.0
 11
224.3986456338171
 21
-15.73740138415087
 31
0.0
  0
LINE
  5
5C5
  8
0
  6
CONTINUOUS
 62
     4
 10
220.4476792756319
 20
-25.58067465733575
 30
0.0
 11
225.6976799014806
 21
-16.4874080808072
 31
0.0
  0
LINE
  5
5C6
  8
0
  6
CONTINUOUS
 62
     4
 10
221.7467211726908
 20
-26.33066813949336
 30
0.0
 11
226.9967217985396
 21
-17.23740156296481
 31
0.0
  0
LINE
  5
5C7
  8
0
  6
CONTINUOUS
 62
     4
 10
223.0457630697498
 20
-27.08066162165096
 30
0.0
 11
228.2957636955985
 21
-17.98739504512241
 31
0.0
  0
LINE
  5
5C8
  8
0
  6
CONTINUOUS
 62
     4
 10
224.344810551912
 20
-27.83067594770273
 30
0.0
 11
229.5948111777608
 21
-18.73740937117418
 31
0.0
  0
LINE
  5
5C9
  8
0
  6
CONTINUOUS
 62
     4
 10
225.6438618487719
 20
-28.58068366650514
 30
0.0
 11
230.8938624746207
 21
-19.48741708997659
 31
0.0
  0
LINE
  5
5CA
  8
0
  6
CONTINUOUS
 62
     4
 10
209.3938675410164
 20
-56.72649556983288
 30
0.0
 11
214.6438605374697
 21
-47.63324220780305
 31
0.0
  0
LINE
  5
5CB
  8
0
  6
CONTINUOUS
 62
     4
 10
197.702507770569
 20
-49.97649374302409
 30
0.0
 11
202.95250458172
 21
-40.88323377374491
 31
0.0
  0
LINE
  5
5CC
  8
0
  6
CONTINUOUS
 62
     4
 10
199.001515609235
 20
-50.72648518088954
 30
0.0
 11
204.2515124203861
 21
-41.63322521161035
 31
0.0
  0
ARC
  5
5CD
  8
0
  6
CONTINUOUS
 62
     4
 10
113.1896692715928
 20
23.64306640625
 30
0.0
 40
88.0
 50
346.1652819351835
 51
434.0740299261919
  0
ARC
  5
5CE
  8
0
  6
CONTINUOUS
 62
     4
 10
113.1896692715928
 20
23.64306640625
 30
0.0
 40
94.0
 50
345.1079438922299
 51
435.1947068746401
  0
LINE
  5
5CF
  8
0
  6
CONTINUOUS
 62
     4
 10
-180.3724645174697
 20
58.64306640625
 30
0.0
 11
-180.3724645174697
 21
46.02639007568359
 31
0.0
  0
LINE
  5
5D0
  8
0
  6
CONTINUOUS
 62
     4
 10
-153.3724645174697
 20
58.64306640625
 30
0.0
 11
-153.3724645174697
 21
45.74570083618164
 31
0.0
  0
LINE
  5
5D1
  8
0
  6
CONTINUOUS
 62
     4
 10
-180.3724645174697
 20
0.4232044219970703
 30
0.0
 11
-180.3724645174697
 21
-11.35693359375
 31
0.0
  0
LINE
  5
5D2
  8
0
  6
CONTINUOUS
 62
     4
 10
-153.3724645174697
 20
0.9845829010009766
 30
0.0
 11
-153.3724645174697
 21
-11.35693359375
 31
0.0
  0
LINE
  5
5D3
  8
0
  6
CONTINUOUS
 62
     4
 10
-134.3724645174697
 20
65.64306640625
 30
0.0
 11
-124.3724645174697
 21
65.64306640625
 31
0.0
  0
LINE
  5
5D4
  8
0
  6
CONTINUOUS
 62
     4
 10
-134.3724645174697
 20
60.64306640624999
 30
0.0
 11
-124.3724645174697
 21
60.64306640624999
 31
0.0
  0
CIRCLE
  5
5D5
  8
0
  6
CONTINUOUS
 62
     4
 10
113.1895966790116
 20
63.14306640624999
 30
0.0
 40
2.5
  0
CIRCLE
  5
5D6
  8
0
  6
CONTINUOUS
 62
     4
 10
147.3976769857512
 20
3.893110779806442
 30
0.0
 40
2.5
  0
CIRCLE
  5
5D7
  8
0
  6
CONTINUOUS
 62
     4
 10
78.98167008678055
 20
3.893022032693544
 30
0.0
 40
2.499999999999999
  0
LINE
  5
5D8
  8
0
  6
DIVIDE
 62
     9
 10
-109.3724568880752
 20
71.64306640625
 30
0.0
 11
-109.3724568880752
 21
43.64306640625
 31
0.0
  0
LINE
  5
5D9
  8
0
  6
DIVIDE
 62
     9
 10
-213.550748208876
 20
-37.03193664550781
 30
0.0
 11
-213.550748208876
 21
-49.03193664550781
 31
0.0
  0
LINE
  5
5DA
  8
0
  6
DIVIDE
 62
     9
 10
-177.550748208876
 20
-37.03193664550781
 30
0.0
 11
-177.550748208876
 21
-49.03193664550781
 31
0.0
  0
LINE
  5
5DB
  8
0
  6
DIVIDE
 62
     9
 10
-213.550748208876
 20
-37.03193664550781
 30
0.0
 11
-164.8844121493056
 21
-37.03193664550781
 31
0.0
  0
LINE
  5
5DC
  8
0
  6
DIVIDE
 62
     9
 10
-213.550748208876
 20
-49.03193664550781
 30
0.0
 11
-165.6924108065322
 21
-49.03193664550781
 31
0.0
  0
LINE
  5
5DD
  8
0
  6
DIVIDE
 62
     9
 10
-213.550748208876
 20
-37.88192749023438
 30
0.0
 11
-177.550748208876
 21
-37.88192749023438
 31
0.0
  0
LINE
  5
5DE
  8
0
  6
DIVIDE
 62
     9
 10
-213.550748208876
 20
-48.18194580078125
 30
0.0
 11
-177.550748208876
 21
-48.18194580078125
 31
0.0
  0
LINE
  5
5DF
  8
0
  6
CONTINUOUS
 62
     2
 10
108.1234045861839
 20
129.5680617920489
 30
0.0
 11
113.18966153138
 21
132.4930596134936
 31
0.0
  0
LINE
  5
5E0
  8
0
  6
CONTINUOUS
 62
     2
 10
113.189696816658
 20
132.4930971503723
 30
0.0
 11
118.2559398321719
 21
129.568090590883
 31
0.0
  0
LINE
  5
5E1
  8
0
  6
CONTINUOUS
 62
     2
 10
118.2559229337022
 20
129.5680541992188
 30
0.0
 11
118.2559229337022
 21
123.7180633544922
 31
0.0
  0
LINE
  5
5E2
  8
0
  6
CONTINUOUS
 62
     2
 10
118.2559136267931
 20
123.7180631289448
 30
0.0
 11
113.189656681597
 21
120.7930653075
 31
0.0
  0
LINE
  5
5E3
  8
0
  6
CONTINUOUS
 62
     2
 10
113.1896534950721
 20
120.7930614435445
 30
0.0
 11
108.1234087361227
 21
123.71806486485
 31
0.0
  0
LINE
  5
5E4
  8
0
  6
CONTINUOUS
 62
     2
 10
108.1234156094834
 20
123.7180709838867
 30
0.0
 11
108.1234156094834
 21
129.5680694580078
 31
0.0
  0
LINE
  5
5E5
  8
0
  6
CONTINUOUS
 62
     2
 10
108.1234049255545
 20
99.56806835062434
 30
0.0
 11
113.1896618707505
 21
102.4930661720691
 31
0.0
  0
LINE
  5
5E6
  8
0
  6
CONTINUOUS
 62
     2
 10
113.1896891162756
 20
102.4930983020836
 30
0.0
 11
118.2559321317895
 21
99.56809174259433
 31
0.0
  0
LINE
  5
5E7
  8
0
  6
CONTINUOUS
 62
     2
 10
118.2559229337022
 20
99.56806182861328
 30
0.0
 11
118.2559229337022
 21
93.71806335449219
 31
0.0
  0
LINE
  5
5E8
  8
0
  6
CONTINUOUS
 62
     2
 10
118.2559045663472
 20
93.71805545088591
 30
0.0
 11
113.1896476211511
 21
90.79305762944114
 31
0.0
  0
LINE
  5
5E9
  8
0
  6
CONTINUOUS
 62
     2
 10
113.1896685279863
 20
90.79307802087806
 30
0.0
 11
108.123423769037
 21
93.71808144218358
 31
0.0
  0
LINE
  5
5EA
  8
0
  6
CONTINUOUS
 62
     2
 10
108.1234156094834
 20
93.71807098388672
 30
0.0
 11
108.1234156094834
 21
99.56806945800781
 31
0.0
  0
LINE
  5
5EB
  8
0
  6
CONTINUOUS
 62
     2
 10
171.3432756554649
 20
-9.931946806827909
 30
0.0
 11
176.409532600661
 21
-7.006948985383133
 31
0.0
  0
LINE
  5
5EC
  8
0
  6
CONTINUOUS
 62
     2
 10
176.4095248893051
 20
-7.006917135823187
 30
0.0
 11
181.4757745120629
 21
-9.93192751001925
 31
0.0
  0
LINE
  5
5ED
  8
0
  6
CONTINUOUS
 62
     2
 10
181.4757715665147
 20
-9.931934356689453
 30
0.0
 11
181.4757715665147
 21
-15.78193283081055
 31
0.0
  0
LINE
  5
5EE
  8
0
  6
CONTINUOUS
 62
     2
 10
181.4757789740384
 20
-15.78193555905182
 30
0.0
 11
176.4095220288424
 21
-18.70693338049659
 31
0.0
  0
LINE
  5
5EF
  8
0
  6
CONTINUOUS
 62
     2
 10
176.4095304197927
 20
-18.70694465346605
 30
0.0
 11
171.3432790535972
 21
-15.78193741745781
 31
0.0
  0
LINE
  5
5F0
  8
0
  6
CONTINUOUS
 62
     2
 10
171.3432642422959
 20
-15.78192329406738
 30
0.0
 11
171.3432642422959
 21
-9.931924819946289
 31
0.0
  0
LINE
  5
5F1
  8
0
  6
CONTINUOUS
 62
     2
 10
197.3240381680772
 20
-30.78192138671875
 30
0.0
 11
197.3240381680772
 21
-24.93192291259766
 31
0.0
  0
LINE
  5
5F2
  8
0
  6
CONTINUOUS
 62
     2
 10
18.92279954580235
 20
-24.93193044716099
 30
0.0
 11
23.98905814281178
 21
-22.00693167204361
 31
0.0
  0
LINE
  5
5F3
  8
0
  6
CONTINUOUS
 62
     2
 10
23.98905629689229
 20
-22.00693068742913
 30
0.0
 11
29.05529931240621
 21
-24.93193724691837
 31
0.0
  0
LINE
  5
5F4
  8
0
  6
CONTINUOUS
 62
     2
 10
29.05529656041117
 20
-24.93193435668945
 30
0.0
 11
29.05529656041117
 21
-30.78193283081055
 31
0.0
  0
LINE
  5
5F5
  8
0
  6
CONTINUOUS
 62
     2
 10
29.05529397562313
 20
-30.78194195061792
 30
0.0
 11
23.98904198586715
 21
-33.70693691104486
 31
0.0
  0
LINE
  5
5F6
  8
0
  6
CONTINUOUS
 62
     2
 10
23.98903983891191
 20
-33.70692517043153
 30
0.0
 11
18.92279507996258
 21
-30.78192174912601
 31
0.0
  0
LINE
  5
5F7
  8
0
  6
CONTINUOUS
 62
     2
 10
18.92279686558695
 20
-30.78192138671875
 30
0.0
 11
18.92279686558695
 21
-24.93192481994629
 31
0.0
  0
LINE
  5
5F8
  8
0
  6
CONTINUOUS
 62
     2
 10
44.90356342380059
 20
-9.931925629265379
 30
0.0
 11
49.96982036899667
 21
-7.006927807820603
 31
0.0
  0
LINE
  5
5F9
  8
0
  6
CONTINUOUS
 62
     2
 10
49.96982267320138
 20
-7.006922112083544
 30
0.0
 11
55.0360656887153
 21
-9.931928671572791
 31
0.0
  0
LINE
  5
5FA
  8
0
  6
CONTINUOUS
 62
     2
 10
55.03605904210062
 20
-9.931936264038086
 30
0.0
 11
55.03605904210062
 21
-15.78193473815918
 31
0.0
  0
LINE
  5
5FB
  8
0
  6
CONTINUOUS
 62
     2
 10
55.03605264264942
 20
-15.7819357364408
 30
0.0
 11
49.9698023047068
 21
-18.70692974319513
 31
0.0
  0
LINE
  5
5FC
  8
0
  6
CONTINUOUS
 62
     2
 10
49.96980295487137
 20
-18.70692820256863
 30
0.0
 11
44.90355819592204
 21
-15.78192478126312
 31
0.0
  0
LINE
  5
5FD
  8
0
  6
CONTINUOUS
 62
     2
 10
44.9035593472764
 20
-15.78192520141602
 30
0.0
 11
44.9035593472764
 21
-9.931926727294922
 31
0.0
  0
LINE
  5
5FE
  8
0
  6
CONTINUOUS
 62
     2
 10
90.86666470361442
 20
-37.83502932744796
 30
0.0
 11
95.93291504155701
 21
-34.91003532069362
 31
0.0
  0
LINE
  5
5FF
  8
0
  6
CONTINUOUS
 62
     2
 10
95.93291710915871
 20
-34.91003763489164
 30
0.0
 11
100.9991667319166
 21
-37.8350480090877
 31
0.0
  0
LINE
  5
600
  8
0
  6
CONTINUOUS
 62
     2
 10
100.9991480313584
 20
-37.83504867553711
 30
0.0
 11
100.9991480313584
 21
-43.6850471496582
 31
0.0
  0
LINE
  5
601
  8
0
  6
CONTINUOUS
 62
     2
 10
100.9991482004276
 20
-43.6850295237432
 30
0.0
 11
95.93289125523151
 21
-46.61002734518797
 31
0.0
  0
LINE
  5
602
  8
0
  6
CONTINUOUS
 62
     2
 10
95.93289262284101
 20
-46.6100447176832
 30
0.0
 11
90.86664125664547
 21
-43.68503748167495
 31
0.0
  0
LINE
  5
603
  8
0
  6
CONTINUOUS
 62
     2
 10
90.86665596592874
 20
-43.68503570556641
 30
0.0
 11
90.86665596592874
 21
-37.83503723144531
 31
0.0
  0
CIRCLE
  5
604
  8
0
  6
CONTINUOUS
 62
     2
 10
113.1896692715928
 20
126.64306640625
 30
0.0
 40
9.0
  0
CIRCLE
  5
605
  8
0
  6
CONTINUOUS
 62
     2
 10
113.1896692715928
 20
96.64306640625
 30
0.0
 40
9.0
  0
CIRCLE
  5
606
  8
0
  6
CONTINUOUS
 62
     2
 10
176.4095179044053
 20
-12.85692596435547
 30
0.0
 40
9.0
  0
CIRCLE
  5
607
  8
0
  6
CONTINUOUS
 62
     2
 10
23.98904671299905
 20
-27.85692596435547
 30
0.0
 40
9.0
  0
CIRCLE
  5
608
  8
0
  6
CONTINUOUS
 62
     2
 10
49.96981300938577
 20
-12.85692596435547
 30
0.0
 40
9.0
  0
CIRCLE
  5
609
  8
0
  6
CONTINUOUS
 62
     2
 10
95.93290199864362
 20
-40.76004028320313
 30
0.0
 40
9.0
  0
LINE
  5
60A
  8
0
  6
CONTINUOUS
 62
     2
 10
202.3902879670983
 20
-22.00691504328597
 30
0.0
 11
207.4565375898561
 21
-24.93192541748203
 31
0.0
  0
LINE
  5
60B
  8
0
  6
CONTINUOUS
 62
     2
 10
207.4565454922959
 20
-24.93193244934082
 30
0.0
 11
207.4565454922959
 21
-30.78192901611328
 31
0.0
  0
LINE
  5
60C
  8
0
  6
CONTINUOUS
 62
     2
 10
207.456525719601
 20
-30.78193206749347
 30
0.0
 11
202.3902687744049
 21
-33.70692988893825
 31
0.0
  0
LINE
  5
60D
  8
0
  6
CONTINUOUS
 62
     2
 10
197.3240356155344
 20
-24.93193568588868
 30
0.0
 11
202.3902925607304
 21
-22.0069378644439
 31
0.0
  0
LINE
  5
60E
  8
0
  6
CONTINUOUS
 62
     2
 10
202.3902777796576
 20
-33.70693865999419
 30
0.0
 11
197.3240264134621
 21
-30.78193142398595
 31
0.0
  0
CIRCLE
  5
60F
  8
0
  6
CONTINUOUS
 62
     2
 10
202.3902918301865
 20
-27.85692596435547
 30
0.0
 40
9.0
  0
LINE
  5
610
  8
0
  6
CONTINUOUS
 62
     6
 10
-70.01249442469626
 20
-126.5693054199219
 30
0.0
 11
-49.34976706873923
 21
-126.5693054199219
 31
0.0
  0
LINE
  5
611
  8
0
  6
CONTINUOUS
 62
     6
 10
-70.01249442469626
 20
-146.6578574216069
 30
0.0
 11
73.03569283116312
 21
-146.6578574216069
 31
0.0
  0
LINE
  5
612
  8
0
  6
CONTINUOUS
 62
     6
 10
-70.01249442469626
 20
-139.8749084472656
 30
0.0
 11
73.03569283116312
 21
-139.8749084472656
 31
0.0
  0
LINE
  5
613
  8
0
  6
CONTINUOUS
 62
     6
 10
-70.01249442469626
 20
-133.2221069335938
 30
0.0
 11
73.03569283116312
 21
-133.2221069335938
 31
0.0
  0
LINE
  5
614
  8
0
  6
CONTINUOUS
 62
     6
 10
-70.01249442469626
 20
-153.3106589352787
 30
0.0
 11
73.03569283116312
 21
-153.3106589352787
 31
0.0
  0
LINE
  5
615
  8
0
  6
CONTINUOUS
 62
     6
 10
-70.01249442469626
 20
-159.9634604489506
 30
0.0
 11
73.03569283116312
 21
-159.9634604489506
 31
0.0
  0
LINE
  5
616
  8
0
  6
CONTINUOUS
 62
     6
 10
-70.01249442469626
 20
-166.6162619626225
 30
0.0
 11
73.03569283116312
 21
-166.6162619626225
 31
0.0
  0
LINE
  5
617
  8
0
  6
CONTINUOUS
 62
     6
 10
-70.01249442469626
 20
-179.9218649899662
 30
0.0
 11
73.03569283116312
 21
-179.9218649899662
 31
0.0
  0
LINE
  5
618
  8
0
  6
CONTINUOUS
 62
     6
 10
-70.01249442469626
 20
-173.2690634762944
 30
0.0
 11
73.03569283116312
 21
-173.2690634762944
 31
0.0
  0
TEXT
  5
619
  8
0
 62
     5
 10
84.40394641983957
 20
-83.85693359375
 30
0.0
 40
5.0
  1
NIKKO
 41
0.767442115904438
  7
FDASTYLE0
 72
     5
 11
103.5899993174505
 21
-83.85693359375
 31
0.0
  0
TEXT
  5
61A
  8
0
 62
     5
 10
115.7610665761277
 20
-83.35693359375
 30
0.0
 40
4.0
  1
 MO3-10
 41
0.7704920544480061
  7
FDASTYLE0
 72
     5
 11
137.3348441006719
 21
-83.35693359375
 31
0.0
  0
TEXT
  5
61B
  8
0
 62
     5
 10
116.1182097398087
 20
-89.85693359375
 30
0.0
 40
3.0
  1
 0001
 41
0.7674420500137302
  7
FDASTYLE0
 72
     5
 11
127.6298404900147
 21
-89.85693359375
 31
0.0
  0
TEXT
  5
61C
  8
0
 62
     5
 10
222.3817952370062
 20
55.41680146123153
 30
0.0
 40
2.900000095367432
  1
ΣS MAX  66KN
 50
120.0
 41
0.7910609449817804
  7
FDASTYLE0
 72
     5
 11
208.3879266600857
 21
79.6548928308995
 31
0.0
  0
TEXT
  5
61D
  8
0
 62
     5
 10
218.05165607685
 20
52.91680146123153
 30
0.0
 40
2.900000095367432
  1
F MAX   33KN
 50
120.0
 41
0.7991007117639057
  7
FDASTYLE0
 72
     5
 11
204.147303234909
 21
76.99984702983815
 31
0.0
  0
TEXT
  5
61E
  8
0
 62
     5
 10
226.7119343971625
 20
57.91680146123153
 30
0.0
 40
2.900000095367432
  1
N MAX 2500 AT ΣS MAX
 50
120.0
 41
0.7957580987710096
  7
FDASTYLE0
 72
     5
 11
203.4041789176766
 21
98.28701816209296
 31
0.0
  0
LINE
  5
61F
  8
LAYER0014
  6
CONTINUOUS
 62
     7
 10
-100.5507482088759
 20
3.689041137695313
 30
0.0
 11
-87.12813315760641
 21
3.689041137695313
 31
0.0
  0
LINE
  5
620
  8
LAYER0014
  6
CONTINUOUS
 62
     7
 10
-100.5507482088759
 20
167.9816741943359
 30
0.0
 11
-92.95873771082907
 21
167.9816741943359
 31
0.0
  0
INSERT
  5
621
  8
LAYER0014
  6
CONTINUOUS
  2
DC_GROUP_1
 10
0.0
 20
0.0
 30
0.0
  0
INSERT
  5
622
  8
LAYER0014
  6
CONTINUOUS
  2
DC_GROUP_4
 10
0.0
 20
0.0
 30
0.0
  0
INSERT
  5
623
  8
LAYER0014
  6
CONTINUOUS
  2
DC_GROUP_7
 10
0.0
 20
0.0
 30
0.0
  0
INSERT
  5
624
  8
LAYER0014
  6
CONTINUOUS
  2
DC_GROUP_10
 10
0.0
 20
0.0
 30
0.0
  0
INSERT
  5
625
  8
LAYER0014
  6
CONTINUOUS
  2
DC_GROUP_12
 10
0.0
 20
0.0
 30
0.0
  0
INSERT
  5
626
  8
LAYER0014
  6
CONTINUOUS
  2
DC_GROUP_14
 10
0.0
 20
0.0
 30
0.0
  0
INSERT
  5
627
  8
LAYER0014
  6
CONTINUOUS
  2
DC_GROUP_17
 10
0.0
 20
0.0
 30
0.0
  0
INSERT
  5
628
  8
LAYER0014
  6
CONTINUOUS
  2
DC_GROUP_20
 10
0.0
 20
0.0
 30
0.0
  0
INSERT
  5
629
  8
LAYER0014
  6
CONTINUOUS
  2
DC_GROUP_23
 10
0.0
 20
0.0
 30
0.0
  0
INSERT
  5
62A
  8
LAYER0014
  6
CONTINUOUS
  2
DC_GROUP_25
 10
0.0
 20
0.0
 30
0.0
  0
INSERT
  5
62B
  8
LAYER0014
  6
CONTINUOUS
  2
DC_GROUP_28
 10
0.0
 20
0.0
 30
0.0
  0
INSERT
  5
62C
  8
LAYER0014
  6
CONTINUOUS
  2
DC_GROUP_31
 10
0.0
 20
0.0
 30
0.0
  0
INSERT
  5
62D
  8
LAYER0014
  6
CONTINUOUS
  2
DC_GROUP_34
 10
0.0
 20
0.0
 30
0.0
  0
INSERT
  5
62E
  8
LAYER0014
  6
CONTINUOUS
  2
DC_GROUP_36
 10
0.0
 20
0.0
 30
0.0
  0
INSERT
  5
62F
  8
LAYER0014
  6
CONTINUOUS
  2
DC_GROUP_39
 10
0.0
 20
0.0
 30
0.0
  0
INSERT
  5
630
  8
LAYER0014
  6
CONTINUOUS
  2
DC_GROUP_42
 10
0.0
 20
0.0
 30
0.0
  0
INSERT
  5
631
  8
LAYER0014
  6
CONTINUOUS
  2
DC_GROUP_45
 10
0.0
 20
0.0
 30
0.0
  0
INSERT
  5
632
  8
LAYER0014
  6
CONTINUOUS
  2
DC_GROUP_47
 10
0.0
 20
0.0
 30
0.0
  0
INSERT
  5
633
  8
LAYER0014
  6
CONTINUOUS
  2
DC_GROUP_50
 10
0.0
 20
0.0
 30
0.0
  0
INSERT
  5
634
  8
LAYER0014
  6
CONTINUOUS
  2
DC_GROUP_53
 10
0.0
 20
0.0
 30
0.0
  0
INSERT
  5
635
  8
LAYER0014
  6
CONTINUOUS
  2
DC_GROUP_56
 10
0.0
 20
0.0
 30
0.0
  0
INSERT
  5
636
  8
LAYER0014
  6
CONTINUOUS
  2
DC_GROUP_59
 10
0.0
 20
0.0
 30
0.0
  0
INSERT
  5
637
  8
LAYER0014
  6
CONTINUOUS
  2
DC_GROUP_62
 10
0.0
 20
0.0
 30
0.0
  0
INSERT
  5
638
  8
LAYER0014
  6
CONTINUOUS
  2
DC_GROUP_65
 10
0.0
 20
0.0
 30
0.0
  0
INSERT
  5
639
  8
LAYER0014
  6
CONTINUOUS
  2
DC_GROUP_68
 10
0.0
 20
0.0
 30
0.0
  0
INSERT
  5
63A
  8
LAYER0014
  6
CONTINUOUS
  2
DC_GROUP_70
 10
0.0
 20
0.0
 30
0.0
  0
INSERT
  5
63B
  8
LAYER0014
  6
CONTINUOUS
  2
DC_GROUP_73
 10
0.0
 20
0.0
 30
0.0
  0
INSERT
  5
63C
  8
LAYER0014
  6
CONTINUOUS
  2
DC_GROUP_76
 10
0.0
 20
0.0
 30
0.0
  0
INSERT
  5
63D
  8
LAYER0014
  6
CONTINUOUS
  2
DC_GROUP_79
 10
0.0
 20
0.0
 30
0.0
  0
INSERT
  5
63E
  8
LAYER0014
  6
CONTINUOUS
  2
DC_GROUP_80
 10
0.0
 20
0.0
 30
0.0
  0
INSERT
  5
63F
  8
0
  6
CONTINUOUS
  2
DC_GROUP_83
 10
0.0
 20
0.0
 30
0.0
  0
INSERT
  5
640
  8
0
  6
CONTINUOUS
  2
DC_GROUP_84
 10
0.0
 20
0.0
 30
0.0
  0
INSERT
  5
641
  8
0
  6
CONTINUOUS
  2
DC_GROUP_87
 10
0.0
 20
0.0
 30
0.0
  0
INSERT
  5
642
  8
0
  6
CONTINUOUS
  2
DC_GROUP_90
 10
0.0
 20
0.0
 30
0.0
  0
INSERT
  5
643
  8
0
  6
CONTINUOUS
  2
DC_GROUP_93
 10
0.0
 20
0.0
 30
0.0
  0
INSERT
  5
644
  8
0
  6
CONTINUOUS
  2
DC_GROUP_95
 10
0.0
 20
0.0
 30
0.0
  0
INSERT
  5
645
  8
0
  6
CONTINUOUS
  2
DC_GROUP_99
 10
0.0
 20
0.0
 30
0.0
  0
INSERT
  5
646
  8
0
  6
CONTINUOUS
  2
DC_GROUP_101
 10
0.0
 20
0.0
 30
0.0
  0
INSERT
  5
647
  8
0
  6
CONTINUOUS
  2
DC_GROUP_104
 10
0.0
 20
0.0
 30
0.0
  0
INSERT
  5
648
  8
0
  6
CONTINUOUS
  2
DC_GROUP_107
 10
0.0
 20
0.0
 30
0.0
  0
INSERT
  5
649
  8
0
  6
CONTINUOUS
  2
DC_GROUP_110
 10
0.0
 20
0.0
 30
0.0
  0
VIEWPORT
  5
48
 67
     1
  8
0
 10
-5.580356062589317
 20
0.0
 30
0.0
 40
1662.0
 41
1140.0
 68
     1
 69
     1
1001
ACAD
1000
MVIEW
1002
{
1070
    16
1010
0.0
1020
0.0
1030
0.0
1020
0.0
1030
0.0
1010
0.0
1020
0.0
1030
1.0
1020
0.0
1030
1.0
1040
0.0
1040
1140.0
1040
-5.580356062589317
1040
0.0
1040
50.0
1040
0.0
1040
0.0
1070
     0
1070
   100
1070
     0
1070
     1
1070
     0
1070
     0
1070
     0
1070
     0
1040
0.0
1040
0.0
1040
0.0
1040
0.5
1040
0.5
1040
0.0
1040
0.0
1070
     0
1002
{
1002
}
1002
}
  0
ENDSEC
  0
EOF
