  0
SECTION
  2
HEADER
  9
$ACADVER
  1
AC1009
  9
$DWGCODEPAGE
  3
ansi_932
  9
$INSBASE
 10
0.0
 20
0.0
 30
0.0
  9
$EXTMIN
 10
-1662.0
 20
-1140.0
 30
0.0
  9
$EXTMAX
 10
1662.0
 20
1140.0
 30
0.0
  9
$LIMMIN
 10
-594.0
 20
-420.0
  9
$LIMMAX
 10
594.0
 20
420.0
  9
$ORTHOMODE
 70
     0
  9
$REGENMODE
 70
     1
  9
$FILLMODE
 70
     1
  9
$QTEXTMODE
 70
     0
  9
$MIRRTEXT
 70
     1
  9
$DRAGMODE
 70
     2
  9
$LTSCALE
 40
2.0
  9
$OSMODE
 70
    37
  9
$ATTMODE
 70
     1
  9
$TEXTSIZE
 40
0.2
  9
$TRACEWID
 40
0.05
  9
$TEXTSTYLE
  7
STANDARD
  9
$CLAYER
  8
0
  9
$CELTYPE
  6
BYLAYER
  9
$CECOLOR
 62
   256
  9
$DIMSCALE
 40
1.0
  9
$DIMASZ
 40
5.0
  9
$DIMEXO
 40
0.0625
  9
$DIMDLI
 40
0.38
  9
$DIMRND
 40
0.0
  9
$DIMDLE
 40
0.0
  9
$DIMEXE
 40
0.18
  9
$DIMTP
 40
0.0
  9
$DIMTM
 40
0.0
  9
$DIMTXT
 40
0.18
  9
$DIMCEN
 40
0.09
  9
$DIMTSZ
 40
0.0
  9
$DIMTOL
 70
     0
  9
$DIMLIM
 70
     0
  9
$DIMTIH
 70
     1
  9
$DIMTOH
 70
     1
  9
$DIMSE1
 70
     0
  9
$DIMSE2
 70
     0
  9
$DIMTAD
 70
     3
  9
$DIMZIN
 70
     0
  9
$DIMBLK
  1

  9
$DIMASO
 70
     1
  9
$DIMSHO
 70
     1
  9
$DIMPOST
  1

  9
$DIMAPOST
  1

  9
$DIMALT
 70
     0
  9
$DIMALTD
 70
     2
  9
$DIMALTF
 40
25.4
  9
$DIMLFAC
 40
1.0
  9
$DIMTOFL
 70
     0
  9
$DIMTVP
 40
0.0
  9
$DIMTIX
 70
     0
  9
$DIMSOXD
 70
     0
  9
$DIMSAH
 70
     0
  9
$DIMBLK1
  1

  9
$DIMBLK2
  1

  9
$DIMSTYLE
  2
STANDARD
  9
$DIMCLRD
 70
     0
  9
$DIMCLRE
 70
     0
  9
$DIMCLRT
 70
     0
  9
$DIMTFAC
 40
1.0
  9
$DIMGAP
 40
0.09
  9
$LUNITS
 70
     2
  9
$LUPREC
 70
     4
  9
$SKETCHINC
 40
0.1
  9
$FILLETRAD
 40
0.5
  9
$AUNITS
 70
     0
  9
$AUPREC
 70
     0
  9
$MENU
  1
.
  9
$ELEVATION
 40
0.0
  9
$PELEVATION
 40
0.0
  9
$THICKNESS
 40
0.0
  9
$LIMCHECK
 70
     0
  9
$CHAMFERA
 40
0.5
  9
$CHAMFERB
 40
0.5
  9
$SKPOLY
 70
     0
  9
$TDCREATE
 40
2456329.606525232
  9
$TDUPDATE
 40
2456329.606525243
  9
$TDINDWG
 40
0.0000000116
  9
$TDUSRTIMER
 40
0.0000000116
  9
$USRTIMER
 70
     1
  9
$ANGBASE
 50
0.0
  9
$ANGDIR
 70
     0
  9
$PDMODE
 70
     0
  9
$PDSIZE
 40
1.0
  9
$PLINEWID
 40
0.0
  9
$COORDS
 70
     1
  9
$SPLFRAME
 70
     0
  9
$SPLINETYPE
 70
     6
  9
$SPLINESEGS
 70
     8
  9
$ATTDIA
 70
     0
  9
$ATTREQ
 70
     1
  9
$HANDLING
 70
     1
  9
$HANDSEED
  5
434
  9
$SURFTAB1
 70
     6
  9
$SURFTAB2
 70
     6
  9
$SURFTYPE
 70
     6
  9
$SURFU
 70
     6
  9
$SURFV
 70
     6
  9
$UCSNAME
  2

  9
$UCSORG
 10
0.0
 20
0.0
 30
0.0
  9
$UCSXDIR
 10
1.0
 20
0.0
 30
0.0
  9
$UCSYDIR
 10
0.0
 20
1.0
 30
0.0
  9
$PUCSNAME
  2

  9
$PUCSORG
 10
0.0
 20
0.0
 30
0.0
  9
$PUCSXDIR
 10
1.0
 20
0.0
 30
0.0
  9
$PUCSYDIR
 10
0.0
 20
1.0
 30
0.0
  9
$USERI1
 70
     0
  9
$USERI2
 70
     0
  9
$USERI3
 70
     0
  9
$USERI4
 70
     0
  9
$USERI5
 70
     0
  9
$USERR1
 40
0.0
  9
$USERR2
 40
0.0
  9
$USERR3
 40
0.0
  9
$USERR4
 40
0.0
  9
$USERR5
 40
0.0
  9
$WORLDVIEW
 70
     1
  9
$SHADEDGE
 70
     3
  9
$SHADEDIF
 70
    70
  9
$TILEMODE
 70
     1
  9
$MAXACTVP
 70
    64
  9
$PLIMCHECK
 70
     0
  9
$PEXTMIN
 10
1.000000000000000E+20
 20
1.000000000000000E+20
 30
1.000000000000000E+20
  9
$PEXTMAX
 10
-1.000000000000000E+20
 20
-1.000000000000000E+20
 30
-1.000000000000000E+20
  9
$PLIMMIN
 10
0.0
 20
0.0
  9
$PLIMMAX
 10
12.0
 20
9.0
  9
$UNITMODE
 70
     0
  9
$VISRETAIN
 70
     0
  9
$PLINEGEN
 70
     1
  9
$PSLTSCALE
 70
     0
  0
ENDSEC
  0
SECTION
  2
TABLES
  0
TABLE
  2
VPORT
 70
     1
  0
VPORT
  2
*ACTIVE
 70
     0
 10
0.0
 20
0.0
 11
1.0
 21
1.0
 12
0.0
 22
0.0
 13
0.0
 23
0.0
 14
0.5
 24
0.5
 15
0.5
 25
0.5
 16
0.0
 26
0.0
 36
1.0
 17
-0.0000000000000036
 27
0.0
 37
0.0
 40
775.1999999999999
 41
1.457894736842106
 42
50.0
 43
0.0
 44
0.0
 50
0.0
 51
0.0
 71
     0
 72
  1000
 73
     1
 74
     1
 75
     0
 76
     0
 77
     0
 78
     0
  0
ENDTAB
  0
TABLE
  2
LTYPE
 70
    28
  0
LTYPE
  2
CONTINUOUS
 70
     0
  3
Solid line
 72
    65
 73
     0
 40
0.0
  0
LTYPE
  2
HIDDENX2
 70
     0
  3
CADPAC LINETYPE
 72
    65
 73
     2
 40
6.871165644171754
 49
5.153374233128815
 49
-1.717791411042938
  0
LTYPE
  2
HIDDEN
 70
     0
  3
CADPAC LINETYPE
 72
    65
 73
     2
 40
5.153374233128815
 49
3.435582822085877
 49
-1.717791411042938
  0
LTYPE
  2
HIDDEN2
 70
     0
  3
CADPAC LINETYPE
 72
    65
 73
     2
 40
4.294478527607346
 49
2.576687116564408
 49
-1.717791411042938
  0
LTYPE
  2
DASHED
 70
     0
  3
CADPAC LINETYPE
 72
    65
 73
     2
 40
4.809815950920211
 49
3.435582822085877
 49
-1.374233128834334
  0
LTYPE
  2
DASHED2
 70
     0
  3
CADPAC LINETYPE
 72
    65
 73
     2
 40
3.092024539877315
 49
2.061349693251543
 49
-1.030674846625772
  0
LTYPE
  2
DASHEDX2
 70
     0
  3
CADPAC LINETYPE
 72
    65
 73
     2
 40
8.245398773006087
 49
6.871165644171754
 49
-1.374233128834334
  0
LTYPE
  2
DOTX2
 70
     0
  3
CADPAC LINETYPE
 72
    65
 73
     2
 40
3.006134969325132
 49
0.0
 49
-3.006134969325132
  0
LTYPE
  2
DOT
 70
     0
  3
CADPAC LINETYPE
 72
    65
 73
     2
 40
2.404907975460105
 49
0.0
 49
-2.404907975460105
  0
LTYPE
  2
DOT2
 70
     0
  3
CADPAC LINETYPE
 72
    65
 73
     2
 40
1.803680981595079
 49
0.0
 49
-1.803680981595079
  0
LTYPE
  2
CENTERX2
 70
     0
  3
CADPAC LINETYPE
 72
    65
 73
     4
 40
10.30674846625763
 49
4.294478527607346
 49
-2.147239263803673
 49
1.717791411042938
 49
-2.147239263803673
  0
LTYPE
  2
CENTER
 70
     0
  3
CADPAC LINETYPE
 72
    65
 73
     4
 40
7.901840490797516
 49
3.435582822085877
 49
-1.717791411042938
 49
1.030674846625763
 49
-1.717791411042938
  0
LTYPE
  2
CENTER2
 70
     0
  3
CADPAC LINETYPE
 72
    65
 73
     4
 40
5.496932515337403
 49
2.576687116564408
 49
-1.288343558282204
 49
0.3435582822085877
 49
-1.288343558282204
  0
LTYPE
  2
DASHDOTX2
 70
     0
  3
CADPAC LINETYPE
 72
    65
 73
     4
 40
16.49079754601232
 49
8.245398773006144
 49
-2.748466257668724
 49
2.748466257668724
 49
-2.748466257668724
  0
LTYPE
  2
DASHDOT
 70
     0
  3
CADPAC LINETYPE
 72
    65
 73
     4
 40
8.245398773006059
 49
4.122699386503058
 49
-1.374233128834334
 49
1.374233128834334
 49
-1.374233128834334
  0
LTYPE
  2
DASHDOT2
 70
     0
  3
CADPAC LINETYPE
 72
    65
 73
     4
 40
5.290797546012227
 49
3.092024539877293
 49
-1.03067484662575
 49
0.1374233128834334
 49
-1.03067484662575
  0
LTYPE
  2
DIVIDEX2
 70
     0
  3
CADPAC LINETYPE
 72
    65
 73
     6
 40
21.98773006134977
 49
8.245398773006144
 49
-2.748466257668724
 49
2.748466257668724
 49
-2.748466257668724
 49
2.748466257668724
 49
-2.748466257668724
  0
LTYPE
  2
DIVIDE
 70
     0
  3
CADPAC LINETYPE
 72
    65
 73
     6
 40
10.99386503067473
 49
4.122699386503058
 49
-1.374233128834334
 49
1.374233128834334
 49
-1.374233128834334
 49
1.374233128834334
 49
-1.374233128834334
  0
LTYPE
  2
DIVIDE2
 70
     0
  3
CADPAC LINETYPE
 72
    65
 73
     6
 40
8.245398773006045
 49
3.092024539877293
 49
-1.03067484662575
 49
1.03067484662575
 49
-1.03067484662575
 49
1.03067484662575
 49
-1.03067484662575
  0
LTYPE
  2
BORDERX2
 70
     0
  3
CADPAC LINETYPE
 72
    65
 73
     6
 40
15.03067484662571
 49
4.294478527607346
 49
-2.147239263803673
 49
4.294478527607346
 49
-2.147239263803673
 49
0.0
 49
-2.147239263803673
  0
LTYPE
  2
BORDER
 70
     0
  3
CADPAC LINETYPE
 72
    65
 73
     6
 40
12.02453987730057
 49
3.435582822085877
 49
-1.717791411042938
 49
3.435582822085877
 49
-1.717791411042938
 49
0.0
 49
-1.717791411042938
  0
LTYPE
  2
BORDER2
 70
     0
  3
CADPAC LINETYPE
 72
    65
 73
     6
 40
8.93251533742334
 49
2.748466257668724
 49
-1.717791411042953
 49
1.030674846625772
 49
-1.717791411042953
 49
0.0
 49
-1.717791411042938
  0
LTYPE
  2
PHANTOMX2
 70
     0
  3
CADPAC LINETYPE
 72
    65
 73
     6
 40
12.88343558282204
 49
4.294478527607346
 49
-1.717791411042938
 49
1.717791411042938
 49
-1.717791411042938
 49
1.717791411042938
 49
-1.717791411042938
  0
LTYPE
  2
PHANTOM
 70
     0
  3
CADPAC LINETYPE
 72
    65
 73
     6
 40
10.65030674846622
 49
3.435582822085877
 49
-1.717791411042938
 49
1.030674846625763
 49
-1.717791411042938
 49
1.030674846625763
 49
-1.717791411042938
  0
LTYPE
  2
PHANTOM2
 70
     0
  3
CADPAC LINETYPE
 72
    65
 73
     6
 40
9.104294478527574
 49
2.576687116564408
 49
-1.717791411042938
 49
0.6871165644171754
 49
-1.717791411042938
 49
0.6871165644171754
 49
-1.717791411042938
  0
LTYPE
  2
ACAD_ISO06W100
 70
     0
  3
CADPAC LINETYPE
 72
    65
 73
     8
 40
18.20858895705527
 49
8.245398773006144
 49
-1.717791411042953
 49
1.030674846625772
 49
-1.717791411042953
 49
1.030674846625772
 49
-1.717791411042953
 49
1.030674846625772
 49
-1.717791411042953
  0
LTYPE
  2
ACAD_ISO13W100
 70
     0
  3
CADPAC LINETYPE
 72
    65
 73
     8
 40
13.74233128834351
 49
3.435582822085877
 49
-1.717791411042938
 49
3.435582822085877
 49
-1.717791411042938
 49
0.0
 49
-1.717791411042938
 49
0.0
 49
-1.717791411042938
  0
LTYPE
  2
ACAD_ISO14W100
 70
     0
  3
CADPAC LINETYPE
 72
    65
 73
     8
 40
10.30674846625763
 49
3.435582822085877
 49
-1.717791411042938
 49
0.0
 49
-1.717791411042938
 49
0.0
 49
-1.717791411042938
 49
0.0
 49
-1.717791411042938
  0
ENDTAB
  0
TABLE
  2
LAYER
 70
     3
  0
LAYER
  2
0
 70
     0
 62
     7
  6
CONTINUOUS
  0
LAYER
  2
LAYER0014
 70
     0
 62
     7
  6
CONTINUOUS
  0
LAYER
  2
ZUWAKU
 70
     0
 62
     7
  6
CONTINUOUS
  0
ENDTAB
  0
TABLE
  2
STYLE
 70
     5
  0
STYLE
  2
STANDARD
 70
     0
 40
0.0
 41
1.0
 50
0.0
 71
     0
 42
0.2
  3
txt
  4

  0
STYLE
  2
FDASTYLE1
 70
     0
 40
0.0
 41
0.7619047619047625
 50
0.0
 71
     0
 42
0.2
  3
txt.shx
  4
bigfont
  0
STYLE
  2
FDASTYLE0
 70
     4
 40
0.0
 41
0.8
 50
0.0
 71
     0
 42
0.2
  3
txt.shx
  4
bigfont
  0
STYLE
  2
FDASTYLE2
 70
     0
 40
0.0
 41
0.8123476848090983
 50
0.0
 71
     0
 42
0.2
  3
MSMINCHO.TTC
  4

  0
STYLE
  2
FDASTYLE3
 70
     0
 40
0.0
 41
0.77
 50
0.0
 71
     0
 42
0.2
  3
MSGOTHIC.TTC
  4

  0
ENDTAB
  0
TABLE
  2
VIEW
 70
     0
  0
ENDTAB
  0
TABLE
  2
UCS
 70
     0
  0
ENDTAB
  0
TABLE
  2
APPID
 70
     2
  0
APPID
  2
ACAD
 70
     0
  0
APPID
  2
DAFUSIONOUT
 70
     0
  0
ENDTAB
  0
TABLE
  2
DIMSTYLE
 70
     1
  0
DIMSTYLE
  2
STANDARD
 70
     0
  3

  4

  5

  6

  7

 40
1.0
 41
0.18
 42
0.0625
 43
0.38
 44
0.18
 45
0.0
 46
0.0
 47
0.0
 48
0.0
140
0.18
141
0.09
142
0.0
143
25.4
144
1.0
145
0.0
146
1.0
147
0.09
 71
     0
 72
     0
 73
     1
 74
     1
 75
     0
 76
     0
 77
     0
 78
     0
170
     0
171
     2
172
     0
173
     0
174
     0
175
     0
176
     0
177
     0
178
     0
  0
ENDTAB
  0
ENDSEC
  0
SECTION
  2
BLOCKS
  0
BLOCK
  8
0
  2
$MODEL_SPACE
 70
     0
 10
0.0
 20
0.0
 30
0.0
  3
$MODEL_SPACE
  1

  0
ENDBLK
  5
21
  8
0
  0
BLOCK
 67
     1
  8
0
  2
$PAPER_SPACE
 70
     0
 10
0.0
 20
0.0
 30
0.0
  3
$PAPER_SPACE
  1

  0
ENDBLK
  5
1D
 67
     1
  8
0
  0
BLOCK
  8
0
  2
DA_IMAGEDIMGROUP_1
 70
     0
 10
0.0
 20
0.0
 30
0.0
  3
DA_IMAGEDIMGROUP_1
  1

  0
LINE
  5
BB
  8
LAYER0014
  6
CONTINUOUS
 62
     7
 10
-238.8347079296999
 20
144.2706201180224
 30
0.0
 11
-359.7272878857546
 21
144.2706201180224
 31
0.0
  0
LINE
  5
BC
  8
LAYER0014
  6
CONTINUOUS
 62
     7
 10
-234.8802447225738
 20
35.17062545859859
 30
0.0
 11
-359.7272878857546
 21
35.17062545859859
 31
0.0
  0
LINE
  5
BD
  8
LAYER0014
  6
CONTINUOUS
 62
     7
 10
-355.1552969189577
 20
144.2706201180224
 30
0.0
 11
-355.1552969189577
 21
35.17062545859859
 31
0.0
  0
INSERT
  5
C4
  8
LAYER0014
 62
     7
  2
_OPEN30
 10
-355.1552969189577
 20
144.2706201180224
 30
0.0
 41
3.00000278782526
 42
2.999997001378984
 50
90.0
  0
INSERT
  5
C5
  8
LAYER0014
 62
     7
  2
_OPEN30
 10
-355.1552969189577
 20
35.17062545859859
 30
0.0
 41
3.00000278782526
 42
2.999997001378984
 50
270.0
  0
TEXT
  5
C7
  8
LAYER0014
 62
     7
 10
-357.1999773251247
 20
65.9462548935967
 30
0.0
 40
8.0
  1
φ109.1Ｈ7
 50
89.90000000000001
 41
0.7619047619047625
  7
FDASTYLE1
 72
     5
 11
-357.1106165127907
 21
117.1461769115571
 31
0.0
  0
ENDBLK
  5
4E
  8
0
  0
BLOCK
  8
0
  2
DA_IMAGEDIMGROUP_2
 70
     0
 10
0.0
 20
0.0
 30
0.0
  3
DA_IMAGEDIMGROUP_2
  1

  0
LINE
  5
C8
  8
LAYER0014
  6
CONTINUOUS
 62
     7
 10
-297.8165347119265
 20
157.2206170662646
 30
0.0
 11
-383.905846235364
 21
157.2206170662646
 31
0.0
  0
LINE
  5
C9
  8
LAYER0014
  6
CONTINUOUS
 62
     7
 10
-294.614264204114
 20
22.22062469565914
 30
0.0
 11
-383.905846235364
 21
22.22062469565914
 31
0.0
  0
LINE
  5
CA
  8
LAYER0014
  6
CONTINUOUS
 62
     7
 10
-379.3338552685671
 20
157.2206170662646
 30
0.0
 11
-379.3338552685671
 21
22.22062469565914
 31
0.0
  0
INSERT
  5
CB
  8
LAYER0014
 62
     7
  2
_OPEN30
 10
-379.3338552685671
 20
157.2206170662646
 30
0.0
 41
3.00000278782526
 42
2.999997001378984
 50
90.0
  0
INSERT
  5
CC
  8
LAYER0014
 62
     7
  2
_OPEN30
 10
-379.3338552685671
 20
22.22062469565914
 30
0.0
 41
3.00000278782526
 42
2.999997001378984
 50
270.0
  0
TEXT
  5
CD
  8
LAYER0014
 62
     7
 10
-381.3673655731924
 20
70.52065012422675
 30
0.0
 40
8.0
  1
φ135H7
 50
89.90000000000001
 41
0.7741935483870963
  7
FDASTYLE1
 72
     5
 11
-381.3003449639419
 21
108.920591637697
 31
0.0
  0
ENDBLK
  5
51
  8
0
  0
BLOCK
  8
0
  2
DA_IMAGEDIMGROUP_3
 70
     0
 10
0.0
 20
0.0
 30
0.0
  3
DA_IMAGEDIMGROUP_3
  1

  0
LINE
  5
CE
  8
LAYER0014
  6
CONTINUOUS
 62
     7
 10
-300.3142458935671
 20
249.7206170662646
 30
0.0
 11
-407.5806814404421
 21
249.7206170662646
 31
0.0
  0
LINE
  5
CF
  8
LAYER0014
  6
CONTINUOUS
 62
     7
 10
-300.3142458935671
 20
-70.27938293373539
 30
0.0
 11
-407.5806814404421
 21
-70.27938293373539
 31
0.0
  0
LINE
  5
D0
  8
LAYER0014
  6
CONTINUOUS
 62
     7
 10
-403.0086904736452
 20
249.7206170662646
 30
0.0
 11
-403.0086904736452
 21
-70.27938293373539
 31
0.0
  0
INSERT
  5
D1
  8
LAYER0014
 62
     7
  2
_OPEN30
 10
-403.0086904736452
 20
249.7206170662646
 30
0.0
 41
3.00000278782526
 42
2.999997001378984
 50
90.0
  0
INSERT
  5
D2
  8
LAYER0014
 62
     7
  2
_OPEN30
 10
-403.0086904736452
 20
-70.27938293373539
 30
0.0
 41
3.00000278782526
 42
2.999997001378984
 50
270.0
  0
TEXT
  5
D3
  8
LAYER0014
 62
     7
 10
-405.0422007782705
 20
70.52064630952948
 30
0.0
 40
8.0
  1
φ320H7
 50
89.90000000000001
 41
0.7741935483870963
  7
FDASTYLE1
 72
     5
 11
-404.97518016902
 21
108.9205878229997
 31
0.0
  0
ENDBLK
  5
54
  8
0
  0
BLOCK
  8
0
  2
DA_IMAGEDIMGROUP_4
 70
     0
 10
0.0
 20
0.0
 30
0.0
  3
DA_IMAGEDIMGROUP_4
  1

  0
LINE
  5
D4
  8
LAYER0014
  6
CONTINUOUS
 62
     7
 10
-300.3142458935671
 20
264.7206170662646
 30
0.0
 11
-431.7592397900515
 21
264.7206170662646
 31
0.0
  0
LINE
  5
D5
  8
LAYER0014
  6
CONTINUOUS
 62
     7
 10
-300.3142458935671
 20
-85.27938293373539
 30
0.0
 11
-431.7592397900515
 21
-85.27938293373539
 31
0.0
  0
LINE
  5
D6
  8
LAYER0014
  6
CONTINUOUS
 62
     7
 10
-427.1872488232546
 20
264.7206170662646
 30
0.0
 11
-427.1872488232546
 21
-85.27938293373539
 31
0.0
  0
INSERT
  5
D7
  8
LAYER0014
 62
     7
  2
_OPEN30
 10
-427.1872488232546
 20
264.7206170662646
 30
0.0
 41
3.00000278782526
 42
2.999997001378984
 50
90.0
  0
INSERT
  5
D8
  8
LAYER0014
 62
     7
  2
_OPEN30
 10
-427.1872488232546
 20
-85.27938293373539
 30
0.0
 41
3.00000278782526
 42
2.999997001378984
 50
270.0
  0
TEXT
  5
D9
  8
LAYER0014
 62
     7
 10
-429.2095890263381
 20
76.9206365617745
 30
0.0
 40
8.0
  1
φ350
 50
89.90000000000001
 41
0.7619047619047625
  7
FDASTYLE1
 72
     5
 11
-429.1649086201711
 21
102.5205975707547
 31
0.0
  0
ENDBLK
  5
57
  8
0
  0
BLOCK
  8
0
  2
DA_IMAGEDIMGROUP_5
 70
     0
 10
0.0
 20
0.0
 30
0.0
  3
DA_IMAGEDIMGROUP_5
  1

  0
LINE
  5
DA
  8
LAYER0014
  6
CONTINUOUS
 62
     7
 10
-194.6747079296999
 20
33.72062469565914
 30
0.0
 11
-105.7753835888796
 21
33.72062469565914
 31
0.0
  0
LINE
  5
DB
  8
LAYER0014
  6
CONTINUOUS
 62
     7
 10
-110.3473745556765
 20
33.72062469565914
 30
0.0
 11
-110.3473745556765
 21
132.4706246956591
 31
0.0
  0
INSERT
  5
DC
  8
LAYER0014
 62
     7
  2
_OPEN30
 10
-110.3473745556765
 20
33.72062469565914
 30
0.0
 41
3.00000278782526
 42
2.999997001378984
 50
270.0
  0
TEXT
  5
DD
  8
LAYER0014
 62
     7
 10
-112.3473745556765
 20
62.89770189324101
 30
0.0
 40
8.0
  1
M112×P1.5
 50
90.0
 41
0.7826086956521741
  7
FDASTYLE1
 72
     5
 11
-112.3473745556765
 21
120.497701893241
 31
0.0
  0
ENDBLK
  5
5A
  8
0
  0
BLOCK
  8
0
  2
DA_IMAGEDIMGROUP_6
 70
     0
 10
0.0
 20
0.0
 30
0.0
  3
DA_IMAGEDIMGROUP_6
  1

  0
LINE
  5
DE
  8
LAYER0014
  6
CONTINUOUS
 62
     7
 10
-164.1542458935671
 20
19.72062469565914
 30
0.0
 11
-82.10054075440695
 21
19.72062469565914
 31
0.0
  0
LINE
  5
DF
  8
LAYER0014
  6
CONTINUOUS
 62
     7
 10
-86.67253935059836
 20
19.72062469565914
 30
0.0
 11
-86.67253935059836
 21
132.4706246956591
 31
0.0
  0
INSERT
  5
E0
  8
LAYER0014
 62
     7
  2
_OPEN30
 10
-86.67253935059836
 20
19.72062469565914
 30
0.0
 41
3.00000278782526
 42
2.999997001378984
 50
270.0
  0
TEXT
  5
E1
  8
LAYER0014
 62
     7
 10
-88.67253935059836
 20
70.65003356426986
 30
0.0
 40
8.0
  1
φ140H7
 50
90.0
 41
0.7741935483870969
  7
FDASTYLE1
 72
     5
 11
-88.67253935059836
 21
109.0500335642699
 31
0.0
  0
ENDBLK
  5
5D
  8
0
  0
BLOCK
  8
0
  2
DA_IMAGEDIMGROUP_7
 70
     0
 10
0.0
 20
0.0
 30
0.0
  3
DA_IMAGEDIMGROUP_7
  1

  0
LINE
  5
E2
  8
LAYER0014
  6
CONTINUOUS
 62
     7
 10
-165.1542458935671
 20
269.7206170662646
 30
0.0
 11
-57.92198240479758
 21
269.7206170662646
 31
0.0
  0
LINE
  5
E3
  8
LAYER0014
  6
CONTINUOUS
 62
     7
 10
-165.1542458935671
 20
166.7206170662646
 30
0.0
 11
-57.92198240479758
 21
166.7206170662646
 31
0.0
  0
LINE
  5
E4
  8
LAYER0014
  6
CONTINUOUS
 62
     7
 10
-62.49398100098898
 20
269.7206170662646
 30
0.0
 11
-62.49398100098898
 21
166.7206170662646
 31
0.0
  0
INSERT
  5
E5
  8
LAYER0014
 62
     7
  2
_OPEN30
 10
-62.49398100098898
 20
269.7206170662646
 30
0.0
 41
3.00000278782526
 42
2.999997001378984
 50
90.0
  0
INSERT
  5
E6
  8
LAYER0014
 62
     7
  2
_OPEN30
 10
-62.49398100098898
 20
166.7206170662646
 30
0.0
 41
3.00000278782526
 42
2.999997001378984
 50
270.0
  0
TEXT
  5
E7
  8
LAYER0014
 62
     7
 10
-64.51073615330161
 20
208.620631687897
 30
0.0
 40
8.0
  1
103
 50
89.90000000000001
 41
0.8000000000000002
  7
FDASTYLE1
 72
     5
 11
-64.47722584867636
 21
227.8206024446322
 31
0.0
  0
ENDBLK
  5
60
  8
0
  0
BLOCK
  8
0
  2
DA_IMAGEDIMGROUP_8
 70
     0
 10
0.0
 20
0.0
 30
0.0
  3
DA_IMAGEDIMGROUP_8
  1

  0
LINE
  5
E8
  8
LAYER0014
  6
CONTINUOUS
 62
     7
 10
-165.1542458935671
 20
166.7206170662646
 30
0.0
 11
-82.10054075440695
 21
166.7206170662646
 31
0.0
  0
LINE
  5
E9
  8
LAYER0014
  6
CONTINUOUS
 62
     7
 10
-124.938883344739
 20
195.7206170662646
 30
0.0
 11
-82.10054075440695
 21
195.7206170662646
 31
0.0
  0
LINE
  5
EA
  8
LAYER0014
  6
CONTINUOUS
 62
     7
 10
-86.67253935059836
 20
166.7206170662646
 30
0.0
 11
-86.67253935059836
 21
195.7206170662646
 31
0.0
  0
INSERT
  5
EB
  8
LAYER0014
 62
     7
  2
_OPEN30
 10
-86.67253935059836
 20
166.7206170662646
 30
0.0
 41
3.00000278782526
 42
2.999997001378984
 50
270.0
  0
INSERT
  5
EC
  8
LAYER0014
 62
     7
  2
_OPEN30
 10
-86.67253935059836
 20
195.7206170662646
 30
0.0
 41
3.00000278782526
 42
2.999997001378984
 50
90.0
  0
TEXT
  5
ED
  8
LAYER0014
 62
     7
 10
-98.87253958901692
 20
171.6206170662646
 30
0.0
 40
8.0
  1
 14
 50
90.0
 41
0.7999999999999995
  7
FDASTYLE1
 72
     5
 11
-98.87253958901692
 21
190.8206170662646
 31
0.0
  0
TEXT
  5
EE
  8
LAYER0014
 62
     7
 10
-89.87253935059835
 20
171.6206170662646
 30
0.0
 40
8.0
  1
MIN
 50
90.0
 41
0.7999999999999995
  7
FDASTYLE1
 72
     5
 11
-89.87253935059835
 21
190.8206170662646
 31
0.0
  0
ENDBLK
  5
63
  8
0
  0
BLOCK
  8
0
  2
DA_IMAGEDIMGROUP_9
 70
     0
 10
0.0
 20
0.0
 30
0.0
  3
DA_IMAGEDIMGROUP_9
  1

  0
LINE
  5
EF
  8
LAYER0014
  6
CONTINUOUS
 62
     7
 10
-289.534264204114
 20
-75.35938293373539
 30
0.0
 11
-289.534264204114
 21
-140.7788793936963
 31
0.0
  0
LINE
  5
F0
  8
LAYER0014
  6
CONTINUOUS
 62
     7
 10
-235.754723188489
 20
33.93590894678661
 30
0.0
 11
-235.754723188489
 21
-140.7788793936963
 31
0.0
  0
LINE
  5
F1
  8
LAYER0014
  6
CONTINUOUS
 62
     7
 10
-289.534264204114
 20
-136.2068731681104
 30
0.0
 11
-235.7547079296999
 21
-136.2068731681104
 31
0.0
  0
INSERT
  5
F2
  8
LAYER0014
 62
     7
  2
_OPEN30
 10
-289.534264204114
 20
-136.2068731681104
 30
0.0
 41
3.00000278782526
 42
2.999997001378984
 50
180.0
  0
INSERT
  5
F3
  8
LAYER0014
 62
     7
  2
_OPEN30
 10
-235.7547079296999
 20
-136.2068731681104
 30
0.0
 41
3.00000278782526
 42
2.999997001378984
 50
360.0
  0
TEXT
  5
F4
  8
LAYER0014
 62
     7
 10
-285.0444519497646
 20
-134.1677778127143
 30
0.0
 40
8.0
  1
MAX76.1
 50
-0.1000000000000078
 41
0.8000000000000005
  7
FDASTYLE1
 72
     5
 11
-240.2445201840493
 21
-134.2459685235065
 31
0.0
  0
ENDBLK
  5
66
  8
0
  0
BLOCK
  8
0
  2
DA_IMAGEDIMGROUP_10
 70
     0
 10
0.0
 20
0.0
 30
0.0
  3
DA_IMAGEDIMGROUP_10
  1

  0
LINE
  5
F5
  8
LAYER0014
  6
CONTINUOUS
 62
     7
 10
-295.2342458935671
 20
-163.8768649019603
 30
0.0
 11
-289.534264204114
 21
-163.8768649019603
 31
0.0
  0
LINE
  5
F6
  8
LAYER0014
  6
CONTINUOUS
 62
     7
 10
-295.2342458935671
 20
-90.35938293373539
 30
0.0
 11
-295.2342458935671
 21
-165.8768649019603
 31
0.0
  0
LINE
  5
F7
  8
LAYER0014
  6
CONTINUOUS
 62
     7
 10
-289.534264204114
 20
-75.35938293373539
 30
0.0
 11
-289.534264204114
 21
-165.8768649019603
 31
0.0
  0
LINE
  5
F8
  8
LAYER0014
  6
CONTINUOUS
 62
     7
 10
-322.2979458935672
 20
-163.8768649019603
 30
0.0
 11
-295.2342458935671
 21
-163.8768649019603
 31
0.0
  0
INSERT
  5
F9
  8
LAYER0014
 62
     7
  2
_OPEN30
 10
-295.2342458935671
 20
-163.8768649019603
 30
0.0
 41
3.00000278782526
 42
2.999997001378984
 50
360.0
  0
TEXT
  5
FA
  8
LAYER0014
 62
     7
 10
-320.2979166503022
 20
-161.843354597335
 30
0.0
 40
8.0
  1
5.7
 50
-0.1000000000000078
 41
0.8000000000000002
  7
FDASTYLE1
 72
     5
 11
-301.0979458935671
 21
-161.8768649019603
 31
0.0
  0
ENDBLK
  5
69
  8
0
  0
BLOCK
  8
0
  2
DA_IMAGEDIMGROUP_11
 70
     0
 10
0.0
 20
0.0
 30
0.0
  3
DA_IMAGEDIMGROUP_11
  1

  0
LINE
  5
FB
  8
LAYER0014
  6
CONTINUOUS
 62
     7
 10
-289.534264204114
 20
-163.8768649019603
 30
0.0
 11
-169.2342458935671
 21
-163.8768649019603
 31
0.0
  0
INSERT
  5
FC
  8
LAYER0014
 62
     7
  2
_OPEN30
 10
-289.534264204114
 20
-163.8768649019603
 30
0.0
 41
3.00000278782526
 42
2.999997001378984
 50
180.0
  0
INSERT
  5
FD
  8
LAYER0014
 62
     7
  2
_OPEN30
 10
-169.2342458935671
 20
-163.8768649019603
 30
0.0
 41
3.00000278782526
 42
2.999997001378984
 50
360.0
  0
LINE
  5
FE
  8
LAYER0014
  6
CONTINUOUS
 62
     7
 10
-289.534264204114
 20
-75.35938293373539
 30
0.0
 11
-289.534264204114
 21
-165.8768649019603
 31
0.0
  0
LINE
  5
FF
  8
LAYER0014
  6
CONTINUOUS
 62
     7
 10
-169.2342458935671
 20
-87.35938293373539
 30
0.0
 11
-169.2342458935671
 21
-165.8768649019603
 31
0.0
  0
TEXT
  5
100
  8
LAYER0014
 62
     7
 10
-241.6455036828567
 20
-161.8489396481059
 30
0.0
 40
8.0
  1
120.3
 50
-0.1000000000000078
 41
0.8000000000000004
  7
FDASTYLE1
 72
     5
 11
-209.6455524216314
 21
-161.9047901558147
 31
0.0
  0
ENDBLK
  5
6C
  8
0
  0
BLOCK
  8
0
  2
DC_GROUP_1
 70
     0
 10
0.0
 20
0.0
 30
0.0
  3
DC_GROUP_1
  1

  0
LINE
  5
101
  8
LAYER0014
  6
CONTINUOUS
 62
     7
 10
-241.6265643957148
 20
-85.3531090514209
 30
0.0
 11
-226.2932676133121
 21
-112.6864275032005
 31
0.0
  0
INSERT
  5
102
  8
LAYER0014
 62
     7
  2
_OPEN30
 10
-241.6265643957148
 20
-85.3531090514209
 30
0.0
 41
3.00000278782526
 42
2.999997001378984
 50
119.2913172036402
  0
LINE
  5
103
  8
LAYER0014
  6
CONTINUOUS
 62
     7
 10
-226.2932668896609
 20
-112.6864263907666
 30
0.0
 11
-203.2647024365359
 21
-112.6864263907666
 31
0.0
  0
TEXT
  5
104
  8
LAYER0014
 62
     7
 10
-224.2932668896609
 20
-109.4864263907667
 30
0.0
 40
8.0
  1
M12
 41
0.7999999999999995
  7
FDASTYLE1
 72
     5
 11
-205.0932668896609
 21
-109.4864263907667
 31
0.0
  0
ENDBLK
  5
6F
  8
0
  0
BLOCK
  8
0
  2
DA_IMAGEDIMGROUP_12
 70
     0
 10
0.0
 20
0.0
 30
0.0
  3
DA_IMAGEDIMGROUP_12
  1

  0
LINE
  5
105
  8
LAYER0014
  6
CONTINUOUS
 62
     7
 10
-272.754723188489
 20
161.3006170662646
 30
0.0
 11
-272.754723188489
 21
309.8855645760302
 31
0.0
  0
LINE
  5
106
  8
LAYER0014
  6
CONTINUOUS
 62
     7
 10
-289.534264204114
 20
254.8006170662646
 30
0.0
 11
-289.534264204114
 21
309.8855645760302
 31
0.0
  0
LINE
  5
107
  8
LAYER0014
  6
CONTINUOUS
 62
     7
 10
-272.754723188489
 20
305.3135430916552
 30
0.0
 11
-289.534264204114
 21
305.3135430916552
 31
0.0
  0
LINE
  5
108
  8
LAYER0014
  6
CONTINUOUS
 62
     7
 10
-272.754723188489
 20
305.3135430916552
 30
0.0
 11
-260.054723188489
 21
305.3135430916552
 31
0.0
  0
INSERT
  5
109
  8
LAYER0014
 62
     7
  2
_OPEN30
 10
-272.754723188489
 20
305.3135430916552
 30
0.0
 41
3.00000278782526
 42
2.999997001378984
 50
180.0
  0
LINE
  5
10A
  8
LAYER0014
  6
CONTINUOUS
 62
     7
 10
-302.234264204114
 20
305.3135430916552
 30
0.0
 11
-289.534264204114
 21
305.3135430916552
 31
0.0
  0
INSERT
  5
10B
  8
LAYER0014
 62
     7
  2
_OPEN30
 10
-289.534264204114
 20
305.3135430916552
 30
0.0
 41
3.00000278782526
 42
2.999997001378984
 50
360.0
  0
TEXT
  5
10C
  8
LAYER0014
 62
     7
 10
-342.5400381298952
 20
308.5135430916552
 30
0.0
 40
8.0
  1
MAX39.1
 41
0.7999999999999992
  7
FDASTYLE1
 72
     5
 11
-297.7400381298953
 21
308.5135430916552
 31
0.0
  0
ENDBLK
  5
72
  8
0
  0
BLOCK
  8
0
  2
DA_IMAGEDIMGROUP_13
 70
     0
 10
0.0
 20
0.0
 30
0.0
  3
DA_IMAGEDIMGROUP_13
  1

  0
LINE
  5
10D
  8
LAYER0014
  6
CONTINUOUS
 62
     7
 10
-170.2342458935671
 20
272.2110827348604
 30
0.0
 11
-170.2342458935671
 21
310.2468927010302
 31
0.0
  0
LINE
  5
10E
  8
LAYER0014
  6
CONTINUOUS
 62
     7
 10
-169.2342458935671
 20
266.8006170662646
 30
0.0
 11
-169.2342458935671
 21
310.2468927010302
 31
0.0
  0
LINE
  5
10F
  8
LAYER0014
  6
CONTINUOUS
 62
     7
 10
-170.2342458935671
 20
305.6748712166552
 30
0.0
 11
-169.2342458935671
 21
305.6748712166552
 31
0.0
  0
LINE
  5
110
  8
LAYER0014
  6
CONTINUOUS
 62
     7
 10
-170.2342458935671
 20
305.6748712166552
 30
0.0
 11
-182.9342458935671
 21
305.6748712166552
 31
0.0
  0
INSERT
  5
111
  8
LAYER0014
 62
     7
  2
_OPEN30
 10
-170.2342458935671
 20
305.6748712166552
 30
0.0
 41
3.00000278782526
 42
2.999997001378984
 50
360.0
  0
LINE
  5
112
  8
LAYER0014
  6
CONTINUOUS
 62
     7
 10
-156.5342458935671
 20
305.6748712166552
 30
0.0
 11
-169.2342458935671
 21
305.6748712166552
 31
0.0
  0
INSERT
  5
113
  8
LAYER0014
 62
     7
  2
_OPEN30
 10
-169.2342458935671
 20
305.6748712166552
 30
0.0
 41
3.00000278782526
 42
2.999997001378984
 50
180.0
  0
TEXT
  5
114
  8
LAYER0014
 62
     7
 10
-163.1780761349344
 20
308.8804513935486
 30
0.0
 40
8.0
  1
1
 50
-0.1000000000000078
 41
0.7999999999999989
  7
FDASTYLE1
 72
     5
 11
-156.7780858826894
 21
308.8692812920069
 31
0.0
  0
ENDBLK
  5
75
  8
0
  0
BLOCK
  8
0
  2
DC_GROUP_2
 70
     0
 10
0.0
 20
0.0
 30
0.0
  3
DC_GROUP_2
  1

  0
LINE
  5
115
  8
LAYER0014
  6
CONTINUOUS
 62
     7
 10
-170.3271286749812
 20
259.296318258238
 30
0.0
 11
-126.9514574808925
 21
305.34122503922
 31
0.0
  0
INSERT
  5
116
  8
LAYER0014
 62
     7
  2
_OPEN30
 10
-170.3271286749812
 20
259.296318258238
 30
0.0
 41
3.00000278782526
 42
2.999997001378984
 50
226.7097913836059
  0
LINE
  5
117
  8
LAYER0014
  6
CONTINUOUS
 62
     7
 10
-126.9514547558718
 20
305.3412225350146
 30
0.0
 11
-33.69211637696554
 21
305.3412225350146
 31
0.0
  0
TEXT
  5
118
  8
LAYER0014
 62
     7
 10
-125.9504705639773
 20
308.5412225350146
 30
0.0
 40
8.0
  1
ｾﾚｰｼｮﾝP1.5山60ﾟ
 41
0.7887323943661972
  7
FDASTYLE1
 72
     5
 11
-36.35047056397725
 21
308.5412225350146
 31
0.0
  0
ENDBLK
  5
78
  8
0
  0
BLOCK
  8
0
  2
DA_IMAGEDIMGROUP_14
 70
     0
 10
0.0
 20
0.0
 30
0.0
  3
DA_IMAGEDIMGROUP_14
  1

  0
LINE
  5
119
  8
LAYER0014
  6
CONTINUOUS
 62
     7
 10
-321.3142458935671
 20
-17.75437377846195
 30
0.0
 11
-359.7272878857546
 21
-17.75437377846195
 31
0.0
  0
LINE
  5
11A
  8
LAYER0014
  6
CONTINUOUS
 62
     7
 10
-321.3142458935671
 20
-37.75437377846195
 30
0.0
 11
-359.7272878857546
 21
-37.75437377846195
 31
0.0
  0
LINE
  5
11B
  8
LAYER0014
  6
CONTINUOUS
 62
     7
 10
-355.1552969189577
 20
-17.75437377846195
 30
0.0
 11
-355.1552969189577
 21
-37.75437377846195
 31
0.0
  0
INSERT
  5
11C
  8
LAYER0014
 62
     7
  2
_OPEN30
 10
-355.1552969189577
 20
-17.75437377846195
 30
0.0
 41
3.00000278782526
 42
2.999997001378984
 50
90.0
  0
INSERT
  5
11D
  8
LAYER0014
 62
     7
  2
_OPEN30
 10
-355.1552969189577
 20
-37.75437377846195
 30
0.0
 41
3.00000278782526
 42
2.999997001378984
 50
270.0
  0
TEXT
  5
11E
  8
LAYER0014
 62
     7
 10
-358.3720471973929
 20
-37.34877410605866
 30
0.0
 40
8.0
  1
M20
 50
89.90000000000001
 41
0.8000000000000016
  7
FDASTYLE1
 72
     5
 11
-358.3385368927677
 21
-18.14880334932349
 31
0.0
  0
ENDBLK
  5
7B
  8
0
  0
BLOCK
  8
0
  2
DA_IMAGEDIMGROUP_15
 70
     0
 10
0.0
 20
0.0
 30
0.0
  3
DA_IMAGEDIMGROUP_15
  1

  0
LINE
  5
11F
  8
LAYER0014
  6
CONTINUOUS
 62
     7
 10
-289.534264204114
 20
-75.35938293373539
 30
0.0
 11
-289.534264204114
 21
-140.7788793936963
 31
0.0
  0
LINE
  5
120
  8
LAYER0014
  6
CONTINUOUS
 62
     7
 10
-316.2342458935671
 20
-41.76645690834477
 30
0.0
 11
-316.2342458935671
 21
-140.7788793936963
 31
0.0
  0
LINE
  5
121
  8
LAYER0014
  6
CONTINUOUS
 62
     7
 10
-289.534264204114
 20
-136.2068731681104
 30
0.0
 11
-316.2342458935671
 21
-136.2068731681104
 31
0.0
  0
LINE
  5
122
  8
LAYER0014
  6
CONTINUOUS
 62
     7
 10
-349.6979458935671
 20
-136.2068731681104
 30
0.0
 11
-316.2342458935671
 21
-136.2068731681104
 31
0.0
  0
INSERT
  5
123
  8
LAYER0014
 62
     7
  2
_OPEN30
 10
-316.2342458935671
 20
-136.2068731681104
 30
0.0
 41
3.00000278782526
 42
2.999997001378984
 50
360.0
  0
LINE
  5
124
  8
LAYER0014
  6
CONTINUOUS
 62
     7
 10
-279.534264204114
 20
-136.2068731681104
 30
0.0
 11
-289.534264204114
 21
-136.2068731681104
 31
0.0
  0
INSERT
  5
125
  8
LAYER0014
 62
     7
  2
_OPEN30
 10
-289.534264204114
 20
-136.2068731681104
 30
0.0
 41
3.00000278782526
 42
2.999997001378984
 50
180.0
  0
TEXT
  5
126
  8
LAYER0014
 62
     7
 10
-347.6979458935671
 20
-134.2068731681104
 30
0.0
 40
8.0
  1
26.7
 41
0.8000000000000007
  7
FDASTYLE1
 72
     5
 11
-322.0979458935671
 21
-134.2068731681104
 31
0.0
  0
ENDBLK
  5
7E
  8
0
  0
BLOCK
  8
0
  2
DA_IMAGEDIMGROUP_16
 70
     0
 10
0.0
 20
0.0
 30
0.0
  3
DA_IMAGEDIMGROUP_16
  1

  0
LINE
  5
127
  8
LAYER0014
  6
CONTINUOUS
 62
     7
 10
-272.754723188489
 20
67.01407791221187
 30
0.0
 11
-235.7547079296999
 21
67.01407791221187
 31
0.0
  0
INSERT
  5
128
  8
LAYER0014
 62
     7
  2
_OPEN30
 10
-272.754723188489
 20
67.01407791221187
 30
0.0
 41
3.00000278782526
 42
2.999997001378984
 50
180.0
  0
INSERT
  5
129
  8
LAYER0014
 62
     7
  2
_OPEN30
 10
-235.7547079296999
 20
67.01407791221187
 30
0.0
 41
3.00000278782526
 42
2.999997001378984
 50
360.0
  0
TEXT
  5
12A
  8
LAYER0014
 62
     7
 10
-260.6547155590944
 20
69.01407791221187
 30
0.0
 40
8.0
  1
37
 41
0.7999999999999989
  7
FDASTYLE1
 72
     5
 11
-247.8547155590944
 21
69.01407791221187
 31
0.0
  0
ENDBLK
  5
81
  8
0
  0
BLOCK
  8
0
  2
DA_IMAGEDIMGROUP_17
 70
     0
 10
0.0
 20
0.0
 30
0.0
  3
DA_IMAGEDIMGROUP_17
  1

  0
LINE
  5
12B
  8
LAYER0014
  6
CONTINUOUS
 62
     7
 10
-235.7547079296999
 20
67.01407791221187
 30
0.0
 11
-213.7547079296999
 21
67.01407791221187
 31
0.0
  0
INSERT
  5
12C
  8
LAYER0014
 62
     7
  2
_OPEN30
 10
-235.7547079296999
 20
67.01407791221187
 30
0.0
 41
3.00000278782526
 42
2.999997001378984
 50
180.0
  0
INSERT
  5
12D
  8
LAYER0014
 62
     7
  2
_OPEN30
 10
-213.7547079296999
 20
67.01407791221187
 30
0.0
 41
3.00000278782526
 42
2.999997001378984
 50
360.0
  0
TEXT
  5
12E
  8
LAYER0014
 62
     7
 10
-231.1547079296999
 20
69.01407791221187
 30
0.0
 40
8.0
  1
22
 41
0.8000000000000007
  7
FDASTYLE1
 72
     5
 11
-218.3547079296999
 21
69.01407791221187
 31
0.0
  0
ENDBLK
  5
84
  8
0
  0
BLOCK
  8
0
  2
DA_IMAGEDIMGROUP_18
 70
     0
 10
0.0
 20
0.0
 30
0.0
  3
DA_IMAGEDIMGROUP_18
  1

  0
LINE
  5
12F
  8
LAYER0014
  6
CONTINUOUS
 62
     7
 10
-213.7547079296999
 20
67.01407791221187
 30
0.0
 11
-197.7547079296999
 21
67.01407791221187
 31
0.0
  0
LINE
  5
130
  8
LAYER0014
  6
CONTINUOUS
 62
     7
 10
-207.7547079296999
 20
67.01407791221187
 30
0.0
 11
-197.7547079296999
 21
67.01407791221187
 31
0.0
  0
INSERT
  5
131
  8
LAYER0014
 62
     7
  2
_OPEN30
 10
-197.7547079296999
 20
67.01407791221187
 30
0.0
 41
3.00000278782526
 42
2.999997001378984
 50
360.0
  0
LINE
  5
132
  8
LAYER0014
  6
CONTINUOUS
 62
     7
 10
-223.7547079296999
 20
67.01407791221187
 30
0.0
 11
-213.7547079296999
 21
67.01407791221187
 31
0.0
  0
INSERT
  5
133
  8
LAYER0014
 62
     7
  2
_OPEN30
 10
-213.7547079296999
 20
67.01407791221187
 30
0.0
 41
3.00000278782526
 42
2.999997001378984
 50
360.0
  0
TEXT
  5
134
  8
LAYER0014
 62
     7
 10
-212.1547079296999
 20
69.01407791221187
 30
0.0
 40
8.0
  1
16
 41
0.8000000000000007
  7
FDASTYLE1
 72
     5
 11
-199.3547079296999
 21
69.01407791221187
 31
0.0
  0
ENDBLK
  5
87
  8
0
  0
BLOCK
  8
0
  2
DA_IMAGEDIMGROUP_19
 70
     0
 10
0.0
 20
0.0
 30
0.0
  3
DA_IMAGEDIMGROUP_19
  1

  0
LINE
  5
135
  8
LAYER0014
  6
CONTINUOUS
 62
     7
 10
-171.7342458935671
 20
51.4363496407275
 30
0.0
 11
-169.2342458935671
 21
51.4363496407275
 31
0.0
  0
LINE
  5
136
  8
LAYER0014
  6
CONTINUOUS
 62
     7
 10
-142.1705458935671
 20
51.4363496407275
 30
0.0
 11
-169.2342458935671
 21
51.4363496407275
 31
0.0
  0
INSERT
  5
137
  8
LAYER0014
 62
     7
  2
_OPEN30
 10
-169.2342458935671
 20
51.4363496407275
 30
0.0
 41
3.00000278782526
 42
2.999997001378984
 50
180.0
  0
LINE
  5
138
  8
LAYER0014
  6
CONTINUOUS
 62
     7
 10
-181.7342458935671
 20
51.4363496407275
 30
0.0
 11
-171.7342458935671
 21
51.4363496407275
 31
0.0
  0
INSERT
  5
139
  8
LAYER0014
 62
     7
  2
_OPEN30
 10
-171.7342458935671
 20
51.4363496407275
 30
0.0
 41
3.00000278782526
 42
2.999997001378984
 50
360.0
  0
TEXT
  5
13A
  8
LAYER0014
 62
     7
 10
-163.3705458935671
 20
53.4363496407275
 30
0.0
 40
8.0
  1
2.5
 50
-0.1000000000000078
 41
0.8000000000000002
  7
FDASTYLE1
 72
     5
 11
-144.170575136832
 21
53.40283933610225
 31
0.0
  0
ENDBLK
  5
8A
  8
0
  0
BLOCK
  8
0
  2
DC_GROUP_3
 70
     0
 10
0.0
 20
0.0
 30
0.0
  3
DC_GROUP_3
  1

  0
LINE
  5
13B
  8
LAYER0014
  6
CONTINUOUS
 62
     7
 10
-146.4225618889594
 20
247.085812197344
 30
0.0
 11
-114.9963905868625
 21
283.1334957113011
 31
0.0
  0
INSERT
  5
13C
  8
LAYER0014
 62
     7
  2
_OPEN30
 10
-146.4225618889594
 20
247.085812197344
 30
0.0
 41
3.00000278782526
 42
2.999997001378984
 50
228.9182618010989
  0
LINE
  5
13D
  8
LAYER0014
  6
CONTINUOUS
 62
     7
 10
-114.9963842602663
 20
283.1334893807177
 30
0.0
 11
-92.13704740723898
 21
283.1334893807177
 31
0.0
  0
TEXT
  5
13E
  8
LAYER0014
 62
     7
 10
-114.0720525952273
 20
286.3334893807177
 30
0.0
 40
8.0
  1
M16
 41
0.8000000000000002
  7
FDASTYLE1
 72
     5
 11
-94.87205259522726
 21
286.3334893807177
 31
0.0
  0
ENDBLK
  5
8D
  8
0
  0
BLOCK
  8
0
  2
DA_IMAGEDIMGROUP_20
 70
     0
 10
0.0
 20
0.0
 30
0.0
  3
DA_IMAGEDIMGROUP_20
  1

  0
LINE
  5
13F
  8
LAYER0014
  6
CONTINUOUS
 62
     7
 10
-124.938883344739
 20
195.7206170662646
 30
0.0
 11
-84.67253935059836
 21
195.7206170662646
 31
0.0
  0
LINE
  5
140
  8
LAYER0014
  6
CONTINUOUS
 62
     7
 10
-124.938883344739
 20
240.7206170662646
 30
0.0
 11
-84.67253935059836
 21
240.7206170662646
 31
0.0
  0
LINE
  5
141
  8
LAYER0014
  6
CONTINUOUS
 62
     7
 10
-86.67253935059836
 20
195.7206170662646
 30
0.0
 11
-86.67253935059836
 21
240.7206170662646
 31
0.0
  0
INSERT
  5
142
  8
LAYER0014
 62
     7
  2
_OPEN30
 10
-86.67253935059836
 20
195.7206170662646
 30
0.0
 41
3.00000278782526
 42
2.999997001378984
 50
270.0
  0
INSERT
  5
143
  8
LAYER0014
 62
     7
  2
_OPEN30
 10
-86.67253935059836
 20
240.7206170662646
 30
0.0
 41
3.00000278782526
 42
2.999997001378984
 50
90.0
  0
TEXT
  5
144
  8
LAYER0014
 62
     7
 10
-88.67253935059836
 20
211.8206170662646
 30
0.0
 40
8.0
  1
45
 50
90.0
 41
0.8000000000000007
  7
FDASTYLE1
 72
     5
 11
-88.67253935059836
 21
224.6206170662646
 31
0.0
  0
ENDBLK
  5
90
  8
0
  0
BLOCK
  8
0
  2
DA_IMAGEDIMGROUP_21
 70
     0
 10
0.0
 20
0.0
 30
0.0
  3
DA_IMAGEDIMGROUP_21
  1

  0
LINE
  5
145
  8
LAYER0014
  6
CONTINUOUS
 62
     7
 10
-169.2342458935671
 20
-87.35938293373539
 30
0.0
 11
-169.2342458935671
 21
-188.6322729483838
 31
0.0
  0
LINE
  5
146
  8
LAYER0014
  6
CONTINUOUS
 62
     7
 10
-295.2342458935671
 20
-90.35938293373539
 30
0.0
 11
-295.2342458935671
 21
-188.6322729483838
 31
0.0
  0
LINE
  5
147
  8
LAYER0014
  6
CONTINUOUS
 62
     7
 10
-169.2342458935671
 20
-184.0602667227979
 30
0.0
 11
-295.2342458935671
 21
-184.0602667227979
 31
0.0
  0
INSERT
  5
148
  8
LAYER0014
 62
     7
  2
_OPEN30
 10
-169.2342458935671
 20
-184.0602667227979
 30
0.0
 41
3.00000278782526
 42
2.999997001378984
 50
360.0
  0
INSERT
  5
149
  8
LAYER0014
 62
     7
  2
_OPEN30
 10
-295.2342458935671
 20
-184.0602667227979
 30
0.0
 41
3.00000278782526
 42
2.999997001378984
 50
180.0
  0
TEXT
  5
14A
  8
LAYER0014
 62
     7
 10
-240.876517245299
 20
-182.0602667227979
 30
0.0
 40
8.0
  1
126
 41
0.7999999999999995
  7
FDASTYLE1
 72
     5
 11
-221.676517245299
 21
-182.0602667227979
 31
0.0
  0
ENDBLK
  5
93
  8
0
  0
BLOCK
  8
0
  2
DA_IMAGEDIMGROUP_22
 70
     0
 10
0.0
 20
0.0
 30
0.0
  3
DA_IMAGEDIMGROUP_22
  1

  0
LINE
  5
14B
  8
0
  6
CONTINUOUS
 62
     9
 10
-329.1101696890038
 20
44.47062811547553
 30
0.0
 11
-329.1101696890038
 21
134.9706083559259
 31
0.0
  0
INSERT
  5
14C
  8
0
 62
     9
  2
_OPEN30
 10
-329.1101696890038
 20
44.47062811547553
 30
0.0
 41
3.00000278782526
 42
2.999997001378984
 50
270.0
  0
INSERT
  5
14D
  8
0
 62
     9
  2
_OPEN30
 10
-329.1101696890038
 20
134.9706083559259
 30
0.0
 41
3.00000278782526
 42
2.999997001378984
 50
90.0
  0
LINE
  5
14E
  8
0
  6
CONTINUOUS
 62
     9
 10
-273.754715588897
 20
44.47062811547553
 30
0.0
 11
-331.1101696890038
 21
44.47062811547553
 31
0.0
  0
LINE
  5
14F
  8
0
  6
CONTINUOUS
 62
     9
 10
-273.754712803507
 20
134.9706083559259
 30
0.0
 11
-331.1101696890038
 21
134.9706083559259
 31
0.0
  0
TEXT
  5
150
  8
0
 62
     7
 10
-331.1101696890038
 20
65.68061823570071
 30
0.0
 40
8.0
  1
φ90.5
 50
90.0
 41
0.7692307692307692
  7
FDASTYLE1
 72
     5
 11
-331.1101696890038
 21
97.68061823570071
 31
0.0
  0
TEXT
  5
151
  8
0
 62
     7
 10
-335.5101696890038
 20
99.68061823570071
 30
0.0
 40
4.4
  1
+0.5
 50
90.0
 41
0.7999999999999991
  7
FDASTYLE1
 72
     5
 11
-335.5101696890038
 21
113.7606182357007
 31
0.0
  0
TEXT
  5
152
  8
0
 62
     7
 10
-330.7101696890038
 20
99.68061823570071
 30
0.0
 40
4.4
  1
　0
 50
90.0
 41
0.7272727272727294
  7
FDASTYLE1
 72
     5
 11
-330.7101696890038
 21
106.7206182357007
 31
0.0
  0
ENDBLK
  5
96
  8
0
  0
BLOCK
  8
0
  2
DC_GROUP_4
 70
     0
 10
0.0
 20
0.0
 30
0.0
  3
DC_GROUP_4
  1

  0
LINE
  5
153
  8
LAYER0014
  6
CONTINUOUS
 62
     7
 10
-165.1542458935671
 20
166.7206170662646
 30
0.0
 11
-57.92198240479758
 21
166.7206170662646
 31
0.0
  0
LINE
  5
154
  8
LAYER0014
  6
CONTINUOUS
 62
     7
 10
-158.9904314390831
 20
89.72062469565914
 30
0.0
 11
-123.7677829886981
 21
89.72062469565914
 31
0.0
  0
LINE
  5
155
  8
LAYER0014
  6
CONTINUOUS
 62
     7
 10
-82.98366373035751
 20
89.72062469565914
 30
0.0
 11
-57.92198240479758
 21
89.72062469565914
 31
0.0
  0
LINE
  5
156
  8
LAYER0014
  6
CONTINUOUS
 62
     7
 10
-62.49398100098898
 20
89.72062469565914
 30
0.0
 11
-62.49398100098898
 21
166.7206170662646
 31
0.0
  0
INSERT
  5
157
  8
LAYER0014
 62
     7
  2
_OPEN30
 10
-62.49398100098898
 20
89.72062469565914
 30
0.0
 41
3.00000278782526
 42
2.999997001378984
 50
270.0
  0
INSERT
  5
158
  8
LAYER0014
 62
     7
  2
_OPEN30
 10
-62.49398100098898
 20
166.7206170662646
 30
0.0
 41
3.00000278782526
 42
2.999997001378984
 50
90.0
  0
TEXT
  5
159
  8
LAYER0014
 62
     7
 10
-64.49398100098898
 20
105.8206208809619
 30
0.0
 40
8.0
  1
MAX84.5
 50
90.0
 41
0.8000000000000002
  7
FDASTYLE1
 72
     5
 11
-64.49398100098898
 21
150.6206208809619
 31
0.0
  0
ENDBLK
  5
99
  8
0
  0
BLOCK
  8
0
  2
DC_GROUP_5
 70
     0
 10
0.0
 20
0.0
 30
0.0
  3
DC_GROUP_5
  1

  0
LINE
  5
15A
  8
0
  6
CONTINUOUS
 62
     5
 10
271.4884074954099
 20
-60.249931961261
 30
0.0
 11
264.7383989123411
 21
-60.249931961261
 31
0.0
  0
LINE
  5
15B
  8
0
  6
CONTINUOUS
 62
     5
 10
270.3634574097853
 20
-61.37491245686623
 30
0.0
 11
271.4884504170489
 21
-60.24991916511316
 31
0.0
  0
LINE
  5
15C
  8
0
  6
CONTINUOUS
 62
     5
 10
270.3633486975799
 20
-59.12497197256914
 30
0.0
 11
271.4883583633876
 21
-60.24998097455853
 31
0.0
  0
LINE
  5
15D
  8
0
  6
CONTINUOUS
 62
     5
 10
264.7383043830537
 20
-60.25001230022029
 30
0.0
 11
265.8633140488614
 21
-61.37502130220967
 31
0.0
  0
LINE
  5
15E
  8
0
  6
CONTINUOUS
 62
     5
 10
264.7384460014039
 20
-60.24993923755078
 30
0.0
 11
265.8634551930556
 21
-59.12492976140543
 31
0.0
  0
LINE
  5
15F
  8
0
  6
CONTINUOUS
 62
     5
 10
272.6134257344313
 20
-48.99989879686412
 30
0.0
 11
272.6134257344313
 21
-71.49989879686412
 31
0.0
  0
LINE
  5
160
  8
0
  6
CONTINUOUS
 62
     5
 10
280.904009007642
 20
-63.06357247092002
 30
0.0
 11
280.6725080898692
 21
-61.60193355248977
 31
0.0
  0
LINE
  5
161
  8
0
  6
CONTINUOUS
 62
     5
 10
280.904018410322
 20
-63.063611362017
 30
0.0
 11
282.3656346341546
 21
-62.8321137601307
 31
0.0
  0
LINE
  5
162
  8
0
  6
CONTINUOUS
 62
     5
 10
272.6134275225706
 20
-71.49991024095591
 30
0.0
 11
283.8634289530821
 21
-71.49991024095591
 31
0.0
  0
LINE
  5
163
  8
0
  6
CONTINUOUS
 62
     5
 10
283.8634146479673
 20
-48.99989736635264
 30
0.0
 11
283.8634146479673
 21
-71.49989736635264
 31
0.0
  0
LINE
  5
164
  8
0
  6
CONTINUOUS
 62
     5
 10
272.6134189395017
 20
-48.99989450532969
 30
0.0
 11
289.4884175089903
 21
-48.99989450532969
 31
0.0
  0
LINE
  5
165
  8
0
  6
CONTINUOUS
 62
     5
 10
289.4884167937345
 20
-48.9998966510969
 30
0.0
 11
289.4884167937345
 21
-52.3748966510969
 31
0.0
  0
LINE
  5
166
  8
0
  6
CONTINUOUS
 62
     5
 10
287.8009039191313
 20
-52.37490881044444
 30
0.0
 11
289.4883924750395
 21
-52.37490881044444
 31
0.0
  0
LINE
  5
167
  8
0
  6
CONTINUOUS
 62
     5
 10
287.8009160784788
 20
-52.3748966510969
 30
0.0
 11
287.8009160784788
 21
-54.6248966510969
 31
0.0
  0
LINE
  5
168
  8
0
  6
CONTINUOUS
 62
     5
 10
286.113418224246
 20
-54.62488377649363
 30
0.0
 11
287.800918224246
 21
-54.62488377649363
 31
0.0
  0
LINE
  5
169
  8
0
  6
CONTINUOUS
 62
     5
 10
286.1134010581083
 20
-54.6249195392805
 30
0.0
 11
286.1134010581083
 21
-56.8749195392805
 31
0.0
  0
LINE
  5
16A
  8
0
  6
CONTINUOUS
 62
     5
 10
283.8634185818739
 20
-56.87487590868052
 30
0.0
 11
286.113418224246
 21
-56.87487590868052
 31
0.0
  0
LINE
  5
16B
  8
0
  6
CONTINUOUS
 62
     5
 10
287.388783022907
 20
-59.124952788249
 30
0.0
 11
288.5137926887148
 21
-60.24996179023839
 31
0.0
  0
LINE
  5
16C
  8
0
  6
CONTINUOUS
 62
     5
 10
288.5138064650602
 20
-55.810464149304
 30
0.0
 11
288.5138064650602
 21
-60.24990204066064
 31
0.0
  0
LINE
  5
16D
  8
0
  6
CONTINUOUS
 62
     5
 10
288.5138478217403
 20
-60.24991852969926
 30
0.0
 11
289.6388408290039
 21
-59.12492523794619
 31
0.0
  0
ARC
  5
16E
  8
0
  6
CONTINUOUS
 62
     5
 10
278.1197580126829
 20
-60.27933800775584
 30
0.0
 40
3.937502861022949
 50
315.0000977855039
 51
609.9999500386407
  0
TEXT
  5
16F
  8
0
 62
     5
 10
266.6824083952017
 20
-57.43007994253215
 30
0.0
 40
3.75
  1
F
 41
0.8791213035583496
  7
FDASTYLE1
 72
     5
 11
269.9791132835455
 21
-57.43007994253215
 31
0.0
  0
TEXT
  5
170
  8
0
 62
     5
 10
278.3733785776205
 20
-68.70873988229808
 30
0.0
 40
3.75
  1
N min
 41
0.7983872809842204
  7
FDASTYLE1
 72
     5
 11
296.9358785776205
 21
-68.70873988229808
 31
0.0
  0
TEXT
  5
171
  8
0
 62
     5
 10
297.7796275717921
 20
-66.04047048646983
 30
0.0
 40
1.875
  1
-1
 41
0.7826089106345556
  7
FDASTYLE1
 72
     5
 11
301.1546279741235
 21
-66.04047048646983
 31
0.0
  0
TEXT
  5
172
  8
0
 62
     5
 10
291.0698109296865
 20
-59.98374945480403
 30
0.0
 40
3.75
  1
ΣS
 41
0.9590411728078668
  7
FDASTYLE1
 72
     5
 11
298.9819006053514
 21
-59.98374945480403
 31
0.0
  0
ENDBLK
  5
9C
  8
0
  0
BLOCK
  8
0
  2
DA_IMAGEDIMGROUP_23
 70
     0
 10
0.0
 20
0.0
 30
0.0
  3
DA_IMAGEDIMGROUP_23
  1

  0
LINE
  5
173
  8
LAYER0014
  6
CONTINUOUS
 62
     7
 10
77.58581002397625
 20
6.273854768229207
 30
0.0
 11
52.86857237972509
 21
-7.996638693616276
 31
0.0
  0
LINE
  5
174
  8
LAYER0014
  6
CONTINUOUS
 62
     7
 10
88.08576415836359
 20
-11.91257880051052
 30
0.0
 11
63.3685317089159
 21
-26.18307986495195
 31
0.0
  0
LINE
  5
175
  8
LAYER0014
  6
CONTINUOUS
 62
     7
 10
56.82802023093444
 20
-5.710540325619448
 30
0.0
 11
67.32802535693207
 21
-23.89708794487372
 31
0.0
  0
LINE
  5
176
  8
LAYER0014
  6
CONTINUOUS
 62
     7
 10
90.74830191663006
 20
-64.46220860890608
 30
0.0
 11
67.32802535693207
 21
-23.89708794487372
 31
0.0
  0
INSERT
  5
177
  8
LAYER0014
 62
     7
  2
_OPEN30
 10
67.32802535693207
 20
-23.89708794487372
 30
0.0
 41
3.00000278782526
 42
2.999997001378984
 50
119.9999928226273
  0
LINE
  5
178
  8
LAYER0014
  6
CONTINUOUS
 62
     7
 10
51.828021315794
 20
2.949714338568803
 30
0.0
 11
56.82802023093444
 21
-5.710540325619448
 31
0.0
  0
INSERT
  5
179
  8
LAYER0014
 62
     7
  2
_OPEN30
 10
56.82802023093444
 20
-5.710540325619448
 30
0.0
 41
3.00000278782526
 42
2.999997001378984
 50
299.9999928226272
  0
TEXT
  5
17A
  8
LAYER0014
 62
     7
 10
78.68035584368008
 20
-39.55990595271843
 30
0.0
 40
8.0
  1
21H8
 50
-59.99999999999999
 41
0.7999999999999995
  7
FDASTYLE1
 72
     5
 11
91.48035584368007
 21
-61.73015628960005
 31
0.0
  0
ENDBLK
  5
9F
  8
0
  0
BLOCK
  8
0
  2
DC_GROUP_6
 70
     0
 10
0.0
 20
0.0
 30
0.0
  3
DC_GROUP_6
  1

  0
LINE
  5
17B
  8
LAYER0014
  6
CONTINUOUS
 62
     7
 10
179.1369994043619
 20
-27.20183138228806
 30
0.0
 11
145.0412921440224
 21
-119.1892059776076
 31
0.0
  0
INSERT
  5
17C
  8
LAYER0014
 62
     7
  2
_OPEN30
 10
179.1369994043619
 20
-27.20183138228806
 30
0.0
 41
3.00000278782526
 42
2.999997001378984
 50
69.66245411162537
  0
LINE
  5
17D
  8
LAYER0014
  6
CONTINUOUS
 62
     7
 10
145.0412820605345
 20
-119.1891967113691
 30
0.0
 11
83.78194368162821
 21
-119.1891967113691
 31
0.0
  0
TEXT
  5
17E
  8
LAYER0014
 62
     7
 10
86.02065828123759
 20
-115.9891967113691
 30
0.0
 40
8.0
  1
PCD234.95
 41
0.7999999999999999
  7
FDASTYLE1
 72
     5
 11
143.6206582812376
 21
-115.9891967113691
 31
0.0
  0
ENDBLK
  5
A2
  8
0
  0
BLOCK
  8
0
  2
DA_IMAGEDIMGROUP_24
 70
     0
 10
0.0
 20
0.0
 30
0.0
  3
DA_IMAGEDIMGROUP_24
  1

  0
LINE
  5
17F
  8
LAYER0014
  6
CONTINUOUS
 62
     7
 10
243.1190255908079
 20
291.4707593433184
 30
0.0
 11
243.1190255908079
 21
317.1135376636309
 31
0.0
  0
LINE
  5
180
  8
LAYER0014
  6
CONTINUOUS
 62
     7
 10
170.2642227097559
 20
215.9099403900336
 30
0.0
 11
129.4231220347321
 21
286.6485517148801
 31
0.0
  0
ARC
  5
181
  8
LAYER0014
  6
CONTINUOUS
 62
     7
 10
243.1197580126829
 20
89.72067725103322
 30
0.0
 40
222.8208770751953
 50
89.99998201391065
 51
120.0000306600609
  0
INSERT
  5
182
  8
LAYER0014
 62
     7
  2
_OPEN30
 10
243.119827959828
 20
312.5415543262176
 30
0.0
 41
3.00000278782526
 42
2.999997001378984
 50
0.3856897588876476
  0
INSERT
  5
183
  8
LAYER0014
 62
     7
  2
_OPEN30
 10
131.7092162139668
 20
282.6891576738107
 30
0.0
 41
3.00000278782526
 42
2.999997001378984
 50
209.6143229150834
  0
TEXT
  5
184
  8
LAYER0014
 62
     7
 10
175.3494041095875
 20
305.5730375922365
 30
0.0
 40
8.0
  1
30ﾟ
 50
14.9
 41
0.7999999999999989
  7
FDASTYLE1
 72
     5
 11
193.903824832557
 21
310.5099872208067
 31
0.0
  0
ENDBLK
  5
A5
  8
0
  0
BLOCK
  8
0
  2
DA_IMAGEDIMGROUP_25
 70
     0
 10
0.0
 20
0.0
 30
0.0
  3
DA_IMAGEDIMGROUP_25
  1

  0
LINE
  5
185
  8
LAYER0014
  6
CONTINUOUS
 62
     7
 10
70.33577955827026
 20
18.83130671763348
 30
0.0
 11
24.65934459424369
 21
-7.539990819065523
 31
0.0
  0
LINE
  5
186
  8
LAYER0014
  6
CONTINUOUS
 62
     7
 10
95.33577458031022
 20
-24.46994972255442
 30
0.0
 11
49.65933211918855
 21
-50.84125654642578
 31
0.0
  0
LINE
  5
187
  8
LAYER0014
  6
CONTINUOUS
 62
     7
 10
28.61877735283196
 20
-5.254002829205106
 30
0.0
 11
53.61877437259972
 21
-48.55527522147806
 31
0.0
  0
INSERT
  5
188
  8
LAYER0014
 62
     7
  2
_OPEN30
 10
28.61877735283196
 20
-5.254002829205106
 30
0.0
 41
3.00000278782526
 42
2.999997001378984
 50
119.9999957801861
  0
INSERT
  5
189
  8
LAYER0014
 62
     7
  2
_OPEN30
 10
53.61877437259972
 20
-48.55527522147806
 30
0.0
 41
3.00000278782526
 42
2.999997001378984
 50
299.9999957801861
  0
TEXT
  5
18A
  8
LAYER0014
 62
     7
 10
39.65082674393436
 20
-20.36207656868611
 30
0.0
 40
8.0
  1
50
 50
-59.99999999999999
 41
0.7999999999999998
  7
FDASTYLE1
 72
     5
 11
46.05082674393436
 21
-31.44720173712692
 31
0.0
  0
ENDBLK
  5
A8
  8
0
  0
BLOCK
  8
0
  2
DA_IMAGEDIMGROUP_26
 70
     0
 10
0.0
 20
0.0
 30
0.0
  3
DA_IMAGEDIMGROUP_26
  1

  0
LINE
  5
18B
  8
LAYER0014
  6
CONTINUOUS
 62
     7
 10
79.30166243691234
 20
184.3012894238316
 30
0.0
 11
67.1042197439611
 21
191.3434285980534
 31
0.0
  0
LINE
  5
18C
  8
LAYER0014
  6
CONTINUOUS
 62
     7
 10
47.75258088109977
 20
89.72072639852131
 30
0.0
 11
39.87443192415906
 21
89.72085163624905
 31
0.0
  0
ARC
  5
18D
  8
LAYER0014
  6
CONTINUOUS
 62
     7
 10
243.119788530261
 20
89.72066199224416
 30
0.0
 40
198.67333984375
 50
150.0000110043195
 51
179.9999640278213
  0
INSERT
  5
18E
  8
LAYER0014
 62
     7
  2
_OPEN30
 10
71.06361009211722
 20
189.057298868735
 30
0.0
 41
3.00000278782526
 42
2.999997001378984
 50
60.43259918196881
  0
INSERT
  5
18F
  8
LAYER0014
 62
     7
  2
_OPEN30
 10
44.44644868655018
 20
89.72078672591465
 30
0.0
 41
3.00000278782526
 42
2.999997001378984
 50
269.567375850172
  0
TEXT
  5
190
  8
LAYER0014
 62
     7
 10
45.62571197276519
 20
132.7062027254718
 30
0.0
 40
8.0
  1
30ﾟ
 50
74.89999999999999
 41
0.7999999999999994
  7
FDASTYLE1
 72
     5
 11
50.62739853870404
 21
151.2432772383529
 31
0.0
  0
ENDBLK
  5
AB
  8
0
  0
BLOCK
  8
0
  2
DA_IMAGEDIMGROUP_27
 70
     0
 10
0.0
 20
0.0
 30
0.0
  3
DA_IMAGEDIMGROUP_27
  1

  0
LINE
  5
191
  8
LAYER0014
  6
CONTINUOUS
 62
     7
 10
169.3422951003999
 20
217.5070512677357
 30
0.0
 11
129.4232531872878
 21
286.64864161742
 31
0.0
  0
LINE
  5
192
  8
LAYER0014
  6
CONTINUOUS
 62
     7
 10
47.75257234373758
 20
89.72078787725393
 30
0.0
 11
15.72687852659891
 21
89.72078787725393
 31
0.0
  0
ARC
  5
193
  8
LAYER0014
  6
CONTINUOUS
 62
     7
 10
243.119788530261
 20
89.72066199224416
 30
0.0
 40
222.8208923339844
 50
120.0000306600609
 51
179.9999640278213
  0
INSERT
  5
194
  8
LAYER0014
 62
     7
  2
_OPEN30
 10
131.7092391021433
 20
282.6891556295165
 30
0.0
 41
3.00000278782526
 42
2.999997001378984
 50
30.38573837862484
  0
INSERT
  5
195
  8
LAYER0014
 62
     7
  2
_OPEN30
 10
20.29889619632056
 20
89.72080188654394
 30
0.0
 41
3.00000278782526
 42
2.999997001378984
 50
269.6142563092572
  0
TEXT
  5
196
  8
LAYER0014
 62
     7
 10
42.56823019847866
 20
194.430496510072
 30
0.0
 40
8.0
  1
60ﾟ
 50
59.9
 41
0.7999999999999995
  7
FDASTYLE1
 72
     5
 11
52.19723635194024
 21
211.0414037850103
 31
0.0
  0
ENDBLK
  5
AE
  8
0
  0
BLOCK
  8
0
  2
DC_GROUP_7
 70
     0
 10
0.0
 20
0.0
 30
0.0
  3
DC_GROUP_7
  1

  0
LINE
  5
197
  8
LAYER0014
  6
CONTINUOUS
 62
     7
 10
247.6131351540245
 20
7.69599369416089
 30
0.0
 11
361.6131242309913
 21
-118.9706540642158
 31
0.0
  0
INSERT
  5
198
  8
LAYER0014
 62
     7
  2
_OPEN30
 10
247.6131351540245
 20
7.69599369416089
 30
0.0
 41
3.00000278782526
 42
2.999997001378984
 50
131.9872140188686
  0
LINE
  5
199
  8
LAYER0014
  6
CONTINUOUS
 62
     7
 10
361.6131356982298
 20
-118.970660334416
 30
0.0
 11
461.2724679736204
 21
-118.970660334416
 31
0.0
  0
TEXT
  5
19A
  8
LAYER0014
 62
     7
 10
362.2797921923704
 20
-115.770660334416
 30
0.0
 40
8.0
  1
3-M10×20 PCD156
 41
0.7894736842105263
  7
FDASTYLE1
 72
     5
 11
458.2797921923704
 21
-115.770660334416
 31
0.0
  0
ENDBLK
  5
B1
  8
0
  0
BLOCK
  8
0
  2
DA_IMAGEDIMGROUP_28
 70
     0
 10
0.0
 20
0.0
 30
0.0
  3
DA_IMAGEDIMGROUP_28
  1

  0
LINE
  5
19B
  8
0
  6
CONTINUOUS
 62
     9
 10
-241.7342458935671
 20
-94.74437927162602
 30
0.0
 11
-241.7342458935671
 21
-111.1258293181319
 31
0.0
  0
LINE
  5
19C
  8
0
  6
CONTINUOUS
 62
     9
 10
-289.534264204114
 20
-72.27938293373539
 30
0.0
 11
-289.534264204114
 21
-111.1258293181319
 31
0.0
  0
LINE
  5
19D
  8
0
  6
CONTINUOUS
 62
     9
 10
-289.534264204114
 20
-109.1258293181319
 30
0.0
 11
-241.7342458935671
 21
-109.1258293181319
 31
0.0
  0
INSERT
  5
19E
  8
0
 62
     9
  2
_OPEN30
 10
-289.534264204114
 20
-109.1258293181319
 30
0.0
 41
3.00000278782526
 42
2.999997001378984
 50
180.0
  0
INSERT
  5
19F
  8
0
 62
     9
  2
_OPEN30
 10
-241.7342458935671
 20
-109.1258293181319
 30
0.0
 41
3.00000278782526
 42
2.999997001378984
 50
360.0
  0
TEXT
  5
1A0
  8
0
 62
     7
 10
-278.4342550488406
 20
-107.1258293181319
 30
0.0
 40
8.0
  1
47.8
 41
0.8000000000000007
  7
FDASTYLE1
 72
     5
 11
-252.8342550488405
 21
-107.1258293181319
 31
0.0
  0
ENDBLK
  5
B4
  8
0
  0
BLOCK
  8
0
  2
DA_IMAGEDIMGROUP_29
 70
     0
 10
0.0
 20
0.0
 30
0.0
  3
DA_IMAGEDIMGROUP_29
  1

  0
LINE
  5
1A1
  8
0
  6
CONTINUOUS
 62
     9
 10
293.1197580126829
 20
97.68393493735836
 30
0.0
 11
293.1197580126829
 21
108.2138463551891
 31
0.0
  0
LINE
  5
1A2
  8
0
  6
CONTINUOUS
 62
     9
 10
193.1197580126829
 20
98.06356597983883
 30
0.0
 11
193.1197580126829
 21
108.2138463551891
 31
0.0
  0
LINE
  5
1A3
  8
0
  6
CONTINUOUS
 62
     9
 10
193.1197580126829
 20
106.2138463551891
 30
0.0
 11
293.1197580126829
 21
106.2138463551891
 31
0.0
  0
INSERT
  5
1A4
  8
0
 62
     9
  2
_OPEN30
 10
193.1197580126829
 20
106.2138463551891
 30
0.0
 41
3.00000278782526
 42
2.999997001378984
 50
180.0
  0
INSERT
  5
1A5
  8
0
 62
     9
  2
_OPEN30
 10
293.1197580126829
 20
106.2138463551891
 30
0.0
 41
3.00000278782526
 42
2.999997001378984
 50
360.0
  0
TEXT
  5
1A6
  8
0
 62
     7
 10
223.9197580126829
 20
108.2138463551891
 30
0.0
 40
8.0
  1
PCD100
 41
0.7999999999999995
  7
FDASTYLE1
 72
     5
 11
262.3197580126829
 21
108.2138463551891
 31
0.0
  0
ENDBLK
  5
B7
  8
0
  0
BLOCK
  8
0
  2
DC_GROUP_8
 70
     0
 10
0.0
 20
0.0
 30
0.0
  3
DC_GROUP_8
  1

  0
LINE
  5
1A7
  8
0
  6
CONTINUOUS
 62
     7
 10
294.6617263462547
 20
92.4099244310891
 30
0.0
 11
399.827247742442
 21
229.6322470880774
 31
0.0
  0
INSERT
  5
1A8
  8
0
 62
     7
  2
_OPEN30
 10
294.6617263462547
 20
92.4099244310891
 30
0.0
 41
3.00000278782526
 42
2.999997001378984
 50
232.533882888256
  0
LINE
  5
1A9
  8
0
  6
CONTINUOUS
 62
     7
 10
399.827247742442
 20
229.6322470880774
 30
0.0
 11
438.2272477424421
 21
229.6322470880774
 31
0.0
  0
TEXT
  5
1AA
  8
0
 62
     7
 10
399.827247742442
 20
229.6322470880774
 30
0.0
 40
8.0
  1
2-φ6.2
 41
0.7741935483870974
  7
FDASTYLE1
 72
     5
 11
438.2272477424421
 21
229.6322470880774
 31
0.0
  0
ENDBLK
  5
BA
  8
0
  0
BLOCK
  8
0
  2
_OPEN30
 70
     0
 10
0.0
 20
0.0
 30
0.0
  3
_OPEN30
  1

  0
LINE
  5
C1
  8
0
  6
BYBLOCK
 62
     0
 10
-1.0
 20
0.267949
 30
0.0
 11
0.0
 21
0.0
 31
0.0
  0
LINE
  5
C2
  8
0
  6
BYBLOCK
 62
     0
 10
0.0
 20
0.0
 30
0.0
 11
-1.0
 21
-0.267949
 31
0.0
  0
LINE
  5
C3
  8
0
  6
BYBLOCK
 62
     0
 10
0.0
 20
0.0
 30
0.0
 11
-1.0
 21
0.0
 31
0.0
  0
ENDBLK
  5
C0
  8
0
  0
ENDSEC
  0
SECTION
  2
ENTITIES
  0
LINE
  5
1AB
  8
ZUWAKU
  6
CONTINUOUS
 62
     3
 10
-554.0
 20
-379.9999999999999
 30
0.0
 11
-554.0
 21
379.9999999999999
 31
0.0
  0
LINE
  5
1AC
  8
ZUWAKU
  6
CONTINUOUS
 62
     3
 10
554.0
 20
-379.9999999999999
 30
0.0
 11
554.0
 21
379.9999999999999
 31
0.0
  0
LINE
  5
1AD
  8
ZUWAKU
  6
CONTINUOUS
 62
     3
 10
-554.0
 20
-379.9999999999999
 30
0.0
 11
554.0
 21
-379.9999999999999
 31
0.0
  0
LINE
  5
1AE
  8
ZUWAKU
  6
CONTINUOUS
 62
     3
 10
-554.0
 20
379.9999999999998
 30
0.0
 11
554.0
 21
379.9999999999998
 31
0.0
  0
LINE
  5
1AF
  8
ZUWAKU
  6
CONTINUOUS
 62
     3
 10
194.0
 20
-379.9999999999999
 30
0.0
 11
194.0
 21
-259.9999999999999
 31
0.0
  0
LINE
  5
1B0
  8
ZUWAKU
  6
CONTINUOUS
 62
     3
 10
194.0
 20
-351.9999999999999
 30
0.0
 11
554.0
 21
-351.9999999999999
 31
0.0
  0
LINE
  5
1B1
  8
ZUWAKU
  6
CONTINUOUS
 62
     3
 10
292.0
 20
-323.9999999999999
 30
0.0
 11
554.0
 21
-323.9999999999999
 31
0.0
  0
LINE
  5
1B2
  8
ZUWAKU
  6
CONTINUOUS
 62
     3
 10
292.0
 20
-295.9999999999999
 30
0.0
 11
554.0
 21
-295.9999999999999
 31
0.0
  0
LINE
  5
1B3
  8
ZUWAKU
  6
CONTINUOUS
 62
     3
 10
292.0
 20
-275.9999999999999
 30
0.0
 11
554.0
 21
-275.9999999999999
 31
0.0
  0
LINE
  5
1B4
  8
ZUWAKU
  6
CONTINUOUS
 62
     3
 10
292.0
 20
-351.9999999999999
 30
0.0
 11
292.0
 21
-259.9999999999999
 31
0.0
  0
LINE
  5
1B5
  8
ZUWAKU
  6
CONTINUOUS
 62
     3
 10
510.0
 20
-351.9999999999999
 30
0.0
 11
510.0
 21
-259.9999999999999
 31
0.0
  0
LINE
  5
1B6
  8
ZUWAKU
  6
CONTINUOUS
 62
     3
 10
342.0
 20
-379.9999999999999
 30
0.0
 11
342.0
 21
-351.9999999999999
 31
0.0
  0
LINE
  5
1B7
  8
ZUWAKU
  6
CONTINUOUS
 62
     3
 10
524.0
 20
-375.9999999999999
 30
0.0
 11
544.0
 21
-375.9999999999999
 31
0.0
  0
LINE
  5
1B8
  8
ZUWAKU
  6
CONTINUOUS
 62
     3
 10
534.0
 20
-355.9999999999999
 30
0.0
 11
524.0
 21
-375.9999999999999
 31
0.0
  0
LINE
  5
1B9
  8
ZUWAKU
  6
CONTINUOUS
 62
     3
 10
534.0
 20
-355.9999999999999
 30
0.0
 11
544.0
 21
-375.9999999999999
 31
0.0
  0
LINE
  5
1BA
  8
ZUWAKU
  6
CONTINUOUS
 62
     3
 10
194.0
 20
-259.9999999999999
 30
0.0
 11
554.0
 21
-259.9999999999999
 31
0.0
  0
LINE
  5
1BB
  8
ZUWAKU
  6
CONTINUOUS
 62
     3
 10
451.9999999999999
 20
-351.9999999999999
 30
0.0
 11
451.9999999999999
 21
-295.9999999999999
 31
0.0
  0
LINE
  5
1BC
  8
ZUWAKU
  6
CONTINUOUS
 62
     4
 10
210.0
 20
-343.9999999999999
 30
0.0
 11
210.0
 21
-259.9999999999999
 31
0.0
  0
LINE
  5
1BD
  8
ZUWAKU
  6
CONTINUOUS
 62
     4
 10
218.0
 20
-343.9999999999999
 30
0.0
 11
218.0
 21
-259.9999999999999
 31
0.0
  0
LINE
  5
1BE
  8
ZUWAKU
  6
CONTINUOUS
 62
     4
 10
243.0
 20
-351.9999999999999
 30
0.0
 11
243.0
 21
-259.9999999999999
 31
0.0
  0
LINE
  5
1BF
  8
ZUWAKU
  6
CONTINUOUS
 62
     4
 10
194.0
 20
-273.9999999999999
 30
0.0
 11
292.0
 21
-273.9999999999999
 31
0.0
  0
LINE
  5
1C0
  8
ZUWAKU
  6
CONTINUOUS
 62
     4
 10
194.0
 20
-287.9999999999999
 30
0.0
 11
292.0
 21
-287.9999999999999
 31
0.0
  0
LINE
  5
1C1
  8
ZUWAKU
  6
CONTINUOUS
 62
     4
 10
194.0
 20
-329.9999999999999
 30
0.0
 11
292.0
 21
-329.9999999999999
 31
0.0
  0
LINE
  5
1C2
  8
ZUWAKU
  6
CONTINUOUS
 62
     4
 10
194.0
 20
-343.9999999999999
 30
0.0
 11
292.0
 21
-343.9999999999999
 31
0.0
  0
LINE
  5
1C3
  8
ZUWAKU
  6
CONTINUOUS
 62
     4
 10
510.0
 20
-331.9999999999999
 30
0.0
 11
554.0
 21
-331.9999999999999
 31
0.0
  0
LINE
  5
1C4
  8
ZUWAKU
  6
CONTINUOUS
 62
     4
 10
306.0
 20
-278.9999999999999
 30
0.0
 11
306.0
 21
-259.9999999999999
 31
0.0
  0
LINE
  5
1C5
  8
ZUWAKU
  6
CONTINUOUS
 62
     4
 10
404.0
 20
-295.9999999999999
 30
0.0
 11
404.0
 21
-292.9999999999999
 31
0.0
  0
LINE
  5
1C6
  8
ZUWAKU
  6
CONTINUOUS
 62
     4
 10
452.0
 20
-295.9999999999999
 30
0.0
 11
452.0
 21
-292.9999999999999
 31
0.0
  0
LINE
  5
1C7
  8
ZUWAKU
  6
CONTINUOUS
 62
     4
 10
486.0
 20
-295.9999999999999
 30
0.0
 11
486.0
 21
-292.9999999999999
 31
0.0
  0
LINE
  5
1C8
  8
ZUWAKU
  6
CONTINUOUS
 62
     4
 10
404.0
 20
-278.9999999999999
 30
0.0
 11
404.0
 21
-259.9999999999999
 31
0.0
  0
LINE
  5
1C9
  8
ZUWAKU
  6
CONTINUOUS
 62
     4
 10
452.0
 20
-278.9999999999999
 30
0.0
 11
452.0
 21
-259.9999999999999
 31
0.0
  0
LINE
  5
1CA
  8
ZUWAKU
  6
CONTINUOUS
 62
     4
 10
486.0
 20
-278.9999999999999
 30
0.0
 11
486.0
 21
-259.9999999999999
 31
0.0
  0
LINE
  5
1CB
  8
ZUWAKU
  6
CONTINUOUS
 62
     4
 10
194.0
 20
-301.9999999999999
 30
0.0
 11
292.0
 21
-301.9999999999999
 31
0.0
  0
LINE
  5
1CC
  8
ZUWAKU
  6
CONTINUOUS
 62
     4
 10
194.0
 20
-315.9999999999999
 30
0.0
 11
292.0
 21
-315.9999999999999
 31
0.0
  0
LINE
  5
1CD
  8
ZUWAKU
  6
CONTINUOUS
 62
     4
 10
202.0
 20
-260.9999999999999
 30
0.0
 11
196.0
 21
-272.9999999999999
 31
0.0
  0
LINE
  5
1CE
  8
ZUWAKU
  6
CONTINUOUS
 62
     4
 10
202.0
 20
-260.9999999999999
 30
0.0
 11
208.0
 21
-272.9999999999999
 31
0.0
  0
LINE
  5
1CF
  8
ZUWAKU
  6
CONTINUOUS
 62
     4
 10
196.0
 20
-272.9999999999999
 30
0.0
 11
208.0
 21
-272.9999999999999
 31
0.0
  0
LINE
  5
1D0
  8
ZUWAKU
  6
CONTINUOUS
 62
     4
 10
202.0
 20
-316.9999999999999
 30
0.0
 11
196.0
 21
-328.9999999999999
 31
0.0
  0
LINE
  5
1D1
  8
ZUWAKU
  6
CONTINUOUS
 62
     4
 10
202.0
 20
-316.9999999999999
 30
0.0
 11
208.0
 21
-328.9999999999999
 31
0.0
  0
LINE
  5
1D2
  8
ZUWAKU
  6
CONTINUOUS
 62
     4
 10
196.0
 20
-328.9999999999999
 30
0.0
 11
208.0
 21
-328.9999999999999
 31
0.0
  0
LINE
  5
1D3
  8
ZUWAKU
  6
CONTINUOUS
 62
     4
 10
202.0
 20
-302.9999999999999
 30
0.0
 11
196.0
 21
-314.9999999999999
 31
0.0
  0
LINE
  5
1D4
  8
ZUWAKU
  6
CONTINUOUS
 62
     4
 10
202.0
 20
-302.9999999999999
 30
0.0
 11
208.0
 21
-314.9999999999999
 31
0.0
  0
LINE
  5
1D5
  8
ZUWAKU
  6
CONTINUOUS
 62
     4
 10
196.0
 20
-314.9999999999999
 30
0.0
 11
208.0
 21
-314.9999999999999
 31
0.0
  0
LINE
  5
1D6
  8
ZUWAKU
  6
CONTINUOUS
 62
     4
 10
202.0
 20
-288.9999999999999
 30
0.0
 11
196.0
 21
-300.9999999999999
 31
0.0
  0
LINE
  5
1D7
  8
ZUWAKU
  6
CONTINUOUS
 62
     4
 10
202.0
 20
-288.9999999999999
 30
0.0
 11
208.0
 21
-300.9999999999999
 31
0.0
  0
LINE
  5
1D8
  8
ZUWAKU
  6
CONTINUOUS
 62
     4
 10
196.0
 20
-300.9999999999999
 30
0.0
 11
208.0
 21
-300.9999999999999
 31
0.0
  0
LINE
  5
1D9
  8
ZUWAKU
  6
CONTINUOUS
 62
     4
 10
202.0
 20
-274.9999999999999
 30
0.0
 11
196.0
 21
-286.9999999999999
 31
0.0
  0
LINE
  5
1DA
  8
ZUWAKU
  6
CONTINUOUS
 62
     4
 10
202.0
 20
-274.9999999999999
 30
0.0
 11
208.0
 21
-286.9999999999999
 31
0.0
  0
LINE
  5
1DB
  8
ZUWAKU
  6
CONTINUOUS
 62
     4
 10
196.0
 20
-286.9999999999999
 30
0.0
 11
208.0
 21
-286.9999999999999
 31
0.0
  0
LINE
  5
1DC
  8
ZUWAKU
  6
CONTINUOUS
 62
     4
 10
345.3333333333333
 20
-351.9999999999999
 30
0.0
 11
345.3333333333333
 21
-323.9999999999999
 31
0.0
  0
LINE
  5
1DD
  8
ZUWAKU
  6
CONTINUOUS
 62
     4
 10
398.6666666666666
 20
-351.9999999999999
 30
0.0
 11
398.6666666666666
 21
-323.9018831514505
 31
0.0
  0
LINE
  5
1DE
  8
ZUWAKU
  6
CONTINUOUS
 62
     4
 10
425.3333333333333
 20
-334.9999999999999
 30
0.0
 11
425.3333333333333
 21
-323.9018831514505
 31
0.0
  0
LINE
  5
1DF
  8
ZUWAKU
  6
CONTINUOUS
 62
     4
 10
451.9999999999999
 20
-309.9999999999999
 30
0.0
 11
509.9999999999999
 21
-309.9999999999999
 31
0.0
  0
LINE
  5
1E0
  8
ZUWAKU
  6
CONTINUOUS
 62
     4
 10
292.0
 20
-331.9999999999999
 30
0.0
 11
451.9999999999999
 21
-331.9999999999999
 31
0.0
  0
TEXT
  5
1E2
  8
ZUWAKU
 62
     7
 10
296.6264602949494
 20
-261.6423774579119
 30
0.0
 40
5.3312
  1
符号
 41
0.8
  7
FDASTYLE0
  0
TEXT
  5
1E3
  8
ZUWAKU
 62
     7
 10
324.8282622438117
 20
-271.6491050039925
 30
0.0
 40
8.0
  1
品       名
 41
0.765957446808511
  7
FDASTYLE1
 72
     5
 11
382.4282622438117
 21
-271.6491050039925
 31
0.0
  0
TEXT
  5
1E4
  8
ZUWAKU
 62
     7
 10
414.4663128826192
 20
-271.6491050039925
 30
0.0
 40
8.0
  1
材  料
 41
0.7272727272727279
  7
FDASTYLE1
 72
     5
 11
440.0663128826192
 21
-271.6491050039925
 31
0.0
  0
TEXT
  5
1E5
  8
ZUWAKU
 62
     7
 10
459.03212336971
 20
-271.6491050039925
 30
0.0
 40
8.0
  1
個 数
 41
0.7058823529411761
  7
FDASTYLE1
 72
     5
 11
478.23212336971
 21
-271.6491050039925
 31
0.0
  0
TEXT
  5
1E6
  8
ZUWAKU
 62
     7
 10
491.443621905776
 20
-267.1298160101144
 30
0.0
 40
5.0
  1
単重量
 41
0.6666666666666666
  7
FDASTYLE1
 72
     5
 11
503.443621905776
 21
-267.1298160101144
 31
0.0
  0
TEXT
  5
1E7
  8
ZUWAKU
 62
     7
 10
489.4179032472719
 20
-274.7262609795049
 30
0.0
 40
5.0
  1
(kg)
 41
0.8
  7
FDASTYLE1
 72
     5
 11
505.4179032472719
 21
-274.7262609795049
 31
0.0
  0
TEXT
  5
1E8
  8
ZUWAKU
 62
     7
 10
518.2843941309557
 20
-271.6491050039925
 30
0.0
 40
8.0
  1
記  事
 41
0.7272727272727279
  7
FDASTYLE1
 72
     5
 11
543.8843941309557
 21
-271.6491050039925
 31
0.0
  0
TEXT
  5
1E9
  8
ZUWAKU
 62
     7
 10
517.6901589103291
 20
-330.9746083995458
 30
0.0
 40
6.0
  1
コード番号
 41
0.6666666666666666
  7
FDASTYLE1
 72
     5
 11
541.6901589103291
 21
-330.9746083995458
 31
0.0
  0
TEXT
  5
1EA
  8
ZUWAKU
 62
     7
 10
203.8239840316633
 20
-350.3758021080676
 30
0.0
 40
5.0
  1
訂 正 来 歴
 41
0.717948717948718
  7
FDASTYLE1
 72
     5
 11
231.8239840316633
 21
-350.3758021080676
 31
0.0
  0
TEXT
  5
1EB
  8
ZUWAKU
 62
     7
 10
251.7806696935299
 20
-350.4333394783303
 30
0.0
 40
5.0
  1
工 事 番 号
 41
0.717948717948718
  7
FDASTYLE1
 72
     5
 11
279.7806696935299
 21
-350.4333394783303
 31
0.0
  0
TEXT
  5
1EC
  8
ZUWAKU
 62
     7
 10
199.9296756932058
 20
-331.926906113183
 30
0.0
 40
4.165
  1
記号
 41
0.8
  7
FDASTYLE0
  0
TEXT
  5
1ED
  8
ZUWAKU
 62
     7
 10
211.8084498135237
 20
-331.926906113183
 30
0.0
 40
4.165
  1
理由
 41
0.8
  7
FDASTYLE0
  0
TEXT
  5
1EE
  8
ZUWAKU
 62
     7
 10
223.2387335819686
 20
-339.7572093400356
 30
0.0
 40
6.0
  1
日 付
 41
0.7058823529411754
  7
FDASTYLE1
 72
     5
 11
237.6387335819686
 21
-339.7572093400356
 31
0.0
  0
TEXT
  5
1EF
  8
ZUWAKU
 62
     7
 10
513.0948878217283
 20
-284.7050618140164
 30
0.0
 40
6.0
  1
標　準
 41
0.5833333333333345
  7
FDASTYLE1
 72
     5
 11
525.6948878217283
 21
-284.7050618140164
 31
0.0
  0
TEXT
  5
1F0
  8
ZUWAKU
 62
     7
 10
306.8963379639305
 20
-331.4375822928488
 30
0.0
 40
6.0
  1
承   認
 41
0.7407407407407408
  7
FDASTYLE1
 72
     5
 11
330.8963379639305
 21
-331.4375822928488
 31
0.0
  0
TEXT
  5
1F1
  8
ZUWAKU
 62
     7
 10
359.726456066468
 20
-330.9746083995458
 30
0.0
 40
6.0
  1
検   図
 41
0.7407407407407408
  7
FDASTYLE1
 72
     5
 11
383.726456066468
 21
-330.9746083995458
 31
0.0
  0
TEXT
  5
1F2
  8
ZUWAKU
 62
     7
 10
402.9543841967501
 20
-330.9746083995458
 30
0.0
 40
6.0
  1
担  当
 41
0.7272727272727269
  7
FDASTYLE1
 72
     5
 11
422.1543841967501
 21
-330.9746083995458
 31
0.0
  0
TEXT
  5
1F3
  8
ZUWAKU
 62
     7
 10
429.3541149682224
 20
-330.9746083995458
 30
0.0
 40
6.0
  1
製  図
 41
0.7272727272727269
  7
FDASTYLE1
 72
     5
 11
448.5541149682224
 21
-330.9746083995458
 31
0.0
  0
TEXT
  5
1F4
  8
ZUWAKU
 62
     7
 10
453.8924744608398
 20
-306.4369920544834
 30
0.0
 40
6.0
  1
作図
 41
0.6666666666666683
  7
FDASTYLE1
 72
     5
 11
463.4924744608398
 21
-306.4369920544834
 31
0.0
  0
TEXT
  5
1F5
  8
ZUWAKU
 62
     7
 10
456.2073439273551
 20
-320.4743132803631
 30
0.0
 40
8.0
  1
第 三 角 法
 41
0.7179487179487182
  7
FDASTYLE1
 72
     5
 11
501.0073439273551
 21
-320.4743132803631
 31
0.0
  0
TEXT
  5
1F6
  8
ZUWAKU
 62
     7
 10
454.818422247446
 20
-332.826503972758
 30
0.0
 40
6.0
  1
尺度
 41
0.6666666666666683
  7
FDASTYLE1
 72
     5
 11
464.418422247446
 21
-332.826503972758
 31
0.0
  0
TEXT
  5
1F8
  8
ZUWAKU
 62
     3
 10
210.7583087400681
 20
-371.8544154370033
 30
0.0
 40
14.0
  1
株式会社 野村製作所
 41
0.5763738641280831
  7
FDASTYLE2
 72
     5
 11
322.7583087400681
 21
-371.8544154370033
 31
0.0
  0
TEXT
  5
1FA
  8
ZUWAKU
 62
     3
 10
352.0845273336484
 20
-374.2433371169125
 30
0.0
 40
16.0
  1
２－
 41
0.8244023083264632
  7
FDASTYLE3
 72
     5
 11
384.0845273336484
 21
-374.2433371169125
 31
0.0
  0
TEXT
  5
1FB
  8
ZUWAKU
 62
     3
 10
385.908442582462
 20
-374.2433371169125
 30
0.0
 40
16.0
  1
9314018
 41
1.561106155218555
  7
FDASTYLE3
 72
     5
 11
497.908442582462
 21
-374.2433371169125
 31
0.0
  0
TEXT
  5
1FC
  8
ZUWAKU
 62
     6
 10
462.768624547992
 20
-290.2356392984342
 30
0.0
 40
8.0
  1
一式
 41
0.5833333333333328
  7
FDASTYLE1
 72
     5
 11
473.968624547992
 21
-290.2356392984342
 31
0.0
  0
TEXT
  5
1FD
  8
ZUWAKU
 62
     6
 10
327.4473600718466
 20
-290.204241348737
 30
0.0
 40
10.0
  1
外　形　図
 41
0.5833333333333334
  7
FDASTYLE1
 72
     5
 11
362.4473600718466
 21
-290.204241348737
 31
0.0
  0
TEXT
  5
1FE
  8
ZUWAKU
 62
     4
 10
478.6023577812798
 20
-344.594974878402
 30
0.0
 40
6.0
  1
1/2
 41
0.7000000000000013
  7
FDASTYLE1
 72
     5
 11
491.2023577812798
 21
-344.594974878402
 31
0.0
  0
TEXT
  5
1FF
  8
0
 62
     6
 10
306.4110294586656
 20
-308.2423833446773
 30
0.0
 40
10.0
  1
日鋼プレシジォン
 41
0.5833333333333334
  7
FDASTYLE1
 72
     5
 11
362.4110294586656
 21
-308.2423833446773
 31
0.0
  0
TEXT
  5
200
  8
0
 62
     6
 10
356.3385613081492
 20
-319.6814543941912
 30
0.0
 40
10.0
  1
ＭO3-14型チャック
 41
0.6311475409836066
  7
FDASTYLE1
 72
     5
 11
433.3385613081492
 21
-319.6814543941912
 31
0.0
  0
TEXT
  5
201
  8
0
 62
     6
 10
-136.9727300377779
 20
-330.0200700797565
 30
0.0
 40
8.0
  1
アンバランス量
 41
0.663841963128279
  7
FDASTYLE1
 72
     5
 11
-83.25844180306723
 21
-330.0200700797565
 31
0.0
  0
TEXT
  5
202
  8
0
 62
     6
 10
-136.9727300377779
 20
-314.0200700797565
 30
0.0
 40
8.0
  1
質 量
 41
0.7364342569567148
  7
FDASTYLE1
 72
     5
 11
-115.2584418030672
 21
-314.0200700797565
 31
0.0
  0
TEXT
  5
203
  8
0
 62
     6
 10
-136.9727300377779
 20
-298.0200700797565
 30
0.0
 40
8.0
  1
慣性モーメント
 41
0.663841963128279
  7
FDASTYLE1
 72
     5
 11
-83.25844180306723
 21
-298.0200700797565
 31
0.0
  0
TEXT
  5
204
  8
0
 62
     6
 10
-136.9727300377779
 20
-282.0200700797565
 30
0.0
 40
8.0
  1
最高使用回転速度
 41
0.665024784134981
  7
FDASTYLE1
 72
     5
 11
-75.25844180306723
 21
-282.0200700797565
 31
0.0
  0
TEXT
  5
205
  8
0
 62
     6
 10
-136.9727300377779
 20
-266.0200700797565
 30
0.0
 40
8.0
  1
最大静的把握力
 41
0.663841963128279
  7
FDASTYLE1
 72
     5
 11
-83.25844180306723
 21
-266.0200700797565
 31
0.0
  0
TEXT
  5
206
  8
0
 62
     6
 10
-136.9727300377779
 20
-250.0200700797565
 30
0.0
 40
8.0
  1
許容シリンダ力
 41
0.663841963128279
  7
FDASTYLE1
 72
     5
 11
-83.25844180306723
 21
-250.0200700797565
 31
0.0
  0
TEXT
  5
207
  8
0
 62
     6
 10
-136.9727300377779
 20
-234.0527899161573
 30
0.0
 40
8.0
  1
ピストンストローク
 41
0.6659390169707117
  7
FDASTYLE1
 72
     5
 11
-67.25844180306723
 21
-234.0527899161573
 31
0.0
  0
TEXT
  5
208
  8
0
 62
     6
 10
-136.9727300377779
 20
-218.0528051749463
 30
0.0
 40
8.0
  1
爪ﾉｽﾄﾛｰｸ
 41
0.7781458739383595
  7
FDASTYLE1
 72
     5
 11
-83.25844180306723
 21
-218.0528051749463
 31
0.0
  0
TEXT
  5
209
  8
0
 62
     6
 10
-136.9727300377779
 20
-202.0528051749463
 30
0.0
 40
8.0
  1
仕 様
 41
0.7364342569567148
  7
FDASTYLE1
 72
     5
 11
-115.2584418030672
 21
-202.0528051749463
 31
0.0
  0
TEXT
  5
20A
  8
0
 62
     6
 10
45.84436667242716
 20
-217.5021459952588
 30
0.0
 40
8.0
  1
(直径ﾆﾃ) 3０ mm
 41
0.7578559974021695
  7
FDASTYLE1
 72
     5
 11
139.5586549071379
 21
-217.5021459952588
 31
0.0
  0
TEXT
  5
20B
  8
0
 62
     6
 10
101.9232813147611
 20
-233.0615942374463
 30
0.0
 40
8.0
  1
4５ mm
 41
0.7783020602525527
  7
FDASTYLE1
 72
     5
 11
139.6375695494718
 21
-233.0615942374463
 31
0.0
  0
TEXT
  5
20C
  8
0
 62
     6
 10
85.98070013800333
 20
-249.4720048942096
 30
0.0
 40
8.0
  1
40.2 kN
 41
0.7704920065688554
  7
FDASTYLE1
 72
     5
 11
139.694988372714
 21
-249.4720048942096
 31
0.0
  0
TEXT
  5
20D
  8
0
 62
     6
 10
85.95913946905802
 20
-265.3625078238971
 30
0.0
 40
8.0
  1
76.5 kN
 41
0.7704920065688554
  7
FDASTYLE1
 72
     5
 11
139.6734277037687
 21
-265.3625078238971
 31
0.0
  0
TEXT
  5
20E
  8
0
 62
     6
 10
78.6712213782377
 20
-281.2530412711627
 30
0.0
 40
8.0
  1
2000 min
 41
0.7714287730626143
  7
FDASTYLE1
 72
     5
 11
140.3855096129484
 21
-281.2530412711627
 31
0.0
  0
TEXT
  5
20F
  8
0
 62
     6
 10
142.0997934369154
 20
-276.2530411519534
 30
0.0
 40
4.0
  1
-1
 41
0.75000024121258
  7
FDASTYLE1
 72
     5
 11
148.9569375542707
 21
-276.2530411519534
 31
0.0
  0
TEXT
  5
210
  8
0
 62
     6
 10
61.81119025030802
 20
-297.4745988883502
 30
0.0
 40
8.0
  1
1.575 kg・m
 41
0.7780322189036011
  7
FDASTYLE1
 72
     5
 11
139.5254784850187
 21
-297.4745988883502
 31
0.0
  0
TEXT
  5
211
  8
0
 62
     6
 10
141.2397623089857
 20
-292.4745987691409
 30
0.0
 40
4.0
  1
2
 41
0.7142860293388367
  7
FDASTYLE1
 72
     5
 11
144.096906426341
 21
-292.4745987691409
 31
0.0
  0
TEXT
  5
212
  8
0
 62
     6
 10
102.8616968421049
 20
-313.3651323356158
 30
0.0
 40
8.0
  1
 73kg
 41
0.7674420691942423
  7
FDASTYLE1
 72
     5
 11
140.5759850768156
 21
-313.3651323356158
 31
0.0
  0
TEXT
  5
213
  8
0
 62
     6
 10
45.382780673892
 20
-329.5866899528033
 30
0.0
 40
8.0
  1
外周ﾆﾃ  15 g以内
 41
0.7481753531516472
  7
FDASTYLE1
 72
     5
 11
139.0970689086027
 21
-329.5866899528033
 31
0.0
  0
LINE
  5
214
  8
0
  6
CENTER
 62
     7
 10
243.1197580126829
 20
286.3907220467333
 30
0.0
 11
243.1197580126829
 21
-102.1510870352979
 31
0.0
  0
LINE
  5
215
  8
0
  6
CENTER
 62
     7
 10
52.83257234373758
 20
89.72062469565914
 30
0.0
 11
433.7694772509641
 21
89.72062469565914
 31
0.0
  0
LINE
  5
216
  8
0
  6
CENTER
 62
     7
 10
-302.056121806971
 20
89.72062469565914
 30
0.0
 11
-163.3773751101042
 21
89.72062469565914
 31
0.0
  0
LINE
  5
217
  8
0
  6
CENTER
 62
     7
 10
-197.7717367382937
 20
240.7206170662646
 30
0.0
 11
-130.018883344739
 21
240.7206170662646
 31
0.0
  0
LINE
  5
218
  8
0
  6
CENTER
 62
     7
 10
-197.7717367382937
 20
195.7206170662646
 30
0.0
 11
-130.018883344739
 21
195.7206170662646
 31
0.0
  0
LINE
  5
219
  8
0
  6
CENTER
 62
     7
 10
-200.9388967724734
 20
11.72062469565914
 30
0.0
 11
-165.4973251287722
 21
11.72062469565914
 31
0.0
  0
LINE
  5
21A
  8
0
  6
CENTER
 62
     7
 10
-241.7342458935671
 20
-46.61321472084477
 30
0.0
 11
-241.7342458935671
 21
-92.74437927162602
 31
0.0
  0
LINE
  5
21B
  8
0
  6
CENTER
 62
     7
 10
238.3292764453001
 20
139.7206246956591
 30
0.0
 11
247.7907174853391
 21
139.7206246956591
 31
0.0
  0
LINE
  5
21C
  8
0
  6
CENTER
 62
     7
 10
193.1197580126829
 20
96.06356597983883
 30
0.0
 11
193.1197580126829
 21
82.42894531333492
 31
0.0
  0
LINE
  5
21D
  8
0
  6
CENTER
 62
     7
 10
195.5949889167122
 20
62.28216288166574
 30
0.0
 11
203.6943407438111
 21
66.95832532267129
 31
0.0
  0
LINE
  5
21E
  8
0
  6
CENTER
 62
     7
 10
202.2137321376951
 20
60.57194032006306
 30
0.0
 11
197.483003988281
 21
68.76580168457919
 31
0.0
  0
LINE
  5
21F
  8
0
  6
CENTER
 62
     7
 10
293.1197580126829
 20
95.68393493735836
 30
0.0
 11
293.1197580126829
 21
82.06710601890133
 31
0.0
  0
LINE
  5
220
  8
0
  6
CENTER
 62
     7
 10
288.8162742399401
 20
68.86931105281816
 30
0.0
 11
284.0855460905261
 21
60.67544968830204
 31
0.0
  0
LINE
  5
221
  8
0
  6
CENTER
 62
     7
 10
290.644531768243
 20
62.28216507009326
 30
0.0
 11
282.5451931556437
 21
66.95831988170473
 31
0.0
  0
LINE
  5
222
  8
0
  6
CENTER
 62
     7
 10
77.81907418385725
 20
-5.715759066146191
 30
0.0
 11
243.1197918679119
 21
89.72064424198258
 31
0.0
  0
LINE
  5
223
  8
0
  6
CENTER
 62
     7
 10
83.70100557221957
 20
181.7611752277114
 30
0.0
 11
186.9130399465059
 21
122.1716859816703
 31
0.0
  0
LINE
  5
224
  8
0
  6
CENTER
 62
     7
 10
171.8823258391673
 20
-33.6663432453832
 30
0.0
 11
196.8823288193996
 21
9.634926166657508
 31
0.0
  0
LINE
  5
225
  8
0
  6
CENTER
 62
     7
 10
171.882303812534
 20
213.1076791494804
 30
0.0
 11
196.8823106074639
 21
169.8064031301903
 31
0.0
  0
LINE
  5
226
  8
0
  6
CENTER
 62
     7
 10
289.3573086613707
 20
9.635030039699515
 30
0.0
 11
314.357311641603
 21
-33.6662393723412
 31
0.0
  0
LINE
  5
227
  8
0
  6
CENTER
 62
     7
 10
289.3573573908881
 20
169.8063521151432
 30
0.0
 11
314.3573603711204
 21
213.1076215271839
 31
0.0
  0
LINE
  5
228
  8
0
  6
CENTER
 62
     7
 10
121.276770952136
 20
220.7206543628496
 30
0.0
 11
182.9615396288938
 21
220.7206543628496
 31
0.0
  0
LINE
  5
229
  8
0
  6
CENTER
 62
     7
 10
103.7716187238772
 20
29.07874940035997
 30
0.0
 11
121.0918493652695
 21
-0.9207659546835458
 31
0.0
  0
LINE
  5
22A
  8
0
  6
CENTER
 62
     7
 10
365.0655638760574
 20
-1.063149039431963
 30
0.0
 11
382.8579930600683
 21
29.75423807050963
 31
0.0
  0
LINE
  5
22B
  8
0
  6
CENTER
 62
     7
 10
325.9951060239575
 20
21.26489541520066
 30
0.0
 11
344.0869050556677
 21
52.6008062404923
 31
0.0
  0
LINE
  5
22C
  8
0
  6
CENTER
 62
     7
 10
142.5426584332401
 20
51.92532492585148
 30
0.0
 11
160.0357292136447
 21
21.62644170951187
 31
0.0
  0
LINE
  5
22D
  8
0
  6
CENTER
 62
     7
 10
243.119817325328
 20
89.72069151697467
 30
0.0
 11
408.0936347175004
 21
-5.526975840489584
 31
0.0
  0
LINE
  5
22E
  8
0
  6
CENTER
 62
     7
 10
225.3730539111204
 20
240.7206543628496
 30
0.0
 11
260.6243051318235
 21
240.7206543628496
 31
0.0
  0
LINE
  5
22F
  8
0
  6
CENTER
 62
     7
 10
225.3730539111204
 20
195.7206543628496
 30
0.0
 11
260.6243051318235
 21
195.7206543628496
 31
0.0
  0
LINE
  5
230
  8
0
  6
CENTER
 62
     7
 10
304.6348398452609
 20
125.2363698270717
 30
0.0
 11
317.3411199189339
 21
132.572343237513
 31
0.0
  0
ARC
  5
231
  8
0
  6
CENTER
 62
     7
 10
243.1197580126829
 20
89.72066199224416
 30
0.0
 40
117.4749984741211
 50
47.78368241451822
 51
72.2163004342185
  0
ARC
  5
232
  8
0
  6
CENTER
 62
     7
 10
243.1197580126829
 20
89.72066199224416
 30
0.0
 40
117.4749984741211
 50
107.7837182351162
 51
131.8522803418656
  0
ARC
  5
233
  8
0
  6
CENTER
 62
     7
 10
243.1197580126829
 20
89.72066199224416
 30
0.0
 40
117.4749984741211
 50
167.78370624439
 51
192.1146295775379
  0
ARC
  5
234
  8
0
  6
CENTER
 62
     7
 10
243.1197580126829
 20
89.72066199224416
 30
0.0
 40
117.4749984741211
 50
227.7836705753727
 51
252.216288595073
  0
ARC
  5
235
  8
0
  6
CENTER
 62
     7
 10
243.1197580126829
 20
89.72066199224416
 30
0.0
 40
117.4749984741211
 50
287.7836859054032
 51
312.2163107552926
  0
ARC
  5
236
  8
0
  6
CENTER
 62
     7
 10
243.1197580126829
 20
89.72066199224416
 30
0.0
 40
117.4749984741211
 50
347.7836875750553
 51
371.3102237985191
  0
ARC
  5
237
  8
0
  6
CENTER
 62
     7
 10
243.1197580126829
 20
89.72066199224416
 30
0.0
 40
78.0
 50
143.3852733214856
 51
156.614735026775
  0
ARC
  5
238
  8
0
  6
CENTER
 62
     7
 10
243.1197580126829
 20
89.72066199224416
 30
0.0
 40
78.0
 50
263.3655478867433
 51
276.4728038474028
  0
ARC
  5
239
  8
0
  6
CENTER
 62
     7
 10
243.1197580126829
 20
89.72066199224416
 30
0.0
 40
78.0
 50
23.3852597368976
 51
36.61471119690324
  0
LINE
  5
23A
  8
0
  6
DASHED
 62
     7
 10
110.2159360139696
 20
159.5244777375098
 30
0.0
 11
116.2159519880162
 21
169.916808825397
 31
0.0
  0
LINE
  5
23B
  8
0
  6
DASHED
 62
     7
 10
115.9120884030191
 20
157.3905027681228
 30
0.0
 11
120.9121042578565
 21
166.0507830795283
 31
0.0
  0
LINE
  5
23C
  8
0
  6
DASHED
 62
     7
 10
94.12718123263693
 20
181.5151232353057
 30
0.0
 11
120.9121064358216
 21
166.0508411675468
 31
0.0
  0
LINE
  5
23D
  8
0
  6
DASHED
 62
     7
 10
89.12718711576571
 20
172.8548479129574
 30
0.0
 11
115.9121123189504
 21
157.3905658451985
 31
0.0
  0
LINE
  5
23E
  8
0
  6
DASHED
 62
     7
 10
94.65441939396186
 20
182.3654050885771
 30
0.0
 11
116.215962607677
 21
169.9168436853361
 31
0.0
  0
LINE
  5
23F
  8
0
  6
DASHED
 62
     7
 10
88.65441212219565
 20
171.973086499932
 30
0.0
 11
110.2159421214112
 21
159.5245327260851
 31
0.0
  0
LINE
  5
240
  8
0
  6
DASHED
 62
     7
 10
115.9121013782854
 20
157.3905265880805
 30
0.0
 11
120.9120980328292
 21
160.277275683595
 31
0.0
  0
LINE
  5
241
  8
0
  6
DASHED
 62
     7
 10
120.9121011523313
 20
160.2772644702715
 30
0.0
 11
120.9121011523313
 21
166.0507630054278
 31
0.0
  0
LINE
  5
242
  8
0
  6
CONTINUOUS
 62
     3
 10
-295.2342458935671
 20
264.7206170662646
 30
0.0
 11
-295.2342458935671
 21
161.1019342049365
 31
0.0
  0
LINE
  5
243
  8
0
  6
CONTINUOUS
 62
     3
 10
-169.2342458935671
 20
261.7206170662646
 30
0.0
 11
-169.2342458935671
 21
255.754903565288
 31
0.0
  0
LINE
  5
244
  8
0
  6
CONTINUOUS
 62
     3
 10
-295.2342458935671
 20
264.7206170662646
 30
0.0
 11
-263.2342458935671
 21
264.7206170662646
 31
0.0
  0
LINE
  5
245
  8
0
  6
CONTINUOUS
 62
     3
 10
-295.2342458935671
 20
-85.27938293373539
 30
0.0
 11
-172.2342764111452
 21
-85.27938293373539
 31
0.0
  0
LINE
  5
246
  8
0
  6
CONTINUOUS
 62
     3
 10
-170.2341959144608
 20
262.720663785298
 30
0.0
 11
-169.2342164320574
 21
261.7206843028946
 31
0.0
  0
LINE
  5
247
  8
0
  6
CONTINUOUS
 62
     3
 10
-169.2343054461999
 20
-82.27938686748347
 30
0.0
 11
-172.2342978413754
 21
-85.27937926265894
 31
0.0
  0
LINE
  5
248
  8
0
  6
CONTINUOUS
 62
     3
 10
-289.534264204114
 20
249.7206170662646
 30
0.0
 11
-289.534264204114
 21
-16.80150054848149
 31
0.0
  0
LINE
  5
249
  8
0
  6
CONTINUOUS
 62
     3
 10
-295.2342458935671
 20
-70.27938293373539
 30
0.0
 11
-289.534264204114
 21
-70.27938293373539
 31
0.0
  0
LINE
  5
24A
  8
0
  6
CONTINUOUS
 62
     3
 10
-295.2342458935671
 20
249.7206170662646
 30
0.0
 11
-289.534264204114
 21
249.7206170662646
 31
0.0
  0
LINE
  5
24B
  8
0
  6
CONTINUOUS
 62
     3
 10
-222.3342519970827
 20
5.72062469565914
 30
0.0
 11
-212.3342519970827
 21
5.72062469565914
 31
0.0
  0
LINE
  5
24C
  8
0
  6
CONTINUOUS
 62
     3
 10
-222.3342519970827
 20
173.7206170662646
 30
0.0
 11
-212.3342519970827
 21
173.7206170662646
 31
0.0
  0
LINE
  5
24D
  8
0
  6
CONTINUOUS
 62
     3
 10
-171.7342458935671
 20
19.72062469565914
 30
0.0
 11
-169.2342458935671
 21
19.72062469565914
 31
0.0
  0
LINE
  5
24E
  8
0
  6
CONTINUOUS
 62
     3
 10
-171.7342458935671
 20
155.1041009529833
 30
0.0
 11
-171.7342458935671
 21
19.72062469565914
 31
0.0
  0
LINE
  5
24F
  8
0
  6
CONTINUOUS
 62
     3
 10
-189.2342458935671
 20
155.8224237068896
 30
0.0
 11
-189.2342458935671
 21
146.1763589485888
 31
0.0
  0
LINE
  5
250
  8
0
  6
CONTINUOUS
 62
     3
 10
-263.2342458935671
 20
269.7206170662646
 30
0.0
 11
-263.2342458935671
 21
236.7509752107713
 31
0.0
  0
LINE
  5
251
  8
0
  6
CONTINUOUS
 62
     3
 10
-171.7342458935671
 20
155.1041009529833
 30
0.0
 11
-169.2342458935671
 21
155.1041009529833
 31
0.0
  0
LINE
  5
252
  8
0
  6
CONTINUOUS
 62
     3
 10
-189.2342458935671
 20
152.4203088387255
 30
0.0
 11
-171.7342458935671
 21
152.4203088387255
 31
0.0
  0
LINE
  5
253
  8
0
  6
CONTINUOUS
 62
     3
 10
-196.0545583935671
 20
146.1763589485888
 30
0.0
 11
-189.2342458935671
 21
146.1763589485888
 31
0.0
  0
LINE
  5
254
  8
0
  6
CONTINUOUS
 62
     3
 10
-222.3342519970827
 20
173.7206170662646
 30
0.0
 11
-222.3342519970827
 21
157.2206170662646
 31
0.0
  0
LINE
  5
255
  8
0
  6
CONTINUOUS
 62
     3
 10
-212.3342519970827
 20
182.2206170662646
 30
0.0
 11
-212.3342519970827
 21
157.2206170662646
 31
0.0
  0
LINE
  5
256
  8
0
  6
CONTINUOUS
 62
     3
 10
-222.3342519970827
 20
22.22062469565914
 30
0.0
 11
-222.3342519970827
 21
5.72062469565914
 31
0.0
  0
LINE
  5
257
  8
0
  6
CONTINUOUS
 62
     3
 10
-212.3342519970827
 20
22.22062469565914
 30
0.0
 11
-212.3342519970827
 21
5.72062469565914
 31
0.0
  0
LINE
  5
258
  8
0
  6
CONTINUOUS
 62
     3
 10
-221.7342458935671
 20
200.7206170662646
 30
0.0
 11
-221.7342458935671
 21
200.2206170662646
 31
0.0
  0
LINE
  5
259
  8
0
  6
CONTINUOUS
 62
     3
 10
-263.2342458935671
 20
269.7206170662646
 30
0.0
 11
-170.2342458935671
 21
269.7206170662646
 31
0.0
  0
LINE
  5
25A
  8
0
  6
CONTINUOUS
 62
     3
 10
-182.2342458935671
 20
269.7206170662646
 30
0.0
 11
-182.2342458935671
 21
254.7206170662646
 31
0.0
  0
LINE
  5
25B
  8
0
  6
CONTINUOUS
 62
     3
 10
-194.0342489453249
 20
269.7206170662646
 30
0.0
 11
-194.0342489453249
 21
164.0038659676318
 31
0.0
  0
LINE
  5
25C
  8
0
  6
CONTINUOUS
 62
     3
 10
-221.7342458935671
 20
182.2206170662646
 30
0.0
 11
-212.3342519970827
 21
182.2206170662646
 31
0.0
  0
LINE
  5
25D
  8
0
  6
CONTINUOUS
 62
     3
 10
-221.7342458935671
 20
200.7206170662646
 30
0.0
 11
-221.7342458935671
 21
173.7206170662646
 31
0.0
  0
LINE
  5
25E
  8
0
  6
CONTINUOUS
 62
     3
 10
-188.4342428418093
 20
166.7206170662646
 30
0.0
 11
-170.2342458935671
 21
166.7206170662646
 31
0.0
  0
LINE
  5
25F
  8
0
  6
CONTINUOUS
 62
     3
 10
-196.319679853528
 20
156.7206170662646
 30
0.0
 11
-188.4342428418093
 21
156.7206170662646
 31
0.0
  0
LINE
  5
260
  8
0
  6
CONTINUOUS
 62
     3
 10
-212.3342519970827
 20
165.2206170662646
 30
0.0
 11
-194.0342489453249
 21
165.2206170662646
 31
0.0
  0
LINE
  5
261
  8
0
  6
CONTINUOUS
 62
     3
 10
-194.0342489453249
 20
164.0038659676318
 30
0.0
 11
-188.4342428418093
 21
164.0038659676318
 31
0.0
  0
LINE
  5
262
  8
0
  6
CONTINUOUS
 62
     3
 10
-188.4342428418093
 20
166.7206170662646
 30
0.0
 11
-188.4342428418093
 21
156.7206170662646
 31
0.0
  0
LINE
  5
263
  8
0
  6
CONTINUOUS
 62
     3
 10
-154.2342458935671
 20
252.7206170662646
 30
0.0
 11
-154.2342458935671
 21
228.7206170662646
 31
0.0
  0
LINE
  5
264
  8
0
  6
CONTINUOUS
 62
     3
 10
-154.2342458935671
 20
207.7206170662646
 30
0.0
 11
-154.2342458935671
 21
183.7206170662646
 31
0.0
  0
LINE
  5
265
  8
0
  6
CONTINUOUS
 62
     3
 10
-169.2342458935671
 20
180.4705560311083
 30
0.0
 11
-169.2342458935671
 21
-82.27938293373539
 31
0.0
  0
LINE
  5
266
  8
0
  6
CONTINUOUS
 62
     3
 10
-182.2342458935671
 20
181.7206170662646
 30
0.0
 11
-182.2342458935671
 21
166.7206170662646
 31
0.0
  0
LINE
  5
267
  8
0
  6
CONTINUOUS
 62
     3
 10
-193.2342458935671
 20
254.7206170662646
 30
0.0
 11
-193.2342458935671
 21
181.7206170662646
 31
0.0
  0
LINE
  5
268
  8
0
  6
CONTINUOUS
 62
     3
 10
-167.7342458935671
 20
254.7206170662646
 30
0.0
 11
-167.7342458935671
 21
248.7206170662646
 31
0.0
  0
LINE
  5
269
  8
0
  6
CONTINUOUS
 62
     3
 10
-167.7342458935671
 20
232.7206170662646
 30
0.0
 11
-167.7342458935671
 21
203.7206170662646
 31
0.0
  0
LINE
  5
26A
  8
0
  6
CONTINUOUS
 62
     3
 10
-193.2342458935671
 20
181.7206170662646
 30
0.0
 11
-167.7342458935671
 21
181.7206170662646
 31
0.0
  0
LINE
  5
26B
  8
0
  6
CONTINUOUS
 62
     3
 10
-193.2342458935671
 20
254.7206170662646
 30
0.0
 11
-167.7342458935671
 21
254.7206170662646
 31
0.0
  0
LINE
  5
26C
  8
0
  6
CONTINUOUS
 62
     3
 10
-193.2342458935671
 20
232.7206170662646
 30
0.0
 11
-154.2342458935671
 21
232.7206170662646
 31
0.0
  0
LINE
  5
26D
  8
0
  6
CONTINUOUS
 62
     3
 10
-193.2342458935671
 20
248.7206170662646
 30
0.0
 11
-154.2342458935671
 21
248.7206170662646
 31
0.0
  0
LINE
  5
26E
  8
0
  6
CONTINUOUS
 62
     3
 10
-193.2342458935671
 20
203.7206170662646
 30
0.0
 11
-154.2342458935671
 21
203.7206170662646
 31
0.0
  0
LINE
  5
26F
  8
0
  6
CONTINUOUS
 62
     3
 10
-193.2342458935671
 20
187.7206170662646
 30
0.0
 11
-154.2342458935671
 21
187.7206170662646
 31
0.0
  0
LINE
  5
270
  8
0
  6
CONTINUOUS
 62
     3
 10
-167.7342458935671
 20
187.7206170662646
 30
0.0
 11
-167.7342458935671
 21
181.7206170662646
 31
0.0
  0
LINE
  5
271
  8
0
  6
CONTINUOUS
 62
     3
 10
-138.2342458935671
 20
252.7206170662646
 30
0.0
 11
-138.2342458935671
 21
228.7206170662646
 31
0.0
  0
LINE
  5
272
  8
0
  6
CONTINUOUS
 62
     3
 10
-138.2342458935671
 20
207.7206170662646
 30
0.0
 11
-138.2342458935671
 21
183.7206170662646
 31
0.0
  0
LINE
  5
273
  8
0
  6
CONTINUOUS
 62
     3
 10
-154.2342458935671
 20
183.7206170662646
 30
0.0
 11
-138.2342458935671
 21
183.7206170662646
 31
0.0
  0
LINE
  5
274
  8
0
  6
CONTINUOUS
 62
     3
 10
-154.2342458935671
 20
207.7206170662646
 30
0.0
 11
-138.2342458935671
 21
207.7206170662646
 31
0.0
  0
LINE
  5
275
  8
0
  6
CONTINUOUS
 62
     3
 10
-154.2342458935671
 20
228.7206170662646
 30
0.0
 11
-138.2342458935671
 21
228.7206170662646
 31
0.0
  0
LINE
  5
276
  8
0
  6
CONTINUOUS
 62
     3
 10
-154.2342458935671
 20
252.7206170662646
 30
0.0
 11
-138.2342458935671
 21
252.7206170662646
 31
0.0
  0
LINE
  5
277
  8
0
  6
CONTINUOUS
 62
     3
 10
-272.754723188489
 20
156.2206170662646
 30
0.0
 11
-272.754723188489
 21
23.22062469565914
 31
0.0
  0
LINE
  5
278
  8
0
  6
CONTINUOUS
 62
     3
 10
-197.7547079296999
 20
156.2206170662646
 30
0.0
 11
-197.7547079296999
 21
23.22062469565914
 31
0.0
  0
LINE
  5
279
  8
0
  6
CONTINUOUS
 62
     3
 10
-289.534264204114
 20
157.2206170662646
 30
0.0
 11
-198.7547079296999
 21
157.2206170662646
 31
0.0
  0
LINE
  5
27A
  8
0
  6
CONTINUOUS
 62
     3
 10
-198.7546859355526
 20
157.2206138277657
 30
0.0
 11
-197.7546848739631
 21
156.2206127661762
 31
0.0
  0
LINE
  5
27B
  8
0
  6
CONTINUOUS
 62
     3
 10
-271.7548100413213
 20
157.2206944777001
 30
0.0
 11
-272.7548127044664
 21
156.220684143779
 31
0.0
  0
LINE
  5
27C
  8
0
  6
CONTINUOUS
 62
     3
 10
-272.754553860377
 20
23.22076270091635
 30
0.0
 11
-271.7545711747396
 21
22.22076475826795
 31
0.0
  0
LINE
  5
27D
  8
0
  6
CONTINUOUS
 62
     3
 10
-197.7546767817683
 20
23.22063072126981
 30
0.0
 11
-198.7546778433578
 21
22.22062965968031
 31
0.0
  0
LINE
  5
27E
  8
0
  6
CONTINUOUS
 62
     3
 10
-215.754723188489
 20
146.2206246956591
 30
0.0
 11
-215.754723188489
 21
33.22062469565914
 31
0.0
  0
LINE
  5
27F
  8
0
  6
CONTINUOUS
 62
     3
 10
-235.754723188489
 20
144.7206246956591
 30
0.0
 11
-235.754723188489
 21
34.72062469565914
 31
0.0
  0
LINE
  5
280
  8
0
  6
CONTINUOUS
 62
     3
 10
-233.754723188489
 20
144.7206246956591
 30
0.0
 11
-233.754723188489
 21
34.72062469565914
 31
0.0
  0
LINE
  5
281
  8
0
  6
CONTINUOUS
 62
     3
 10
-213.254723188489
 20
146.2206246956591
 30
0.0
 11
-213.254723188489
 21
145.7206246956591
 31
0.0
  0
LINE
  5
282
  8
0
  6
CONTINUOUS
 62
     3
 10
-200.2547079296999
 20
146.2206246956591
 30
0.0
 11
-200.2547079296999
 21
145.7206246956591
 31
0.0
  0
LINE
  5
283
  8
0
  6
CONTINUOUS
 62
     3
 10
-235.7547079296999
 20
144.7206246956591
 30
0.0
 11
-233.7547079296999
 21
144.7206246956591
 31
0.0
  0
LINE
  5
284
  8
0
  6
CONTINUOUS
 62
     3
 10
-235.7547079296999
 20
34.72062469565914
 30
0.0
 11
-233.7547079296999
 21
34.72062469565914
 31
0.0
  0
LINE
  5
285
  8
0
  6
CONTINUOUS
 62
     3
 10
-215.7547079296999
 20
146.2206246956591
 30
0.0
 11
-213.2547079296999
 21
146.2206246956591
 31
0.0
  0
LINE
  5
286
  8
0
  6
CONTINUOUS
 62
     3
 10
-215.7547079296999
 20
33.22062469565914
 30
0.0
 11
-213.2547079296999
 21
33.22062469565914
 31
0.0
  0
LINE
  5
287
  8
0
  6
CONTINUOUS
 62
     3
 10
-200.2547079296999
 20
146.2206246956591
 30
0.0
 11
-197.7547079296999
 21
146.2206246956591
 31
0.0
  0
LINE
  5
288
  8
0
  6
CONTINUOUS
 62
     3
 10
-200.2547079296999
 20
33.22062469565914
 30
0.0
 11
-197.7547079296999
 21
33.22062469565914
 31
0.0
  0
LINE
  5
289
  8
0
  6
CONTINUOUS
 62
     3
 10
-233.7547079296999
 20
144.2706201180224
 30
0.0
 11
-215.7547079296999
 21
144.2706201180224
 31
0.0
  0
LINE
  5
28A
  8
0
  6
CONTINUOUS
 62
     3
 10
-233.7547079296999
 20
35.17062545859859
 30
0.0
 11
-215.7547079296999
 21
35.17062545859859
 31
0.0
  0
LINE
  5
28B
  8
0
  6
CONTINUOUS
 62
     3
 10
-213.7547079296999
 20
145.7206246956591
 30
0.0
 11
-199.7547079296999
 21
145.7206246956591
 31
0.0
  0
LINE
  5
28C
  8
0
  6
CONTINUOUS
 62
     3
 10
-289.534264204114
 20
22.22062469565914
 30
0.0
 11
-171.7342458935671
 21
22.22062469565914
 31
0.0
  0
LINE
  5
28D
  8
0
  6
CONTINUOUS
 62
     3
 10
-213.754723188489
 20
145.7206246956591
 30
0.0
 11
-213.754723188489
 21
33.72062469565914
 31
0.0
  0
LINE
  5
28E
  8
0
  6
CONTINUOUS
 62
     3
 10
-199.7547079296999
 20
145.7206246956591
 30
0.0
 11
-199.7547079296999
 21
33.72062469565914
 31
0.0
  0
LINE
  5
28F
  8
0
  6
CONTINUOUS
 62
     3
 10
-200.2547079296999
 20
33.72062469565914
 30
0.0
 11
-200.2547079296999
 21
33.22062469565914
 31
0.0
  0
LINE
  5
290
  8
0
  6
CONTINUOUS
 62
     3
 10
-213.254723188489
 20
33.72062469565914
 30
0.0
 11
-213.254723188489
 21
33.22062469565914
 31
0.0
  0
LINE
  5
291
  8
0
  6
CONTINUOUS
 62
     3
 10
-295.2342458935671
 20
97.61147857749508
 30
0.0
 11
-295.2342458935671
 21
-16.80150054848149
 31
0.0
  0
LINE
  5
292
  8
0
  6
CONTINUOUS
 62
     3
 10
-289.534264204114
 20
-38.50947021400883
 30
0.0
 11
-289.534264204114
 21
-70.27938293373539
 31
0.0
  0
LINE
  5
293
  8
0
  6
CONTINUOUS
 62
     3
 10
-295.2342458935671
 20
-38.50947021400883
 30
0.0
 11
-295.2342458935671
 21
-85.27938293373539
 31
0.0
  0
LINE
  5
294
  8
0
  6
CONTINUOUS
 62
     3
 10
-191.2342458935671
 20
-11.25437377846195
 30
0.0
 11
-191.2342458935671
 21
-44.25437377846195
 31
0.0
  0
LINE
  5
295
  8
0
  6
CONTINUOUS
 62
     3
 10
-191.2342458935671
 20
-42.75437377846195
 30
0.0
 11
-171.2342458935671
 21
-42.75437377846195
 31
0.0
  0
LINE
  5
296
  8
0
  6
CONTINUOUS
 62
     3
 10
-191.2342458935671
 20
-12.75437377846195
 30
0.0
 11
-171.2342458935671
 21
-12.75437377846195
 31
0.0
  0
LINE
  5
297
  8
0
  6
CONTINUOUS
 62
     3
 10
-191.2342458935671
 20
-44.25437377846195
 30
0.0
 11
-169.2342458935671
 21
-44.25437377846195
 31
0.0
  0
LINE
  5
298
  8
0
  6
CONTINUOUS
 62
     3
 10
-191.2342458935671
 20
-11.25437377846195
 30
0.0
 11
-169.2342458935671
 21
-11.25437377846195
 31
0.0
  0
LINE
  5
299
  8
0
  6
CONTINUOUS
 62
     3
 10
-171.2342458935671
 20
-12.75437377846195
 30
0.0
 11
-171.2342458935671
 21
-42.75437377846195
 31
0.0
  0
LINE
  5
29A
  8
0
  6
CONTINUOUS
 62
     3
 10
-289.534264204114
 20
-38.75437377846195
 30
0.0
 11
-191.2342458935671
 21
-38.75437377846195
 31
0.0
  0
LINE
  5
29B
  8
0
  6
CONTINUOUS
 62
     3
 10
-289.534264204114
 20
-16.75437377846195
 30
0.0
 11
-191.2342458935671
 21
-16.75437377846195
 31
0.0
  0
CIRCLE
  5
29C
  8
0
  6
CONTINUOUS
 62
     3
 10
243.1197580126829
 20
89.72062469565914
 30
0.0
 40
56.0
  0
CIRCLE
  5
29D
  8
0
  6
CONTINUOUS
 62
     3
 10
243.1197580126829
 20
89.72062469565914
 30
0.0
 40
45.25
  0
CIRCLE
  5
29E
  8
0
  6
CONTINUOUS
 62
     3
 10
243.1197580126829
 20
139.7206246956591
 30
0.0
 40
3.0
  0
CIRCLE
  5
29F
  8
0
  6
CONTINUOUS
 62
     3
 10
193.1197580126829
 20
89.72062469565914
 30
0.0
 40
3.099999904632568
  0
CIRCLE
  5
2A0
  8
0
  6
CONTINUOUS
 62
     3
 10
199.8184884814329
 20
64.72062469565914
 30
0.0
 40
3.0
  0
CIRCLE
  5
2A1
  8
0
  6
CONTINUOUS
 62
     3
 10
293.1197580126829
 20
89.72062469565914
 30
0.0
 40
3.099999904632568
  0
CIRCLE
  5
2A2
  8
0
  6
CONTINUOUS
 62
     3
 10
286.4210275439329
 20
64.72062469565914
 30
0.0
 40
3.0
  0
LINE
  5
2A3
  8
0
  6
CONTINUOUS
 62
     3
 10
-271.7547384770799
 20
134.9706234216099
 30
0.0
 11
-236.7547242613726
 21
134.9706234216099
 31
0.0
  0
LINE
  5
2A4
  8
0
  6
CONTINUOUS
 62
     3
 10
-271.754712803507
 20
134.9706083559259
 30
0.0
 11
-272.7547462040723
 21
135.9706417564912
 31
0.0
  0
LINE
  5
2A5
  8
0
  6
CONTINUOUS
 62
     3
 10
-236.7546888292487
 20
134.9705962176341
 30
0.0
 11
-235.7546877974615
 21
135.9705972494212
 31
0.0
  0
LINE
  5
2A6
  8
0
  6
CONTINUOUS
 62
     3
 10
-271.7547384770799
 20
44.47062811547553
 30
0.0
 11
-236.7547242613726
 21
44.47062811547553
 31
0.0
  0
LINE
  5
2A7
  8
0
  6
CONTINUOUS
 62
     3
 10
-271.7546809747443
 20
44.47058164791513
 30
0.0
 11
-272.7546810792998
 21
43.47057960460255
 31
0.0
  0
LINE
  5
2A8
  8
0
  6
CONTINUOUS
 62
     3
 10
-213.7547079296999
 20
33.72062469565915
 30
0.0
 11
-199.7547079296999
 21
33.72062469565915
 31
0.0
  0
LINE
  5
2A9
  8
0
  6
CONTINUOUS
 62
     3
 10
-236.7546888292487
 20
44.47065317368421
 30
0.0
 11
-235.7546877974615
 21
43.47065214189706
 31
0.0
  0
LINE
  5
2AA
  8
0
  6
CONTINUOUS
 62
     3
 10
74.73519115689368
 20
21.37129138764264
 30
0.0
 11
176.3202431220586
 21
80.02144200559057
 31
0.0
  0
LINE
  5
2AB
  8
0
  6
CONTINUOUS
 62
     3
 10
99.73520111086867
 20
-21.93000082637975
 30
0.0
 11
201.3202662905332
 21
36.72015742096225
 31
0.0
  0
LINE
  5
2AC
  8
0
  6
CONTINUOUS
 62
     3
 10
309.9193055837888
 20
80.02150658365933
 30
0.0
 11
411.504383977953
 21
21.37134070692325
 31
0.0
  0
LINE
  5
2AD
  8
0
  6
CONTINUOUS
 62
     3
 10
284.9192862300112
 20
36.72022860628083
 30
0.0
 11
386.504377838675
 21
-21.92994489984933
 31
0.0
  0
LINE
  5
2AE
  8
0
  6
CONTINUOUS
 62
     3
 10
372.7480935792411
 20
-27.84417537650309
 30
0.0
 11
378.6719159030183
 21
-31.26429541190585
 31
0.0
  0
LINE
  5
2AF
  8
0
  6
CONTINUOUS
 62
     3
 10
206.1197580126829
 20
267.6047333423418
 30
0.0
 11
206.1197580126829
 21
260.7645081226153
 31
0.0
  0
LINE
  5
2B0
  8
0
  6
CONTINUOUS
 62
     3
 10
280.1197580126829
 20
267.6047180835528
 30
0.0
 11
280.1197580126829
 21
260.7645081226153
 31
0.0
  0
LINE
  5
2B1
  8
0
  6
CONTINUOUS
 62
     3
 10
107.567643224776
 20
-31.26436278252739
 30
0.0
 11
113.4914391195538
 21
-27.84425800591278
 31
0.0
  0
LINE
  5
2B2
  8
0
  6
CONTINUOUS
 62
     3
 10
70.56763487126096
 20
32.82155390535779
 30
0.0
 11
76.49144398053846
 21
36.24166631136647
 31
0.0
  0
LINE
  5
2B3
  8
0
  6
CONTINUOUS
 62
     3
 10
409.7481066326574
 20
36.24173419306014
 30
0.0
 11
415.6719289564346
 21
32.82161415765738
 31
0.0
  0
LINE
  5
2B4
  8
0
  6
CONTINUOUS
 62
     3
 10
218.1197580126829
 20
269.7206543628496
 30
0.0
 11
268.1197580126829
 21
269.7206543628496
 31
0.0
  0
LINE
  5
2B5
  8
0
  6
CONTINUOUS
 62
     3
 10
74.73519391755798
 20
21.37131055562047
 30
0.0
 11
99.73520452718566
 21
-21.92997207091896
 31
0.0
  0
LINE
  5
2B6
  8
0
  6
CONTINUOUS
 62
     3
 10
386.5044151761287
 20
-21.93003044147493
 30
0.0
 11
411.5044181563609
 21
21.37123897056578
 31
0.0
  0
LINE
  5
2B7
  8
0
  6
CONTINUOUS
 62
     3
 10
206.1197617216541
 20
267.6046573065766
 30
0.0
 11
218.1197617197769
 21
269.7205811358842
 31
0.0
  0
LINE
  5
2B8
  8
0
  6
CONTINUOUS
 62
     3
 10
268.1197017621145
 20
269.7205697964952
 30
0.0
 11
280.1197468411576
 21
267.6046380182049
 31
0.0
  0
LINE
  5
2B9
  8
0
  6
CONTINUOUS
 62
     3
 10
411.5043334838157
 20
21.37123789627064
 30
0.0
 11
415.6718951946079
 21
32.82151918084007
 31
0.0
  0
LINE
  5
2BA
  8
0
  6
CONTINUOUS
 62
     3
 10
70.56761883154712
 20
32.82156410887562
 30
0.0
 11
74.73517401882253
 21
21.37130074752047
 31
0.0
  0
LINE
  5
2BB
  8
0
  6
CONTINUOUS
 62
     3
 10
99.73517193324659
 20
-21.92999080818466
 30
0.0
 11
107.5676063575194
 21
-31.26432150967578
 31
0.0
  0
LINE
  5
2BC
  8
0
  6
CONTINUOUS
 62
     3
 10
378.6716788834758
 20
-31.26419932623078
 30
0.0
 11
386.504044650622
 21
-21.92995044710672
 31
0.0
  0
LINE
  5
2BD
  8
0
  6
CONTINUOUS
 62
     3
 10
163.9358325428077
 20
72.87132153174268
 30
0.0
 11
171.1858372217727
 21
60.31394679500151
 31
0.0
  0
LINE
  5
2BE
  8
0
  6
CONTINUOUS
 62
     3
 10
297.3038001873248
 20
29.56997569780349
 30
0.0
 11
304.5538010515922
 21
42.12734382729529
 31
0.0
  0
LINE
  5
2BF
  8
0
  6
CONTINUOUS
 62
     3
 10
81.98520216885112
 20
8.81390257213404
 30
0.0
 11
102.0687837116947
 21
20.40916250111984
 31
0.0
  0
LINE
  5
2C0
  8
0
  6
CONTINUOUS
 62
     3
 10
92.48519112105549
 20
-9.372629040067821
 30
0.0
 11
112.5687726638991
 21
2.222630888917976
 31
0.0
  0
LINE
  5
2C1
  8
0
  6
CONTINUOUS
 62
     3
 10
315.0537709113984
 20
60.31398185802452
 30
0.0
 11
335.137352454242
 21
48.71872192903872
 31
0.0
  0
LINE
  5
2C2
  8
0
  6
CONTINUOUS
 62
     3
 10
304.5537791666413
 20
42.12746066776951
 30
0.0
 11
324.6373342804856
 21
30.53221599757187
 31
0.0
  0
LINE
  5
2C3
  8
0
  6
CONTINUOUS
 62
     3
 10
314.2009555916144
 20
64.27045655809404
 30
0.0
 11
316.5537708219915
 21
62.9120582015609
 31
0.0
  0
LINE
  5
2C4
  8
0
  6
CONTINUOUS
 62
     3
 10
300.7009675664883
 20
40.88772777847923
 30
0.0
 11
303.053756367866
 21
39.52934468073424
 31
0.0
  0
LINE
  5
2C5
  8
0
  6
CONTINUOUS
 62
     3
 10
169.6858119422493
 20
62.91199566778066
 30
0.0
 11
172.038600743627
 21
64.27037876552565
 31
0.0
  0
LINE
  5
2C6
  8
0
  6
CONTINUOUS
 62
     3
 10
183.1858319814803
 20
39.52930299084771
 30
0.0
 11
185.538620782858
 21
40.8876860885927
 31
0.0
  0
LINE
  5
2C7
  8
0
  6
CONTINUOUS
 62
     3
 10
181.6858384734703
 20
42.12741364194442
 30
0.0
 11
188.9358393377376
 21
29.57004551245261
 31
0.0
  0
LINE
  5
2C8
  8
0
  6
CONTINUOUS
 62
     3
 10
315.0538023032897
 20
60.31387698035239
 30
0.0
 11
322.3038031675571
 21
72.8712451098442
 31
0.0
  0
LINE
  5
2C9
  8
0
  6
CONTINUOUS
 62
     3
 10
112.1310833865445
 20
26.21863328521947
 30
0.0
 11
141.0399288647404
 21
42.90916116001533
 31
0.0
  0
LINE
  5
2CA
  8
0
  6
CONTINUOUS
 62
     3
 10
122.6310987677481
 20
8.03211693180576
 30
0.0
 11
151.5399244241946
 21
24.72263336251051
 31
0.0
  0
LINE
  5
2CB
  8
0
  6
CONTINUOUS
 62
     3
 10
161.602237313544
 20
30.53211177600421
 30
0.0
 11
181.6858188563876
 21
42.12737170499001
 31
0.0
  0
LINE
  5
2CC
  8
0
  6
CONTINUOUS
 62
     3
 10
151.1022285395902
 20
48.71863194411496
 30
0.0
 11
171.1858100824338
 21
60.31389187310076
 31
0.0
  0
LINE
  5
2CD
  8
0
  6
CONTINUOUS
 62
     3
 10
345.1996653435915
 20
42.90924351554502
 30
0.0
 11
374.1084976072877
 21
26.21872327014323
 31
0.0
  0
LINE
  5
2CE
  8
0
  6
CONTINUOUS
 62
     3
 10
334.6996735988343
 20
24.72272232529001
 30
0.0
 11
363.6085058625305
 21
8.032202079888222
 31
0.0
  0
LINE
  5
2CF
  8
0
  6
CONTINUOUS
 62
     3
 10
373.6707923228807
 20
2.222738925182668
 30
0.0
 11
393.7544002947236
 21
-9.372536262591282
 31
0.0
  0
LINE
  5
2D0
  8
0
  6
CONTINUOUS
 62
     3
 10
384.1708104966371
 20
20.40924485664952
 30
0.0
 11
404.2543920394807
 21
8.813984927663725
 31
0.0
  0
LINE
  5
2D1
  8
0
  6
CONTINUOUS
 62
     3
 10
268.1197580126829
 20
269.7206543628496
 30
0.0
 11
268.1197580126829
 21
152.4203461353106
 31
0.0
  0
LINE
  5
2D2
  8
0
  6
CONTINUOUS
 62
     3
 10
218.1197580126829
 20
269.7206543628496
 30
0.0
 11
218.1197580126829
 21
152.4203461353106
 31
0.0
  0
LINE
  5
2D3
  8
0
  6
CONTINUOUS
 62
     3
 10
232.6197580126829
 20
269.7206543628496
 30
0.0
 11
232.6197580126829
 21
246.5301331226153
 31
0.0
  0
LINE
  5
2D4
  8
0
  6
CONTINUOUS
 62
     3
 10
253.6197580126829
 20
269.7206543628496
 30
0.0
 11
253.6197580126829
 21
246.5301331226153
 31
0.0
  0
LINE
  5
2D5
  8
0
  6
CONTINUOUS
 62
     3
 10
218.1197580126829
 20
166.7206543628496
 30
0.0
 11
232.6197580126829
 21
166.7206543628496
 31
0.0
  0
LINE
  5
2D6
  8
0
  6
CONTINUOUS
 62
     3
 10
253.6197580126829
 20
166.7206543628496
 30
0.0
 11
268.1197580126829
 21
166.7206543628496
 31
0.0
  0
LINE
  5
2D7
  8
0
  6
CONTINUOUS
 62
     3
 10
232.6197580126829
 20
180.7206543628496
 30
0.0
 11
253.6197580126829
 21
180.7206543628496
 31
0.0
  0
LINE
  5
2D8
  8
0
  6
CONTINUOUS
 62
     3
 10
232.6197580126829
 20
255.7206543628496
 30
0.0
 11
253.6197580126829
 21
255.7206543628496
 31
0.0
  0
LINE
  5
2D9
  8
0
  6
CONTINUOUS
 62
     3
 10
253.6197580126829
 20
234.911175603084
 30
0.0
 11
253.6197580126829
 21
201.5301331226153
 31
0.0
  0
LINE
  5
2DA
  8
0
  6
CONTINUOUS
 62
     3
 10
253.6197580126829
 20
189.911175603084
 30
0.0
 11
253.6197580126829
 21
166.7206543628496
 31
0.0
  0
LINE
  5
2DB
  8
0
  6
CONTINUOUS
 62
     3
 10
232.6197580126829
 20
189.911175603084
 30
0.0
 11
232.6197580126829
 21
166.7206543628496
 31
0.0
  0
LINE
  5
2DC
  8
0
  6
CONTINUOUS
 62
     3
 10
232.6197580126829
 20
234.911175603084
 30
0.0
 11
232.6197580126829
 21
201.5301331226153
 31
0.0
  0
LINE
  5
2DD
  8
0
  6
CONTINUOUS
 62
     3
 10
256.3697580126829
 20
166.7206543628496
 30
0.0
 11
256.3697580126829
 21
164.0489014331621
 31
0.0
  0
LINE
  5
2DE
  8
0
  6
CONTINUOUS
 62
     3
 10
229.8697580126829
 20
166.7206543628496
 30
0.0
 11
229.8697580126829
 21
164.0489014331621
 31
0.0
  0
LINE
  5
2DF
  8
0
  6
CONTINUOUS
 62
     3
 10
169.5614480020697
 20
35.12739480468342
 30
0.0
 11
159.061446094721
 21
53.3139312613652
 31
0.0
  0
LINE
  5
2E0
  8
0
  6
CONTINUOUS
 62
     3
 10
104.609550491258
 20
-2.372601380619315
 30
0.0
 11
94.10954858390932
 21
15.81393507606246
 31
0.0
  0
LINE
  5
2E1
  8
0
  6
CONTINUOUS
 62
     3
 10
392.1299636019632
 20
15.81392512770405
 30
0.0
 11
381.6299636019632
 21
-2.372608025353046
 31
0.0
  0
LINE
  5
2E2
  8
0
  6
CONTINUOUS
 62
     3
 10
327.1780594839021
 20
53.31392512770405
 30
0.0
 11
316.6780594839021
 21
35.12739197464696
 31
0.0
  0
ARC
  5
2E3
  8
0
  6
CONTINUOUS
 62
     3
 10
243.1197580126829
 20
89.72066199224416
 30
0.0
 40
175.0
 50
0.0
 51
81.78678881999704
  0
ARC
  5
2E4
  8
0
  6
CONTINUOUS
 62
     3
 10
243.1197580126829
 20
89.72066199224416
 30
0.0
 40
70.0
 50
110.9248539325133
 51
189.0751270949905
  0
ARC
  5
2E5
  8
0
  6
CONTINUOUS
 62
     3
 10
243.1197580126829
 20
89.72066199224416
 30
0.0
 40
172.0
 50
98.35749710498664
 51
201.6424839225172
  0
CIRCLE
  5
2E6
  8
0
  6
CONTINUOUS
 62
     3
 10
301.8572458056516
 20
-12.01567376215037
 30
0.0
 40
11.0
  0
CIRCLE
  5
2E7
  8
0
  6
CONTINUOUS
 62
     3
 10
360.5947641161985
 20
89.72066199224416
 30
0.0
 40
11.0
  0
CIRCLE
  5
2E8
  8
0
  6
CONTINUOUS
 62
     3
 10
301.8572763232298
 20
191.4569977466387
 30
0.0
 40
11.0
  0
CIRCLE
  5
2E9
  8
0
  6
CONTINUOUS
 62
     3
 10
184.382239702136
 20
191.4569824878496
 30
0.0
 40
11.0
  0
CIRCLE
  5
2EA
  8
0
  6
CONTINUOUS
 62
     3
 10
125.6447519091673
 20
89.72066199224416
 30
0.0
 40
11.0
  0
CIRCLE
  5
2EB
  8
0
  6
CONTINUOUS
 62
     3
 10
125.6447519091673
 20
89.72066199224416
 30
0.0
 40
16.0
  0
CIRCLE
  5
2EC
  8
0
  6
CONTINUOUS
 62
     3
 10
184.3822549609251
 20
-12.01567376215037
 30
0.0
 40
16.0
  0
CIRCLE
  5
2ED
  8
0
  6
CONTINUOUS
 62
     3
 10
301.8572458056516
 20
-12.01567376215037
 30
0.0
 40
16.0
  0
CIRCLE
  5
2EE
  8
0
  6
CONTINUOUS
 62
     3
 10
360.5947641161985
 20
89.72066199224416
 30
0.0
 40
16.0
  0
ARC
  5
2EF
  8
0
  6
CONTINUOUS
 62
     3
 10
243.1197580126829
 20
89.72066199224416
 30
0.0
 40
175.0
 50
98.21322984933764
 51
201.7867511781662
  0
ARC
  5
2F0
  8
0
  6
CONTINUOUS
 62
     3
 10
243.1197580126829
 20
89.72066199224416
 30
0.0
 40
175.0
 50
218.2131958499725
 51
321.7867888957874
  0
ARC
  5
2F1
  8
0
  6
CONTINUOUS
 62
     3
 10
243.1197580126829
 20
89.72066199224416
 30
0.0
 40
70.0
 50
230.9248062727699
 51
309.0751579824225
  0
ARC
  5
2F2
  8
0
  6
CONTINUOUS
 62
     3
 10
243.1197580126829
 20
89.72066199224416
 30
0.0
 40
70.0
 50
350.9248275413207
 51
429.0751647368213
  0
ARC
  5
2F3
  8
0
  6
CONTINUOUS
 62
     3
 10
243.1197580126829
 20
89.72066199224416
 30
0.0
 40
175.0
 50
338.2132111421078
 51
360.0
  0
ARC
  5
2F4
  8
0
  6
CONTINUOUS
 62
     3
 10
243.1197580126829
 20
89.72066199224416
 30
0.0
 40
172.0
 50
218.3574767659999
 51
321.6425216401384
  0
CIRCLE
  5
2F5
  8
0
  6
CONTINUOUS
 62
     3
 10
243.1197580126829
 20
89.72066199224416
 30
0.0
 40
67.5
  0
ARC
  5
2F6
  8
0
  6
CONTINUOUS
 62
     3
 10
243.1197580126829
 20
89.72066199224416
 30
0.0
 40
75.5
 50
190.6628491911607
 51
229.3371014794437
  0
ARC
  5
2F7
  8
0
  6
CONTINUOUS
 62
     3
 10
243.1197580126829
 20
89.72066199224416
 30
0.0
 40
75.5
 50
310.6628661908433
 51
349.3371500687512
  0
ARC
  5
2F8
  8
0
  6
CONTINUOUS
 62
     3
 10
243.1197580126829
 20
89.72066199224416
 30
0.0
 40
172.0
 50
338.357497180777
 51
441.642521564348
  0
CIRCLE
  5
2F9
  8
0
  6
CONTINUOUS
 62
     3
 10
184.382239702136
 20
191.4569824878496
 30
0.0
 40
16.0
  0
CIRCLE
  5
2FA
  8
0
  6
CONTINUOUS
 62
     3
 10
301.8572763232298
 20
191.4569977466387
 30
0.0
 40
16.0
  0
ARC
  5
2FB
  8
0
  6
CONTINUOUS
 62
     3
 10
243.1197580126829
 20
89.72066199224416
 30
0.0
 40
75.5
 50
70.66287636033665
 51
109.337142308998
  0
CIRCLE
  5
2FC
  8
0
  6
CONTINUOUS
 62
     3
 10
175.5697854785032
 20
128.7206848804278
 30
0.0
 40
4.0
  0
CIRCLE
  5
2FD
  8
0
  6
CONTINUOUS
 62
     3
 10
310.6697458056516
 20
128.7206467334551
 30
0.0
 40
4.0
  0
CIRCLE
  5
2FE
  8
0
  6
CONTINUOUS
 62
     3
 10
243.1197580126829
 20
11.72066199224416
 30
0.0
 40
4.0
  0
LINE
  5
2FF
  8
0
  6
CONTINUOUS
 62
     3
 10
-213.7547079296999
 20
134.9706246956591
 30
0.0
 11
-199.7547079296999
 21
134.9706246956591
 31
0.0
  0
LINE
  5
300
  8
0
  6
CONTINUOUS
 62
     3
 10
-213.7547079296999
 20
136.7206246956591
 30
0.0
 11
-199.7547079296999
 21
136.7206246956591
 31
0.0
  0
LINE
  5
301
  8
0
  6
CONTINUOUS
 62
     3
 10
-213.7547079296999
 20
142.7206246956591
 30
0.0
 11
-199.7547079296999
 21
142.7206246956591
 31
0.0
  0
LINE
  5
302
  8
0
  6
CONTINUOUS
 62
     3
 10
-207.7547079296999
 20
142.7206246956591
 30
0.0
 11
-207.7547079296999
 21
136.7206246956591
 31
0.0
  0
LINE
  5
303
  8
0
  6
CONTINUOUS
 62
     3
 10
-201.7547079296999
 20
142.7206246956591
 30
0.0
 11
-201.7547079296999
 21
136.7206246956591
 31
0.0
  0
LINE
  5
304
  8
0
  6
CONTINUOUS
 62
     3
 10
-213.7547079296999
 20
44.47062088096187
 30
0.0
 11
-199.7547079296999
 21
44.47062088096187
 31
0.0
  0
LINE
  5
305
  8
0
  6
DIVIDE
 62
     9
 10
-294.4342886181765
 20
157.2206170662646
 30
0.0
 11
-291.6772085400515
 21
157.2206170662646
 31
0.0
  0
LINE
  5
306
  8
0
  6
DIVIDE
 62
     9
 10
-323.6045119621861
 20
-27.75437377846195
 30
0.0
 11
-158.341881391614
 21
-27.75437377846195
 31
0.0
  0
LINE
  5
307
  8
0
  6
DIVIDE
 62
     9
 10
-295.4342581005984
 20
156.2206170662646
 30
0.0
 11
-295.4342581005984
 21
100.9251458748584
 31
0.0
  0
LINE
  5
308
  8
0
  6
DIVIDE
 62
     9
 10
-175.4342581005984
 20
156.2206170662646
 30
0.0
 11
-175.4342581005984
 21
100.5937860115771
 31
0.0
  0
LINE
  5
309
  8
0
  6
DIVIDE
 62
     9
 10
-295.4342241979219
 20
156.2205878837956
 30
0.0
 11
-294.4342599723648
 21
157.2205826230454
 31
0.0
  0
LINE
  5
30A
  8
0
  6
DIVIDE
 62
     9
 10
-176.4342467336472
 20
157.2206219199604
 30
0.0
 11
-175.4342456720577
 21
156.2206208583709
 31
0.0
  0
LINE
  5
30B
  8
0
  6
DIVIDE
 62
     9
 10
-183.3202749463015
 20
157.2206170662646
 30
0.0
 11
-176.4342581005984
 21
157.2206170662646
 31
0.0
  0
LINE
  5
30C
  8
0
  6
CONTINUOUS
 62
     4
 10
-170.2342458935671
 20
269.7206170662646
 30
0.0
 11
-170.2342458935671
 21
254.7206170662646
 31
0.0
  0
LINE
  5
30D
  8
0
  6
CONTINUOUS
 62
     4
 10
-171.2342458935671
 20
269.7206170662646
 30
0.0
 11
-171.2342458935671
 21
254.7206170662646
 31
0.0
  0
LINE
  5
30E
  8
0
  6
CONTINUOUS
 62
     4
 10
-170.2342458935671
 20
181.7206170662646
 30
0.0
 11
-170.2342458935671
 21
166.7206170662646
 31
0.0
  0
LINE
  5
30F
  8
0
  6
CONTINUOUS
 62
     4
 10
-171.2342458935671
 20
181.7206170662646
 30
0.0
 11
-171.2342458935671
 21
166.7206170662646
 31
0.0
  0
LINE
  5
310
  8
0
  6
CONTINUOUS
 62
     4
 10
-193.2342458935671
 20
202.7206170662646
 30
0.0
 11
-154.2342458935671
 21
202.7206170662646
 31
0.0
  0
LINE
  5
311
  8
0
  6
CONTINUOUS
 62
     4
 10
-193.2342458935671
 20
188.7206170662646
 30
0.0
 11
-154.2342458935671
 21
188.7206170662646
 31
0.0
  0
LINE
  5
312
  8
0
  6
CONTINUOUS
 62
     4
 10
-193.2342458935671
 20
233.7206170662646
 30
0.0
 11
-154.2342458935671
 21
233.7206170662646
 31
0.0
  0
LINE
  5
313
  8
0
  6
CONTINUOUS
 62
     4
 10
-193.2342458935671
 20
247.7206170662646
 30
0.0
 11
-154.2342458935671
 21
247.7206170662646
 31
0.0
  0
LINE
  5
314
  8
0
  6
CONTINUOUS
 62
     4
 10
-213.754723188489
 20
144.7206246956591
 30
0.0
 11
-199.7547079296999
 21
144.7206246956591
 31
0.0
  0
LINE
  5
315
  8
0
  6
CONTINUOUS
 62
     4
 10
-316.2342458935671
 20
-17.75437377846195
 30
0.0
 11
-316.2342458935671
 21
-37.75437377846195
 31
0.0
  0
LINE
  5
316
  8
0
  6
CONTINUOUS
 62
     4
 10
-264.2342458935671
 20
-17.75437377846195
 30
0.0
 11
-264.2342458935671
 21
-37.75437377846195
 31
0.0
  0
LINE
  5
317
  8
0
  6
CONTINUOUS
 62
     4
 10
-316.2342458935671
 20
-37.75437377846195
 30
0.0
 11
-191.2342458935671
 21
-37.75437377846195
 31
0.0
  0
LINE
  5
318
  8
0
  6
CONTINUOUS
 62
     4
 10
-316.2342458935671
 20
-17.75437377846195
 30
0.0
 11
-191.2342458935671
 21
-17.75437377846195
 31
0.0
  0
LINE
  5
319
  8
0
  6
CONTINUOUS
 62
     4
 10
-316.2342458935671
 20
-19.25437377846195
 30
0.0
 11
-264.2342458935671
 21
-19.25437377846195
 31
0.0
  0
LINE
  5
31A
  8
0
  6
CONTINUOUS
 62
     4
 10
-316.2342458935671
 20
-36.25437377846195
 30
0.0
 11
-264.2342458935671
 21
-36.25437377846195
 31
0.0
  0
CIRCLE
  5
31B
  8
0
  6
CONTINUOUS
 62
     4
 10
243.1197580126829
 20
89.72062469565914
 30
0.0
 40
55.0
  0
CIRCLE
  5
31C
  8
0
  6
CONTINUOUS
 62
     4
 10
243.1197580126829
 20
139.7206246956591
 30
0.0
 40
2.5
  0
CIRCLE
  5
31D
  8
0
  6
CONTINUOUS
 62
     4
 10
199.8184884814329
 20
64.72062469565914
 30
0.0
 40
2.5
  0
CIRCLE
  5
31E
  8
0
  6
CONTINUOUS
 62
     4
 10
286.4210275439329
 20
64.72062469565914
 30
0.0
 40
2.5
  0
LINE
  5
31F
  8
0
  6
CONTINUOUS
 62
     4
 10
-236.7547242613726
 20
134.9706234216099
 30
0.0
 11
-236.7547242613726
 21
122.4802158501275
 31
0.0
  0
LINE
  5
320
  8
0
  6
CONTINUOUS
 62
     4
 10
-271.754715588897
 20
134.9706234216099
 30
0.0
 11
-271.754715588897
 21
122.1999843826489
 31
0.0
  0
LINE
  5
321
  8
0
  6
CONTINUOUS
 62
     4
 10
-271.754715588897
 20
56.6690146595128
 30
0.0
 11
-271.754715588897
 21
44.47062811547553
 31
0.0
  0
LINE
  5
322
  8
0
  6
CONTINUOUS
 62
     4
 10
-213.754723188489
 20
34.72062469565915
 30
0.0
 11
-199.7547079296999
 21
34.72062469565915
 31
0.0
  0
LINE
  5
323
  8
0
  6
CONTINUOUS
 62
     4
 10
-236.7547242613726
 20
44.47062596970838
 30
0.0
 11
-236.7547242613726
 21
56.96103354119083
 31
0.0
  0
LINE
  5
324
  8
0
  6
CONTINUOUS
 62
     4
 10
317.1028557338488
 20
60.86294140230409
 30
0.0
 11
322.8528487899068
 21
70.82222015257473
 31
0.0
  0
LINE
  5
325
  8
0
  6
CONTINUOUS
 62
     4
 10
299.3528536178839
 20
30.11904011975518
 30
0.0
 11
305.1028543033373
 21
40.07833208452455
 31
0.0
  0
LINE
  5
326
  8
0
  6
CONTINUOUS
 62
     4
 10
403.7053945579302
 20
10.86293544183961
 30
0.0
 11
409.4553876139882
 21
20.82221419211025
 31
0.0
  0
LINE
  5
327
  8
0
  6
CONTINUOUS
 62
     4
 10
385.9553848125699
 20
-19.88097905520802
 30
0.0
 11
391.7053854980233
 21
-9.921687090438653
 31
0.0
  0
LINE
  5
328
  8
0
  6
CONTINUOUS
 62
     4
 10
384.656388417997
 20
-19.13096779559449
 30
0.0
 11
390.4063891034504
 21
-9.171675830825123
 31
0.0
  0
LINE
  5
329
  8
0
  6
CONTINUOUS
 62
     4
 10
383.35728221885
 20
-18.3809636176032
 30
0.0
 11
389.1072829043034
 21
-8.421671652833837
 31
0.0
  0
LINE
  5
32A
  8
0
  6
CONTINUOUS
 62
     4
 10
382.0582781948817
 20
-17.63096557248839
 30
0.0
 11
387.8082788803351
 21
-7.671673607719029
 31
0.0
  0
LINE
  5
32B
  8
0
  6
CONTINUOUS
 62
     4
 10
380.7592589121225
 20
-16.88099395637103
 30
0.0
 11
386.5092595975759
 21
-6.921701991601665
 31
0.0
  0
LINE
  5
32C
  8
0
  6
CONTINUOUS
 62
     4
 10
379.4602548881541
 20
-16.13099591125622
 30
0.0
 11
385.2102555736075
 21
-6.171703946486858
 31
0.0
  0
LINE
  5
32D
  8
0
  6
CONTINUOUS
 62
     4
 10
402.4063981633573
 20
11.61294670145314
 30
0.0
 11
408.1563912194153
 21
21.57222545172378
 31
0.0
  0
LINE
  5
32E
  8
0
  6
CONTINUOUS
 62
     4
 10
401.1072843348149
 20
12.3629376649457
 30
0.0
 11
406.8572850202683
 21
22.32222962971507
 31
0.0
  0
LINE
  5
32F
  8
0
  6
CONTINUOUS
 62
     4
 10
399.8082803108466
 20
13.11293571006051
 30
0.0
 11
405.5582657375091
 21
23.07220124583243
 31
0.0
  0
LINE
  5
330
  8
0
  6
CONTINUOUS
 62
     4
 10
398.5092610280873
 20
13.86290732617788
 30
0.0
 11
404.2592540841453
 21
23.82218607644852
 31
0.0
  0
LINE
  5
331
  8
0
  6
CONTINUOUS
 62
     4
 10
397.210257004119
 20
14.61290537129268
 30
0.0
 11
402.960250060177
 21
24.57218412156333
 31
0.0
  0
LINE
  5
332
  8
0
  6
CONTINUOUS
 62
     4
 10
318.4018673872126
 20
60.112956571688
 30
0.0
 11
324.1518604432706
 21
70.07223532195864
 31
0.0
  0
LINE
  5
333
  8
0
  6
CONTINUOUS
 62
     4
 10
319.7009583275687
 20
59.36292596469927
 30
0.0
 11
325.4509513836267
 21
69.32220471496991
 31
0.0
  0
LINE
  5
334
  8
0
  6
CONTINUOUS
 62
     4
 10
321.0000228389274
 20
58.61291061650142
 30
0.0
 11
326.7500158949853
 21
68.57218936677207
 31
0.0
  0
LINE
  5
335
  8
0
  6
CONTINUOUS
 62
     4
 10
322.2990532918931
 20
57.86289731259573
 30
0.0
 11
328.0490463479511
 21
67.82217606286638
 31
0.0
  0
LINE
  5
336
  8
0
  6
CONTINUOUS
 62
     4
 10
323.5980878334432
 20
57.11295212547582
 30
0.0
 11
329.3480732601058
 21
67.07221766124773
 31
0.0
  0
LINE
  5
337
  8
0
  6
CONTINUOUS
 62
     4
 10
300.6518652712477
 20
29.3690552891391
 30
0.0
 11
306.4018659567011
 21
39.32834725390846
 31
0.0
  0
LINE
  5
338
  8
0
  6
CONTINUOUS
 62
     4
 10
301.9509562116038
 20
28.61902468215037
 30
0.0
 11
307.7009568970572
 21
38.57831664691973
 31
0.0
  0
LINE
  5
339
  8
0
  6
CONTINUOUS
 62
     4
 10
303.2500207229625
 20
27.86900933395252
 30
0.0
 11
309.0000214084159
 21
37.82830129872188
 31
0.0
  0
LINE
  5
33A
  8
0
  6
CONTINUOUS
 62
     4
 10
304.5490511759282
 20
27.11899603004683
 30
0.0
 11
310.2990518613817
 21
37.07828799481619
 31
0.0
  0
LINE
  5
33B
  8
0
  6
CONTINUOUS
 62
     4
 10
305.8480857174783
 20
26.36905084292691
 30
0.0
 11
311.5980864029318
 21
36.32834280769627
 31
0.0
  0
LINE
  5
33C
  8
0
  6
CONTINUOUS
 62
     4
 10
255.1197580126829
 20
168.2206543628496
 30
0.0
 11
266.6197580126829
 21
168.2206543628496
 31
0.0
  0
LINE
  5
33D
  8
0
  6
CONTINUOUS
 62
     4
 10
219.6197580126829
 20
168.2206543628496
 30
0.0
 11
231.1197580126829
 21
168.2206543628496
 31
0.0
  0
LINE
  5
33E
  8
0
  6
CONTINUOUS
 62
     4
 10
255.1197580126829
 20
268.2206543628496
 30
0.0
 11
266.6197580126829
 21
268.2206543628496
 31
0.0
  0
LINE
  5
33F
  8
0
  6
CONTINUOUS
 62
     4
 10
219.6197580126829
 20
268.2206543628496
 30
0.0
 11
231.1197580126829
 21
268.2206543628496
 31
0.0
  0
LINE
  5
340
  8
0
  6
CONTINUOUS
 62
     4
 10
219.6197580126829
 20
266.7206543628496
 30
0.0
 11
231.1197580126829
 21
266.7206543628496
 31
0.0
  0
LINE
  5
341
  8
0
  6
CONTINUOUS
 62
     4
 10
219.6197580126829
 20
265.2206543628496
 30
0.0
 11
231.1197580126829
 21
265.2206543628496
 31
0.0
  0
LINE
  5
342
  8
0
  6
CONTINUOUS
 62
     4
 10
219.6197580126829
 20
263.7206543628496
 30
0.0
 11
231.1197580126829
 21
263.7206543628496
 31
0.0
  0
LINE
  5
343
  8
0
  6
CONTINUOUS
 62
     4
 10
219.6197580126829
 20
262.2206543628496
 30
0.0
 11
231.1197580126829
 21
262.2206543628496
 31
0.0
  0
LINE
  5
344
  8
0
  6
CONTINUOUS
 62
     4
 10
219.6197580126829
 20
260.7206543628496
 30
0.0
 11
231.1197580126829
 21
260.7206543628496
 31
0.0
  0
LINE
  5
345
  8
0
  6
CONTINUOUS
 62
     4
 10
255.1197580126829
 20
266.7206543628496
 30
0.0
 11
266.6197580126829
 21
266.7206543628496
 31
0.0
  0
LINE
  5
346
  8
0
  6
CONTINUOUS
 62
     4
 10
255.1197580126829
 20
265.2206543628496
 30
0.0
 11
266.6197580126829
 21
265.2206543628496
 31
0.0
  0
LINE
  5
347
  8
0
  6
CONTINUOUS
 62
     4
 10
255.1197580126829
 20
263.7206543628496
 30
0.0
 11
266.6197580126829
 21
263.7206543628496
 31
0.0
  0
LINE
  5
348
  8
0
  6
CONTINUOUS
 62
     4
 10
255.1197580126829
 20
262.2206543628496
 30
0.0
 11
266.6197580126829
 21
262.2206543628496
 31
0.0
  0
LINE
  5
349
  8
0
  6
CONTINUOUS
 62
     4
 10
255.1197580126829
 20
260.7206543628496
 30
0.0
 11
266.6197580126829
 21
260.7206543628496
 31
0.0
  0
LINE
  5
34A
  8
0
  6
CONTINUOUS
 62
     4
 10
255.1197580126829
 20
169.7206543628496
 30
0.0
 11
266.6197580126829
 21
169.7206543628496
 31
0.0
  0
LINE
  5
34B
  8
0
  6
CONTINUOUS
 62
     4
 10
255.1197580126829
 20
171.2206543628496
 30
0.0
 11
266.6197580126829
 21
171.2206543628496
 31
0.0
  0
LINE
  5
34C
  8
0
  6
CONTINUOUS
 62
     4
 10
255.1197580126829
 20
172.7206543628496
 30
0.0
 11
266.6197580126829
 21
172.7206543628496
 31
0.0
  0
LINE
  5
34D
  8
0
  6
CONTINUOUS
 62
     4
 10
255.1197580126829
 20
174.2206543628496
 30
0.0
 11
266.6197580126829
 21
174.2206543628496
 31
0.0
  0
LINE
  5
34E
  8
0
  6
CONTINUOUS
 62
     4
 10
255.1197580126829
 20
175.7206543628496
 30
0.0
 11
266.6197580126829
 21
175.7206543628496
 31
0.0
  0
LINE
  5
34F
  8
0
  6
CONTINUOUS
 62
     4
 10
219.6197580126829
 20
169.7206543628496
 30
0.0
 11
231.1197580126829
 21
169.7206543628496
 31
0.0
  0
LINE
  5
350
  8
0
  6
CONTINUOUS
 62
     4
 10
219.6197580126829
 20
171.2206543628496
 30
0.0
 11
231.1197580126829
 21
171.2206543628496
 31
0.0
  0
LINE
  5
351
  8
0
  6
CONTINUOUS
 62
     4
 10
219.6197580126829
 20
172.7206543628496
 30
0.0
 11
231.1197580126829
 21
172.7206543628496
 31
0.0
  0
LINE
  5
352
  8
0
  6
CONTINUOUS
 62
     4
 10
219.6197580126829
 20
174.2206543628496
 30
0.0
 11
231.1197580126829
 21
174.2206543628496
 31
0.0
  0
LINE
  5
353
  8
0
  6
CONTINUOUS
 62
     4
 10
219.6197580126829
 20
175.7206543628496
 30
0.0
 11
231.1197580126829
 21
175.7206543628496
 31
0.0
  0
CIRCLE
  5
354
  8
0
  6
CONTINUOUS
 62
     4
 10
243.1197580126829
 20
11.72066199224416
 30
0.0
 40
5.0
  0
ARC
  5
355
  8
0
  6
CONTINUOUS
 62
     4
 10
243.1197580126829
 20
89.72066199224416
 30
0.0
 40
123.0
 50
342.6803802555388
 51
352.0789835157593
  0
ARC
  5
356
  8
0
  6
CONTINUOUS
 62
     4
 10
243.1197580126829
 20
89.72066199224416
 30
0.0
 40
117.0
 50
343.3423621898963
 51
346.7935141973049
  0
ARC
  5
357
  8
0
  6
CONTINUOUS
 62
     4
 10
243.1197580126829
 20
89.72066199224416
 30
0.0
 40
111.0
 50
344.0780384503038
 51
351.8355974086487
  0
ARC
  5
358
  8
0
  6
CONTINUOUS
 62
     4
 10
243.1197580126829
 20
89.72066199224416
 30
0.0
 40
105.0
 50
344.9005947169539
 51
353.6653316627616
  0
ARC
  5
359
  8
0
  6
CONTINUOUS
 62
     4
 10
243.1197580126829
 20
89.72066199224416
 30
0.0
 40
87.0
 50
348.0800110633281
 51
432.2660378717545
  0
ARC
  5
35A
  8
0
  6
CONTINUOUS
 62
     4
 10
243.1197580126829
 20
89.72066199224416
 30
0.0
 40
81.0
 50
349.4712172906484
 51
384.8322882465309
  0
ARC
  5
35B
  8
0
  6
CONTINUOUS
 62
     4
 10
243.1197580126829
 20
89.72066199224416
 30
0.0
 40
75.0
 50
351.1001935020344
 51
384.7021594824638
  0
ARC
  5
35C
  8
0
  6
CONTINUOUS
 62
     4
 10
243.1197580126829
 20
89.72066199224416
 30
0.0
 40
123.0
 50
222.6803581332143
 51
231.8275523753705
  0
ARC
  5
35D
  8
0
  6
CONTINUOUS
 62
     4
 10
243.1197580126829
 20
89.72066199224416
 30
0.0
 40
117.0
 50
223.3423400675719
 51
226.8796130764515
  0
ARC
  5
35E
  8
0
  6
CONTINUOUS
 62
     4
 10
243.1197580126829
 20
89.72066199224416
 30
0.0
 40
111.0
 50
224.078019743074
 51
231.5654233754037
  0
ARC
  5
35F
  8
0
  6
CONTINUOUS
 62
     4
 10
243.1197580126829
 20
89.72066199224416
 30
0.0
 40
105.0
 50
224.9005657644403
 51
233.3020536133928
  0
ARC
  5
360
  8
0
  6
CONTINUOUS
 62
     4
 10
243.1197580126829
 20
89.72066199224416
 30
0.0
 40
99.0
 50
225.8266028121106
 51
314.3276520013378
  0
ARC
  5
361
  8
0
  6
CONTINUOUS
 62
     4
 10
243.1197580126829
 20
89.72066199224416
 30
0.0
 40
93.0
 50
226.8772498309987
 51
313.0581281554021
  0
ARC
  5
362
  8
0
  6
CONTINUOUS
 62
     4
 10
243.1197580126829
 20
89.72066199224416
 30
0.0
 40
87.0
 50
228.0799915023245
 51
270.0000179860894
  0
ARC
  5
363
  8
0
  6
CONTINUOUS
 62
     4
 10
243.1197580126829
 20
89.72066199224416
 30
0.0
 40
81.0
 50
229.4711917532294
 51
265.4398558471087
  0
ARC
  5
364
  8
0
  6
CONTINUOUS
 62
     4
 10
243.1197580126829
 20
89.72066199224416
 30
0.0
 40
75.0
 50
231.1001782098991
 51
265.2608570795301
  0
ARC
  5
365
  8
0
  6
CONTINUOUS
 62
     4
 10
243.1197580126829
 20
89.72066199224416
 30
0.0
 40
123.0
 50
102.441779473925
 51
112.0790192984621
  0
ARC
  5
366
  8
0
  6
CONTINUOUS
 62
     4
 10
243.1197580126829
 20
89.72066199224416
 30
0.0
 40
117.0
 50
103.0908660111297
 51
106.8906026992453
  0
ARC
  5
367
  8
0
  6
CONTINUOUS
 62
     4
 10
243.1197580126829
 20
89.72066199224416
 30
0.0
 40
111.0
 50
103.8121271572938
 51
111.8356255073887
  0
ARC
  5
368
  8
0
  6
CONTINUOUS
 62
     4
 10
243.1197580126829
 20
89.72066199224416
 30
0.0
 40
105.0
 50
104.6184651397597
 51
113.6653580539542
  0
ARC
  5
369
  8
0
  6
CONTINUOUS
 62
     4
 10
243.1197580126829
 20
89.72066199224416
 30
0.0
 40
87.0
 50
107.7339807975801
 51
191.9199418654359
  0
ARC
  5
36A
  8
0
  6
CONTINUOUS
 62
     4
 10
243.1197580126829
 20
89.72066199224416
 30
0.0
 40
81.0
 50
109.096535235106
 51
145.2226898308674
  0
ARC
  5
36B
  8
0
  6
CONTINUOUS
 62
     4
 10
243.1197580126829
 20
89.72066199224416
 30
0.0
 40
75.0
 50
110.6913502553581
 51
144.7126659451642
  0
ARC
  5
36C
  8
0
  6
CONTINUOUS
 62
     4
 10
243.1197580126829
 20
89.72066199224416
 30
0.0
 40
105.0
 50
246.6979055570529
 51
293.8635856252792
  0
ARC
  5
36D
  8
0
  6
CONTINUOUS
 62
     4
 10
243.1197580126829
 20
89.72066199224416
 30
0.0
 40
111.0
 50
248.434535795042
 51
291.5331045899033
  0
ARC
  5
36E
  8
0
  6
CONTINUOUS
 62
     4
 10
243.1197580126829
 20
89.72066199224416
 30
0.0
 40
117.0
 50
253.6526842077159
 51
286.6889363550444
  0
ARC
  5
36F
  8
0
  6
CONTINUOUS
 62
     4
 10
243.1197580126829
 20
89.72066199224416
 30
0.0
 40
123.0
 50
248.1723999648861
 51
291.9379777133342
  0
ARC
  5
370
  8
0
  6
CONTINUOUS
 62
     4
 10
243.1197580126829
 20
89.72066199224416
 30
0.0
 40
105.0
 50
306.6979243021779
 51
315.0994019058467
  0
ARC
  5
371
  8
0
  6
CONTINUOUS
 62
     4
 10
243.1197580126829
 20
89.72066199224416
 30
0.0
 40
111.0
 50
308.434554540167
 51
315.9219581724968
  0
ARC
  5
372
  8
0
  6
CONTINUOUS
 62
     4
 10
243.1197580126829
 20
89.72066199224416
 30
0.0
 40
117.0
 50
313.7143795610461
 51
316.6576344329042
  0
ARC
  5
373
  8
0
  6
CONTINUOUS
 62
     4
 10
243.1197580126829
 20
89.72066199224416
 30
0.0
 40
123.0
 50
308.1724084647274
 51
317.3196197823565
  0
ARC
  5
374
  8
0
  6
CONTINUOUS
 62
     4
 10
243.1197580126829
 20
89.72066199224416
 30
0.0
 40
87.0
 50
270.0000179860894
 51
311.9199898283408
  0
ARC
  5
375
  8
0
  6
CONTINUOUS
 62
     4
 10
243.1197580126829
 20
89.72066199224416
 30
0.0
 40
81.0
 50
274.5601254835567
 51
310.5287827472467
  0
ARC
  5
376
  8
0
  6
CONTINUOUS
 62
     4
 10
243.1197580126829
 20
89.72066199224416
 30
0.0
 40
75.0
 50
274.7391242511352
 51
308.8997928754824
  0
ARC
  5
377
  8
0
  6
CONTINUOUS
 62
     4
 10
243.1197580126829
 20
89.72066199224416
 30
0.0
 40
123.0
 50
67.92100620106174
 51
77.55823919540966
  0
ARC
  5
378
  8
0
  6
CONTINUOUS
 62
     4
 10
243.1197580126829
 20
89.72066199224416
 30
0.0
 40
117.0
 50
73.26954975518031
 51
76.909152658205
  0
ARC
  5
379
  8
0
  6
CONTINUOUS
 62
     4
 10
243.1197580126829
 20
89.72066199224416
 30
0.0
 40
111.0
 50
68.16439999213516
 51
76.18789151204084
  0
ARC
  5
37A
  8
0
  6
CONTINUOUS
 62
     4
 10
243.1197580126829
 20
89.72066199224416
 30
0.0
 40
105.0
 50
66.33465378519126
 51
75.38155352957497
  0
ARC
  5
37B
  8
0
  6
CONTINUOUS
 62
     4
 10
243.1197580126829
 20
89.72066199224416
 30
0.0
 40
93.0
 50
346.8840568924899
 51
433.4443684469868
  0
ARC
  5
37C
  8
0
  6
CONTINUOUS
 62
     4
 10
243.1197580126829
 20
89.72066199224416
 30
0.0
 40
99.0
 50
345.6460483931583
 51
434.473930671907
  0
ARC
  5
37D
  8
0
  6
CONTINUOUS
 62
     4
 10
243.1197580126829
 20
89.72066199224416
 30
0.0
 40
105.0
 50
6.218291305291526
 51
53.66532223335628
  0
ARC
  5
37E
  8
0
  6
CONTINUOUS
 62
     4
 10
243.1197580126829
 20
89.72066199224416
 30
0.0
 40
111.0
 50
8.158378364503323
 51
51.83558968679073
  0
ARC
  5
37F
  8
0
  6
CONTINUOUS
 62
     4
 10
243.1197580126829
 20
89.72066199224416
 30
0.0
 40
117.0
 50
12.3487207646473
 51
46.75225554795459
  0
ARC
  5
380
  8
0
  6
CONTINUOUS
 62
     4
 10
243.1197580126829
 20
89.72066199224416
 30
0.0
 40
123.0
 50
7.710035355873576
 51
52.07897664767496
  0
ARC
  5
381
  8
0
  6
CONTINUOUS
 62
     4
 10
243.1197580126829
 20
89.72066199224416
 30
0.0
 40
105.0
 50
186.334653936772
 51
195.0993849061642
  0
ARC
  5
382
  8
0
  6
CONTINUOUS
 62
     4
 10
243.1197580126829
 20
89.72066199224416
 30
0.0
 40
111.0
 50
188.1643796531484
 51
195.9219445879088
  0
ARC
  5
383
  8
0
  6
CONTINUOUS
 62
     4
 10
243.1197580126829
 20
89.72066199224416
 30
0.0
 40
117.0
 50
193.1894864293101
 51
196.6576106030325
  0
ARC
  5
384
  8
0
  6
CONTINUOUS
 62
     4
 10
243.1197580126829
 20
89.72066199224416
 30
0.0
 40
123.0
 50
187.9209926922641
 51
197.3195925373902
  0
ARC
  5
385
  8
0
  6
CONTINUOUS
 62
     4
 10
243.1197580126829
 20
89.72066199224416
 30
0.0
 40
123.0
 50
127.8754300183824
 51
172.0790073077359
  0
ARC
  5
386
  8
0
  6
CONTINUOUS
 62
     4
 10
243.1197580126829
 20
89.72066199224416
 30
0.0
 40
117.0
 50
132.9317507590511
 51
167.042726342092
  0
ARC
  5
387
  8
0
  6
CONTINUOUS
 62
     4
 10
243.1197580126829
 20
89.72066199224416
 30
0.0
 40
111.0
 50
128.1118228655565
 51
171.8356203468516
  0
ARC
  5
388
  8
0
  6
CONTINUOUS
 62
     4
 10
243.1197580126829
 20
89.72066199224416
 30
0.0
 40
105.0
 50
126.5195418454865
 51
173.665346063228
  0
ARC
  5
389
  8
0
  6
CONTINUOUS
 62
     4
 10
243.1197580126829
 20
89.72066199224416
 30
0.0
 40
99.0
 50
105.5412373570068
 51
194.1733442160281
  0
ARC
  5
38A
  8
0
  6
CONTINUOUS
 62
     4
 10
243.1197580126829
 20
89.72066199224416
 30
0.0
 40
93.0
 50
106.8799680947076
 51
193.1226971971401
  0
CIRCLE
  5
38B
  8
0
  6
CONTINUOUS
 62
     4
 10
310.6697458056516
 20
128.7206467334551
 30
0.0
 40
5.0
  0
CIRCLE
  5
38C
  8
0
  6
CONTINUOUS
 62
     4
 10
175.5697854785032
 20
128.7206848804278
 30
0.0
 40
5.0
  0
ARC
  5
38D
  8
0
  6
CONTINUOUS
 62
     4
 10
243.1197580126829
 20
89.72066199224416
 30
0.0
 40
81.0
 50
155.0957555968775
 51
190.528741614531
  0
ARC
  5
38E
  8
0
  6
CONTINUOUS
 62
     4
 10
243.1197580126829
 20
89.72066199224416
 30
0.0
 40
75.0
 50
155.3261925190954
 51
188.8997688182396
  0
ARC
  5
38F
  8
0
  6
CONTINUOUS
 62
     4
 10
243.1197580126829
 20
89.72066199224416
 30
0.0
 40
75.0
 50
34.82893433274131
 51
69.30866841397656
  0
ARC
  5
390
  8
0
  6
CONTINUOUS
 62
     4
 10
243.1197580126829
 20
89.72066199224416
 30
0.0
 40
81.0
 50
35.06928868963406
 51
70.90348343422869
  0
LINE
  5
391
  8
0
  6
CONTINUOUS
 62
     4
 10
-213.7547079296999
 20
142.2206246956591
 30
0.0
 11
-199.7547079296999
 21
142.2206246956591
 31
0.0
  0
LINE
  5
392
  8
0
  6
CONTINUOUS
 62
     4
 10
-213.7547079296999
 20
137.2206246956591
 30
0.0
 11
-199.7547079296999
 21
137.2206246956591
 31
0.0
  0
LINE
  5
393
  8
0
  6
DASHED2
 62
     7
 10
-189.2342458935671
 20
16.72062469565914
 30
0.0
 11
-189.2342458935671
 21
6.72062469565914
 31
0.0
  0
LINE
  5
394
  8
0
  6
DASHED2
 62
     7
 10
-195.2342458935671
 20
15.72062469565914
 30
0.0
 11
-195.2342458935671
 21
7.72062469565914
 31
0.0
  0
LINE
  5
395
  8
0
  6
DASHED2
 62
     7
 10
-195.2342458935671
 20
7.72062469565914
 30
0.0
 11
-169.2342458935671
 21
7.72062469565914
 31
0.0
  0
LINE
  5
396
  8
0
  6
DASHED2
 62
     7
 10
-195.2342458935671
 20
15.72062469565914
 30
0.0
 11
-169.2342458935671
 21
15.72062469565914
 31
0.0
  0
LINE
  5
397
  8
0
  6
DASHED2
 62
     7
 10
-189.2342458935671
 20
6.72062469565914
 30
0.0
 11
-169.2342458935671
 21
6.72062469565914
 31
0.0
  0
LINE
  5
398
  8
0
  6
DASHED2
 62
     7
 10
-189.2342458935671
 20
16.72062469565914
 30
0.0
 11
-169.2342458935671
 21
16.72062469565914
 31
0.0
  0
LINE
  5
399
  8
0
  6
DASHED2
 62
     7
 10
-197.5436819093273
 20
11.72065030142836
 30
0.0
 11
-195.2342867976002
 21
15.7206394210623
 31
0.0
  0
LINE
  5
39A
  8
0
  6
DASHED2
 62
     7
 10
-197.5436904174815
 20
11.72063161059329
 30
0.0
 11
-195.234287676359
 21
7.720629276460628
 31
0.0
  0
LINE
  5
39B
  8
0
  6
DASHED2
 62
     7
 10
-247.7342458935671
 20
-60.27938293373539
 30
0.0
 11
-235.7342458935671
 21
-60.27938293373539
 31
0.0
  0
LINE
  5
39C
  8
0
  6
DASHED2
 62
     7
 10
-246.7342458935671
 20
-54.27938293373539
 30
0.0
 11
-236.7342458935671
 21
-54.27938293373539
 31
0.0
  0
LINE
  5
39D
  8
0
  6
DASHED2
 62
     7
 10
-246.7342458935671
 20
-54.27938293373539
 30
0.0
 11
-246.7342458935671
 21
-85.27938293373539
 31
0.0
  0
LINE
  5
39E
  8
0
  6
DASHED2
 62
     7
 10
-236.7342458935671
 20
-54.27938293373539
 30
0.0
 11
-236.7342458935671
 21
-85.27938293373539
 31
0.0
  0
LINE
  5
39F
  8
0
  6
DASHED2
 62
     7
 10
-247.7342458935671
 20
-60.27938293373539
 30
0.0
 11
-247.7342458935671
 21
-85.27938293373539
 31
0.0
  0
LINE
  5
3A0
  8
0
  6
DASHED2
 62
     7
 10
-235.7342458935671
 20
-60.27938293373539
 30
0.0
 11
-235.7342458935671
 21
-85.27938293373539
 31
0.0
  0
LINE
  5
3A1
  8
0
  6
DASHED2
 62
     7
 10
-246.7342626392438
 20
-54.27938133559313
 30
0.0
 11
-241.7342659847
 21
-51.39263224007867
 31
0.0
  0
LINE
  5
3A2
  8
0
  6
DASHED2
 62
     7
 10
-241.7342659026847
 20
-51.39268195985072
 30
0.0
 11
-236.7342560336413
 21
-54.27943868475926
 31
0.0
  0
LINE
  5
3A3
  8
0
  6
CENTER
 62
     7
 10
-217.0731893750124
 20
139.7206246956591
 30
0.0
 11
-195.5078359814577
 21
139.7206246956591
 31
0.0
  0
TEXT
  5
3A4
  8
0
 62
     7
 10
-52.54609267104085
 20
105.6407968330941
 30
0.0
 40
8.0
  1
MIN69.5
 50
90.0
 41
0.7999999999999999
  7
FDASTYLE1
 72
     5
 11
-52.54609267104085
 21
150.4407968330941
 31
0.0
  0
TEXT
  5
3A5
  8
0
 62
     7
 10
-285.0640371533327
 20
-145.7292617955532
 30
0.0
 40
8.0
  1
MIN31.1
 41
0.8000000000000002
  7
FDASTYLE1
 72
     5
 11
-240.2640371533327
 21
-145.7292617955532
 31
0.0
  0
TEXT
  5
3A6
  8
0
 62
     7
 10
-342.3586538525515
 20
294.6680352791552
 30
0.0
 40
8.0
  1
MIN-5.9
 41
0.8000000000000002
  7
FDASTYLE1
 72
     5
 11
-297.5586538525515
 21
294.6680352791552
 31
0.0
  0
LINE
  5
3A7
  8
LAYER0014
  6
CONTINUOUS
 62
     7
 10
-289.534264204114
 20
305.3135430916552
 30
0.0
 11
-344.7910251590221
 21
305.3135430916552
 31
0.0
  0
LINE
  5
3A8
  8
LAYER0014
  6
CONTINUOUS
 62
     7
 10
-169.2342458935671
 20
305.6748712166552
 30
0.0
 11
-157.6979452343874
 21
305.6748712166552
 31
0.0
  0
INSERT
  5
3A9
  8
LAYER0014
  6
CONTINUOUS
  2
DA_IMAGEDIMGROUP_1
 10
0.0
 20
0.0
 30
0.0
  0
INSERT
  5
3AA
  8
LAYER0014
  6
CONTINUOUS
  2
DA_IMAGEDIMGROUP_2
 10
0.0
 20
0.0
 30
0.0
  0
INSERT
  5
3AB
  8
LAYER0014
  6
CONTINUOUS
  2
DA_IMAGEDIMGROUP_3
 10
0.0
 20
0.0
 30
0.0
  0
INSERT
  5
3AC
  8
LAYER0014
  6
CONTINUOUS
  2
DA_IMAGEDIMGROUP_4
 10
0.0
 20
0.0
 30
0.0
  0
INSERT
  5
3AD
  8
LAYER0014
  6
CONTINUOUS
  2
DA_IMAGEDIMGROUP_5
 10
0.0
 20
0.0
 30
0.0
  0
INSERT
  5
3AE
  8
LAYER0014
  6
CONTINUOUS
  2
DA_IMAGEDIMGROUP_6
 10
0.0
 20
0.0
 30
0.0
  0
INSERT
  5
3AF
  8
LAYER0014
  6
CONTINUOUS
  2
DA_IMAGEDIMGROUP_7
 10
0.0
 20
0.0
 30
0.0
  0
INSERT
  5
3B0
  8
LAYER0014
  6
CONTINUOUS
  2
DA_IMAGEDIMGROUP_8
 10
0.0
 20
0.0
 30
0.0
  0
INSERT
  5
3B1
  8
LAYER0014
  6
CONTINUOUS
  2
DA_IMAGEDIMGROUP_9
 10
0.0
 20
0.0
 30
0.0
  0
INSERT
  5
3B2
  8
LAYER0014
  6
CONTINUOUS
  2
DA_IMAGEDIMGROUP_10
 10
0.0
 20
0.0
 30
0.0
  0
INSERT
  5
3B3
  8
LAYER0014
  6
CONTINUOUS
  2
DA_IMAGEDIMGROUP_11
 10
0.0
 20
0.0
 30
0.0
  0
INSERT
  5
3B4
  8
LAYER0014
  6
CONTINUOUS
  2
DC_GROUP_1
 10
0.0
 20
0.0
 30
0.0
  0
INSERT
  5
3B5
  8
LAYER0014
  6
CONTINUOUS
  2
DA_IMAGEDIMGROUP_12
 10
0.0
 20
0.0
 30
0.0
  0
INSERT
  5
3B6
  8
LAYER0014
  6
CONTINUOUS
  2
DA_IMAGEDIMGROUP_13
 10
0.0
 20
0.0
 30
0.0
  0
INSERT
  5
3B7
  8
LAYER0014
  6
CONTINUOUS
  2
DC_GROUP_2
 10
0.0
 20
0.0
 30
0.0
  0
INSERT
  5
3B8
  8
LAYER0014
  6
CONTINUOUS
  2
DA_IMAGEDIMGROUP_14
 10
0.0
 20
0.0
 30
0.0
  0
INSERT
  5
3B9
  8
LAYER0014
  6
CONTINUOUS
  2
DA_IMAGEDIMGROUP_15
 10
0.0
 20
0.0
 30
0.0
  0
INSERT
  5
3BA
  8
LAYER0014
  6
CONTINUOUS
  2
DA_IMAGEDIMGROUP_16
 10
0.0
 20
0.0
 30
0.0
  0
INSERT
  5
3BB
  8
LAYER0014
  6
CONTINUOUS
  2
DA_IMAGEDIMGROUP_17
 10
0.0
 20
0.0
 30
0.0
  0
INSERT
  5
3BC
  8
LAYER0014
  6
CONTINUOUS
  2
DA_IMAGEDIMGROUP_18
 10
0.0
 20
0.0
 30
0.0
  0
INSERT
  5
3BD
  8
LAYER0014
  6
CONTINUOUS
  2
DA_IMAGEDIMGROUP_19
 10
0.0
 20
0.0
 30
0.0
  0
INSERT
  5
3BE
  8
LAYER0014
  6
CONTINUOUS
  2
DC_GROUP_3
 10
0.0
 20
0.0
 30
0.0
  0
INSERT
  5
3BF
  8
LAYER0014
  6
CONTINUOUS
  2
DA_IMAGEDIMGROUP_20
 10
0.0
 20
0.0
 30
0.0
  0
INSERT
  5
3C0
  8
LAYER0014
  6
CONTINUOUS
  2
DA_IMAGEDIMGROUP_21
 10
0.0
 20
0.0
 30
0.0
  0
INSERT
  5
3C1
  8
LAYER0014
  6
CONTINUOUS
  2
DC_GROUP_4
 10
0.0
 20
0.0
 30
0.0
  0
INSERT
  5
3C2
  8
LAYER0014
  6
CONTINUOUS
  2
DA_IMAGEDIMGROUP_23
 10
0.0
 20
0.0
 30
0.0
  0
INSERT
  5
3C3
  8
LAYER0014
  6
CONTINUOUS
  2
DC_GROUP_6
 10
0.0
 20
0.0
 30
0.0
  0
INSERT
  5
3C4
  8
LAYER0014
  6
CONTINUOUS
  2
DA_IMAGEDIMGROUP_24
 10
0.0
 20
0.0
 30
0.0
  0
INSERT
  5
3C5
  8
LAYER0014
  6
CONTINUOUS
  2
DA_IMAGEDIMGROUP_25
 10
0.0
 20
0.0
 30
0.0
  0
INSERT
  5
3C6
  8
LAYER0014
  6
CONTINUOUS
  2
DA_IMAGEDIMGROUP_26
 10
0.0
 20
0.0
 30
0.0
  0
INSERT
  5
3C7
  8
LAYER0014
  6
CONTINUOUS
  2
DA_IMAGEDIMGROUP_27
 10
0.0
 20
0.0
 30
0.0
  0
INSERT
  5
3C8
  8
LAYER0014
  6
CONTINUOUS
  2
DC_GROUP_7
 10
0.0
 20
0.0
 30
0.0
  0
LINE
  5
3C9
  8
0
  6
CONTINUOUS
 62
     6
 10
-142.1155935498171
 20
-333.3533830680377
 30
0.0
 11
147.5082620410032
 21
-333.3533830680377
 31
0.0
  0
LINE
  5
3CA
  8
0
  6
CONTINUOUS
 62
     6
 10
-142.1155935498171
 20
-317.3533830680377
 30
0.0
 11
147.5082620410032
 21
-317.3533830680377
 31
0.0
  0
LINE
  5
3CB
  8
0
  6
CONTINUOUS
 62
     6
 10
-142.1155935498171
 20
-301.3533830680377
 30
0.0
 11
147.5082620410032
 21
-301.3533830680377
 31
0.0
  0
LINE
  5
3CC
  8
0
  6
CONTINUOUS
 62
     6
 10
-142.1155935498171
 20
-285.3533830680377
 30
0.0
 11
147.5082620410032
 21
-285.3533830680377
 31
0.0
  0
LINE
  5
3CD
  8
0
  6
CONTINUOUS
 62
     6
 10
-142.1155935498171
 20
-269.3533830680377
 30
0.0
 11
147.5082620410032
 21
-269.3533830680377
 31
0.0
  0
LINE
  5
3CE
  8
0
  6
CONTINUOUS
 62
     6
 10
-142.1155935498171
 20
-253.3533830680377
 30
0.0
 11
147.5082620410032
 21
-253.3533830680377
 31
0.0
  0
LINE
  5
3CF
  8
0
  6
CONTINUOUS
 62
     6
 10
-142.1155935498171
 20
-237.3861029044385
 30
0.0
 11
147.5082620410032
 21
-237.3861029044385
 31
0.0
  0
LINE
  5
3D0
  8
0
  6
CONTINUOUS
 62
     6
 10
-142.1155935498171
 20
-221.3861181632276
 30
0.0
 11
147.5082620410032
 21
-221.3861181632276
 31
0.0
  0
LINE
  5
3D1
  8
0
  6
CONTINUOUS
 62
     6
 10
-142.1155935498171
 20
-205.3861181632276
 30
0.0
 11
-110.1155859204226
 21
-205.3861181632276
 31
0.0
  0
INSERT
  5
3D2
  8
0
  6
CONTINUOUS
  2
DA_IMAGEDIMGROUP_22
 10
0.0
 20
0.0
 30
0.0
  0
INSERT
  5
3D3
  8
0
  6
CONTINUOUS
  2
DC_GROUP_5
 10
0.0
 20
0.0
 30
0.0
  0
INSERT
  5
3D4
  8
0
  6
CONTINUOUS
  2
DA_IMAGEDIMGROUP_28
 10
0.0
 20
0.0
 30
0.0
  0
INSERT
  5
3D5
  8
0
  6
CONTINUOUS
  2
DA_IMAGEDIMGROUP_29
 10
0.0
 20
0.0
 30
0.0
  0
INSERT
  5
3D6
  8
0
  6
CONTINUOUS
  2
DC_GROUP_8
 10
0.0
 20
0.0
 30
0.0
  0
LINE
  5
3D7
  8
0
  6
DASHED
 62
     2
 10
151.1197580126829
 20
238.5863770190996
 30
0.0
 11
151.1197580126829
 21
207.7206543628496
 31
0.0
  0
LINE
  5
3D8
  8
0
  6
DASHED
 62
     2
 10
151.1197580126829
 20
208.7206543628496
 30
0.0
 11
178.978919389636
 21
208.7206543628496
 31
0.0
  0
LINE
  5
3D9
  8
0
  6
DASHED
 62
     2
 10
151.1197580126829
 20
232.7206543628496
 30
0.0
 11
178.978919389636
 21
232.7206543628496
 31
0.0
  0
LINE
  5
3DA
  8
0
  6
DASHED
 62
     2
 10
113.8873971728391
 20
207.7206543628496
 30
0.0
 11
151.1197580126829
 21
207.7206543628496
 31
0.0
  0
LINE
  5
3DB
  8
0
  6
DASHED
 62
     2
 10
139.1197580126829
 20
223.120648259334
 30
0.0
 11
139.1197580126829
 21
218.3206604663653
 31
0.0
  0
LINE
  5
3DC
  8
0
  6
DASHED
 62
     2
 10
141.8197549609251
 20
224.0206574146075
 30
0.0
 11
141.8197549609251
 21
217.4206513110918
 31
0.0
  0
LINE
  5
3DD
  8
0
  6
DASHED
 62
     2
 10
147.558509233386
 20
215.0206574146075
 30
0.0
 11
150.6810067919798
 21
215.0206574146075
 31
0.0
  0
LINE
  5
3DE
  8
0
  6
DASHED
 62
     2
 10
147.558509233386
 20
226.4206513110918
 30
0.0
 11
150.6810067919798
 21
226.4206513110918
 31
0.0
  0
LINE
  5
3DF
  8
0
  6
DASHED
 62
     2
 10
141.8197086302805
 20
217.4205352542878
 30
0.0
 11
139.1197190710297
 21
218.3205316609466
 31
0.0
  0
LINE
  5
3E0
  8
0
  6
DASHED
 62
     2
 10
141.8197787779192
 20
224.0205796914622
 30
0.0
 11
139.1197602671511
 21
223.1205736342988
 31
0.0
  0
LINE
  5
3E1
  8
0
  6
DASHED
 62
     2
 10
142.8197549609251
 20
223.4659851733965
 30
0.0
 11
142.8197549609251
 21
217.9251831714434
 31
0.0
  0
LINE
  5
3E2
  8
0
  6
DASHED
 62
     2
 10
147.1197580126829
 20
225.1706513110918
 30
0.0
 11
147.1197580126829
 21
216.2706574146075
 31
0.0
  0
LINE
  5
3E3
  8
0
  6
DASHED
 62
     2
 10
147.8636544970579
 20
223.6143158618731
 30
0.0
 11
150.3758615283079
 21
223.6143158618731
 31
0.0
  0
LINE
  5
3E4
  8
0
  6
DASHED
 62
     2
 10
147.8636544970579
 20
217.8269928638262
 30
0.0
 11
150.3758615283079
 21
217.8269928638262
 31
0.0
  0
LINE
  5
3E5
  8
0
  6
DASHED
 62
     2
 10
151.1197785314762
 20
224.8706780646016
 30
0.0
 11
158.1197804549756
 21
224.7484925830615
 31
0.0
  0
LINE
  5
3E6
  8
0
  6
DASHED
 62
     2
 10
151.1197558715037
 20
216.5707112998001
 30
0.0
 11
158.1197577950031
 21
216.6928967813401
 31
0.0
  0
LINE
  5
3E7
  8
0
  6
DASHED
 62
     2
 10
151.1197535593834
 20
217.3708361860583
 30
0.0
 11
158.1197554828828
 21
217.4930216675983
 31
0.0
  0
LINE
  5
3E8
  8
0
  6
DASHED
 62
     2
 10
151.1197609628906
 20
224.070553444646
 30
0.0
 11
158.1197781428553
 21
223.9483676968033
 31
0.0
  0
ARC
  5
3E9
  8
0
  6
DASHED
 62
     2
 10
141.8197549609251
 20
220.7206543628496
 30
0.0
 40
3.299999952316284
 50
73.48282241201396
 51
89.99998201391065
  0
ARC
  5
3EA
  8
0
  6
DASHED
 62
     2
 10
141.8197549609251
 20
220.7206543628496
 30
0.0
 40
3.299999952316284
 50
270.0000179860894
 51
286.5171775879861
  0
ARC
  5
3EB
  8
0
  6
DASHED
 62
     2
 10
149.1197580126829
 20
225.1706513110918
 30
0.0
 40
2.0
 50
0.0
 51
38.68218896809859
  0
ARC
  5
3EC
  8
0
  6
DASHED
 62
     2
 10
149.1197580126829
 20
216.2706574146075
 30
0.0
 40
2.0
 50
0.0
 51
51.09316519948327
  0
ARC
  5
3ED
  8
0
  6
DASHED
 62
     2
 10
145.1197580126829
 20
220.7206543628496
 30
0.0
 40
6.0
 50
0.0
 51
28.83423780766662
  0
ARC
  5
3EE
  8
0
  6
DASHED
 62
     2
 10
153.1197580126829
 20
220.7206543628496
 30
0.0
 40
6.0
 50
151.1657740314789
 51
208.8342086656771
  0
ARC
  5
3EF
  8
0
  6
DASHED
 62
     2
 10
145.1197580126829
 20
220.7206543628496
 30
0.0
 40
6.0
 50
331.1657621923334
 51
360.0
  0
ARC
  5
3F0
  8
0
  6
DASHED
 62
     2
 10
149.1197580126829
 20
225.1706513110918
 30
0.0
 40
2.0
 50
308.9068348005167
 51
360.0
  0
ARC
  5
3F1
  8
0
  6
DASHED
 62
     2
 10
149.1197580126829
 20
225.1706513110918
 30
0.0
 40
2.0
 50
141.3178297012361
 51
231.0931121518317
  0
ARC
  5
3F2
  8
0
  6
DASHED
 62
     2
 10
149.1197580126829
 20
216.2706574146075
 30
0.0
 40
2.0
 50
128.906856884946
 51
218.6821529959199
  0
ARC
  5
3F3
  8
0
  6
DASHED
 62
     2
 10
149.1197580126829
 20
216.2706574146075
 30
0.0
 40
2.0
 50
321.3178110319014
 51
360.0
  0
ARC
  5
3F4
  8
0
  6
DASHED
 62
     2
 10
143.1529611376829
 20
229.5206574146075
 30
0.0
 40
5.650000095367432
 50
265.9910930942637
 51
315.0592540539054
  0
ARC
  5
3F5
  8
0
  6
DASHED
 62
     2
 10
143.1529611376829
 20
211.9206513110918
 30
0.0
 40
5.650000095367432
 50
44.94074594609464
 51
94.00890690573628
  0
ARC
  5
3F6
  8
0
  6
DASHED
 62
     2
 10
139.8197549609251
 20
220.7206543628496
 30
0.0
 40
1.5
 50
117.818154050457
 51
242.1818423070773
  0
LINE
  5
3F7
  8
0
  6
CONTINUOUS
 62
     2
 10
175.8086412270658
 20
-7.065734118654135
 30
0.0
 11
184.3823028596952
 21
-2.115732786493325
 31
0.0
  0
LINE
  5
3F8
  8
0
  6
CONTINUOUS
 62
     2
 10
184.3822999872174
 20
-2.1156305764883
 30
0.0
 11
192.9559436846595
 21
-7.065631655329824
 31
0.0
  0
LINE
  5
3F9
  8
0
  6
CONTINUOUS
 62
     2
 10
192.9559091357298
 20
-7.065676813908183
 30
0.0
 11
192.9559091357298
 21
-16.96567833978709
 31
0.0
  0
LINE
  5
3FA
  8
0
  6
CONTINUOUS
 62
     2
 10
192.9559400783566
 20
-16.96575432650509
 30
0.0
 11
184.3822934304864
 21
-21.91575009457604
 31
0.0
  0
LINE
  5
3FB
  8
0
  6
CONTINUOUS
 62
     2
 10
184.3822581324709
 20
-21.91566931920609
 30
0.0
 11
175.8086126647719
 21
-16.96567119079266
 31
0.0
  0
LINE
  5
3FC
  8
0
  6
CONTINUOUS
 62
     2
 10
175.8086007861204
 20
-16.96567071039256
 30
0.0
 11
175.8086007861204
 21
-7.065669184513652
 31
0.0
  0
LINE
  5
3FD
  8
0
  6
CONTINUOUS
 62
     2
 10
105.2918008964056
 20
18.29568481728681
 30
0.0
 11
112.3499135040196
 21
22.3706780506681
 31
0.0
  0
LINE
  5
3FE
  8
0
  6
CONTINUOUS
 62
     2
 10
112.3499418544613
 20
22.37067958972004
 30
0.0
 11
119.4080376534946
 21
18.29567195437305
 31
0.0
  0
LINE
  5
3FF
  8
0
  6
CONTINUOUS
 62
     2
 10
119.4080270556516
 20
18.29565512578908
 30
0.0
 11
119.4080270556516
 21
10.14565741460744
 31
0.0
  0
LINE
  5
400
  8
0
  6
CONTINUOUS
 62
     2
 10
119.4079634706265
 20
10.14573868728319
 30
0.0
 11
112.3498574702659
 21
6.070749025703364
 31
0.0
  0
LINE
  5
401
  8
0
  6
CONTINUOUS
 62
     2
 10
112.3499058390091
 20
6.070659898998812
 30
0.0
 11
105.2918010038422
 21
10.14566649127362
 31
0.0
  0
LINE
  5
402
  8
0
  6
CONTINUOUS
 62
     2
 10
105.2918161181516
 20
10.1456726733965
 30
0.0
 11
105.2918161181516
 21
18.29567038457815
 31
0.0
  0
LINE
  5
403
  8
0
  6
CONTINUOUS
 62
     2
 10
144.2629369896017
 20
40.79569610107471
 30
0.0
 11
151.3210429899622
 21
44.87068551976579
 31
0.0
  0
LINE
  5
404
  8
0
  6
CONTINUOUS
 62
     2
 10
151.3210890374541
 20
44.87069059289358
 30
0.0
 11
158.3791848364874
 21
40.79568295754659
 31
0.0
  0
LINE
  5
405
  8
0
  6
CONTINUOUS
 62
     2
 10
158.3791726855345
 20
40.79565512578908
 30
0.0
 11
158.3791726855345
 21
32.64565741460744
 31
0.0
  0
LINE
  5
406
  8
0
  6
CONTINUOUS
 62
     2
 10
158.3791033785112
 20
32.64574470492214
 30
0.0
 11
151.3209973781506
 21
28.57075504334232
 31
0.0
  0
LINE
  5
407
  8
0
  6
CONTINUOUS
 62
     2
 10
151.3210202178981
 20
28.57065246932022
 30
0.0
 11
144.2629219899774
 21
32.6456552468923
 31
0.0
  0
LINE
  5
408
  8
0
  6
CONTINUOUS
 62
     2
 10
144.2629464892454
 20
32.64567076604787
 30
0.0
 11
144.2629464892454
 21
40.79567038457815
 31
0.0
  0
LINE
  5
409
  8
0
  6
CONTINUOUS
 62
     2
 10
327.860371638422
 20
40.79571817038293
 30
0.0
 11
334.9184776387826
 21
44.870707589074
 31
0.0
  0
LINE
  5
40A
  8
0
  6
CONTINUOUS
 62
     2
 10
334.9184642008769
 20
44.87075590106512
 30
0.0
 11
341.9765864288858
 21
40.79573300688905
 31
0.0
  0
LINE
  5
40B
  8
0
  6
CONTINUOUS
 62
     2
 10
341.9765695361204
 20
40.79563986700002
 30
0.0
 11
341.9765695361204
 21
32.64564215581838
 31
0.0
  0
LINE
  5
40C
  8
0
  6
CONTINUOUS
 62
     2
 10
341.9765140603078
 20
32.64581776357834
 30
0.0
 11
334.9184080599472
 21
28.57082810199852
 31
0.0
  0
LINE
  5
40D
  8
0
  6
CONTINUOUS
 62
     2
 10
334.9184116133658
 20
28.57060606119255
 30
0.0
 11
327.8602869564604
 21
32.64562409757552
 31
0.0
  0
LINE
  5
40E
  8
0
  6
CONTINUOUS
 62
     2
 10
327.8603585986204
 20
32.64565550725881
 30
0.0
 11
327.8603585986204
 21
40.79565512578908
 31
0.0
  0
LINE
  5
40F
  8
0
  6
CONTINUOUS
 62
     2
 10
366.8315181833861
 20
18.29569021196373
 30
0.0
 11
373.8896506127605
 21
22.37069488941567
 31
0.0
  0
LINE
  5
410
  8
0
  6
CONTINUOUS
 62
     2
 10
373.8896314318392
 20
22.37073449158895
 30
0.0
 11
380.9477536598481
 21
18.29571159741288
 31
0.0
  0
LINE
  5
411
  8
0
  6
CONTINUOUS
 62
     2
 10
380.9477304247923
 20
18.29563986700002
 30
0.0
 11
380.9477304247923
 21
10.14564215581838
 31
0.0
  0
LINE
  5
412
  8
0
  6
CONTINUOUS
 62
     2
 10
380.9476159904172
 20
10.14586976275375
 30
0.0
 11
373.8894835610428
 21
6.070864842412149
 31
0.0
  0
LINE
  5
413
  8
0
  6
CONTINUOUS
 62
     2
 10
373.8896186843305
 20
6.070596215032012
 30
0.0
 11
366.8314940274251
 21
10.14561425141498
 31
0.0
  0
LINE
  5
414
  8
0
  6
CONTINUOUS
 62
     2
 10
366.8315194872923
 20
10.14565741460744
 30
0.0
 11
366.8315194872923
 21
18.29565512578908
 31
0.0
  0
LINE
  5
415
  8
0
  6
CONTINUOUS
 62
     2
 10
236.0616364823222
 20
244.7956527808044
 30
0.0
 11
243.1197689116966
 21
248.8706574582563
 31
0.0
  0
LINE
  5
416
  8
0
  6
CONTINUOUS
 62
     2
 10
243.1198118564818
 20
248.8707163188234
 30
0.0
 11
250.1779010482712
 21
244.7957124981837
 31
0.0
  0
LINE
  5
417
  8
0
  6
CONTINUOUS
 62
     2
 10
250.1778634814329
 20
244.7956513110918
 30
0.0
 11
250.1778634814329
 21
236.6456421558184
 31
0.0
  0
LINE
  5
418
  8
0
  6
CONTINUOUS
 62
     2
 10
250.1778749939719
 20
236.6456361582356
 30
0.0
 11
243.1197425645975
 21
232.570631237894
 31
0.0
  0
LINE
  5
419
  8
0
  6
CONTINUOUS
 62
     2
 10
243.1197320003486
 20
232.5706482133034
 30
0.0
 11
236.0616337724279
 21
236.6456509908755
 31
0.0
  0
LINE
  5
41A
  8
0
  6
CONTINUOUS
 62
     2
 10
236.0616525439329
 20
236.6456574146075
 30
0.0
 11
236.0616525439329
 21
244.7956513110918
 31
0.0
  0
LINE
  5
41B
  8
0
  6
CONTINUOUS
 62
     2
 10
236.0616269069666
 20
199.7956482266779
 30
0.0
 11
243.119759336341
 21
203.8706529041298
 31
0.0
  0
LINE
  5
41C
  8
0
  6
CONTINUOUS
 62
     2
 10
243.1197969608781
 20
203.8706996760881
 30
0.0
 11
250.1778861526674
 21
199.7956958554484
 31
0.0
  0
LINE
  5
41D
  8
0
  6
CONTINUOUS
 62
     2
 10
250.1778634814329
 20
199.7956513110918
 30
0.0
 11
250.1778634814329
 21
191.6456421558184
 31
0.0
  0
LINE
  5
41E
  8
0
  6
CONTINUOUS
 62
     2
 10
250.1778868101894
 20
191.6456569291065
 30
0.0
 11
243.119754380815
 21
187.5706520087649
 31
0.0
  0
LINE
  5
41F
  8
0
  6
CONTINUOUS
 62
     2
 10
243.1196966995269
 20
187.5705919534818
 30
0.0
 11
236.0615984716062
 21
191.6455947310539
 31
0.0
  0
LINE
  5
420
  8
0
  6
CONTINUOUS
 62
     2
 10
236.0616525439329
 20
191.6456574146075
 30
0.0
 11
236.0616525439329
 21
199.7956513110918
 31
0.0
  0
CIRCLE
  5
421
  8
0
  6
CONTINUOUS
 62
     2
 10
184.3822549609251
 20
-12.01567376215037
 30
0.0
 40
15.0
  0
CIRCLE
  5
422
  8
0
  6
CONTINUOUS
 62
     2
 10
112.3499215869016
 20
14.22066580694143
 30
0.0
 40
12.0
  0
CIRCLE
  5
423
  8
0
  6
CONTINUOUS
 62
     2
 10
151.3210519579954
 20
36.72066580694143
 30
0.0
 40
12.0
  0
CIRCLE
  5
424
  8
0
  6
CONTINUOUS
 62
     2
 10
334.9184640673704
 20
36.72065054815236
 30
0.0
 40
12.0
  0
CIRCLE
  5
425
  8
0
  6
CONTINUOUS
 62
     2
 10
373.8896249560423
 20
14.22065054815236
 30
0.0
 40
12.0
  0
CIRCLE
  5
426
  8
0
  6
CONTINUOUS
 62
     2
 10
243.1197580126829
 20
240.7206543628496
 30
0.0
 40
12.0
  0
CIRCLE
  5
427
  8
0
  6
CONTINUOUS
 62
     2
 10
243.1197580126829
 20
195.7206543628496
 30
0.0
 40
12.0
  0
TEXT
  5
428
  8
0
 62
     5
 10
178.0033452538557
 20
-54.77933800775584
 30
0.0
 40
3.0
  1
F MAX   40KN
 41
0.7991006890253235
  7
FDASTYLE1
 72
     5
 11
214.6216684011526
 21
-54.77933800775584
 31
0.0
  0
TEXT
  5
429
  8
0
 62
     5
 10
178.0033452538557
 20
-59.77933037836131
 30
0.0
 40
3.0
  1
ΣS MAX  76KN
 41
0.8042452708183775
  7
FDASTYLE1
 72
     5
 11
214.6216684011526
 21
-59.77933037836131
 31
0.0
  0
TEXT
  5
42A
  8
0
 62
     5
 10
178.0033452538557
 20
-64.77934563715037
 30
0.0
 40
3.0
  1
N MAX 2000 AT ΣS MAX
 41
0.8037156568657713
  7
FDASTYLE1
 72
     5
 11
239.6293030408926
 21
-64.77934563715037
 31
0.0
  0
TEXT
  5
42B
  8
0
 62
     5
 10
202.7626134184904
 20
-43.77933800775584
 30
0.0
 40
8.0
  1
NIKKO
 41
0.7674421662250793
  7
FDASTYLE1
 72
     5
 11
240.4769064215727
 21
-43.77933800775584
 31
0.0
  0
TEXT
  5
42C
  8
0
 62
     5
 10
250.6911553172178
 20
-41.77933800775584
 30
0.0
 40
4.0
  1
 MO3-14
 41
0.7704920544480066
  7
FDASTYLE1
 72
     5
 11
277.5483011035032
 21
-41.77933800775584
 31
0.0
  0
TEXT
  5
42D
  8
0
 62
     5
 10
251.0482984808988
 20
-48.77933800775584
 30
0.0
 40
3.0
  1
 0001
 41
0.7674420500137306
  7
FDASTYLE1
 72
     5
 11
265.1911560324735
 21
-48.77933800775584
 31
0.0
  0
VIEWPORT
  5
48
 67
     1
  8
0
 10
0.0
 20
0.0
 30
0.0
 40
3324.0
 41
2280.0
 68
     1
 69
     1
1001
ACAD
1000
MVIEW
1002
{
1070
    16
1010
0.0
1020
0.0
1030
0.0
1020
0.0
1030
0.0
1010
0.0
1020
0.0
1030
1.0
1020
0.0
1030
1.0
1040
0.0
1040
2280.0
1040
0.0
1040
0.0
1040
50.0
1040
0.0
1040
0.0
1070
     0
1070
   100
1070
     0
1070
     1
1070
     0
1070
     0
1070
     0
1070
     0
1040
0.0
1040
0.0
1040
0.0
1040
0.5
1040
0.5
1040
0.0
1040
0.0
1070
     0
1002
{
1002
}
1002
}
  0
ENDSEC
  0
EOF
