  0
SECTION
  2
HEADER
  9
$ACADVER
  1
AC1009
  9
$DWGCODEPAGE
  3
ansi_932
  9
$INSBASE
 10
0.0
 20
0.0
 30
0.0
  9
$EXTMIN
 10
-576.0
 20
-415.4999999999998
 30
0.0
  9
$EXTMAX
 10
576.0
 20
415.4999999999998
 30
0.0
  9
$LIMMIN
 10
-210.0
 20
-148.5
  9
$LIMMAX
 10
210.0
 20
148.5
  9
$ORTHOMODE
 70
     0
  9
$REGENMODE
 70
     1
  9
$FILLMODE
 70
     1
  9
$QTEXTMODE
 70
     0
  9
$MIRRTEXT
 70
     1
  9
$DRAGMODE
 70
     2
  9
$LTSCALE
 40
1.0
  9
$OSMODE
 70
    37
  9
$ATTMODE
 70
     1
  9
$TEXTSIZE
 40
0.2
  9
$TRACEWID
 40
0.05
  9
$TEXTSTYLE
  7
STANDARD
  9
$CLAYER
  8
0
  9
$CELTYPE
  6
BYLAYER
  9
$CECOLOR
 62
   256
  9
$DIMSCALE
 40
1.0
  9
$DIMASZ
 40
2.5
  9
$DIMEXO
 40
0.0625
  9
$DIMDLI
 40
0.38
  9
$DIMRND
 40
0.0
  9
$DIMDLE
 40
0.0
  9
$DIMEXE
 40
0.18
  9
$DIMTP
 40
0.0
  9
$DIMTM
 40
0.0
  9
$DIMTXT
 40
0.18
  9
$DIMCEN
 40
0.09
  9
$DIMTSZ
 40
0.0
  9
$DIMTOL
 70
     0
  9
$DIMLIM
 70
     0
  9
$DIMTIH
 70
     1
  9
$DIMTOH
 70
     1
  9
$DIMSE1
 70
     0
  9
$DIMSE2
 70
     0
  9
$DIMTAD
 70
     3
  9
$DIMZIN
 70
     0
  9
$DIMBLK
  1

  9
$DIMASO
 70
     1
  9
$DIMSHO
 70
     1
  9
$DIMPOST
  1

  9
$DIMAPOST
  1

  9
$DIMALT
 70
     0
  9
$DIMALTD
 70
     2
  9
$DIMALTF
 40
25.4
  9
$DIMLFAC
 40
1.0
  9
$DIMTOFL
 70
     0
  9
$DIMTVP
 40
0.0
  9
$DIMTIX
 70
     0
  9
$DIMSOXD
 70
     0
  9
$DIMSAH
 70
     0
  9
$DIMBLK1
  1

  9
$DIMBLK2
  1

  9
$DIMSTYLE
  2
STANDARD
  9
$DIMCLRD
 70
     0
  9
$DIMCLRE
 70
     0
  9
$DIMCLRT
 70
     0
  9
$DIMTFAC
 40
1.0
  9
$DIMGAP
 40
0.09
  9
$LUNITS
 70
     2
  9
$LUPREC
 70
     4
  9
$SKETCHINC
 40
0.1
  9
$FILLETRAD
 40
0.5
  9
$AUNITS
 70
     0
  9
$AUPREC
 70
     0
  9
$MENU
  1
.
  9
$ELEVATION
 40
0.0
  9
$PELEVATION
 40
0.0
  9
$THICKNESS
 40
0.0
  9
$LIMCHECK
 70
     0
  9
$CHAMFERA
 40
0.5
  9
$CHAMFERB
 40
0.5
  9
$SKPOLY
 70
     0
  9
$TDCREATE
 40
2456272.673638762
  9
$TDUPDATE
 40
2456272.673638773
  9
$TDINDWG
 40
0.0000000116
  9
$TDUSRTIMER
 40
0.0000000116
  9
$USRTIMER
 70
     1
  9
$ANGBASE
 50
0.0
  9
$ANGDIR
 70
     0
  9
$PDMODE
 70
     0
  9
$PDSIZE
 40
1.0
  9
$PLINEWID
 40
0.0
  9
$COORDS
 70
     1
  9
$SPLFRAME
 70
     0
  9
$SPLINETYPE
 70
     6
  9
$SPLINESEGS
 70
     8
  9
$ATTDIA
 70
     0
  9
$ATTREQ
 70
     1
  9
$HANDLING
 70
     1
  9
$HANDSEED
  5
3D7
  9
$SURFTAB1
 70
     6
  9
$SURFTAB2
 70
     6
  9
$SURFTYPE
 70
     6
  9
$SURFU
 70
     6
  9
$SURFV
 70
     6
  9
$UCSNAME
  2

  9
$UCSORG
 10
0.0
 20
0.0
 30
0.0
  9
$UCSXDIR
 10
1.0
 20
0.0
 30
0.0
  9
$UCSYDIR
 10
0.0
 20
1.0
 30
0.0
  9
$PUCSNAME
  2

  9
$PUCSORG
 10
0.0
 20
0.0
 30
0.0
  9
$PUCSXDIR
 10
1.0
 20
0.0
 30
0.0
  9
$PUCSYDIR
 10
0.0
 20
1.0
 30
0.0
  9
$USERI1
 70
     0
  9
$USERI2
 70
     0
  9
$USERI3
 70
     0
  9
$USERI4
 70
     0
  9
$USERI5
 70
     0
  9
$USERR1
 40
0.0
  9
$USERR2
 40
0.0
  9
$USERR3
 40
0.0
  9
$USERR4
 40
0.0
  9
$USERR5
 40
0.0
  9
$WORLDVIEW
 70
     1
  9
$SHADEDGE
 70
     3
  9
$SHADEDIF
 70
    70
  9
$TILEMODE
 70
     1
  9
$MAXACTVP
 70
    64
  9
$PLIMCHECK
 70
     0
  9
$PEXTMIN
 10
1.000000000000000E+20
 20
1.000000000000000E+20
 30
1.000000000000000E+20
  9
$PEXTMAX
 10
-1.000000000000000E+20
 20
-1.000000000000000E+20
 30
-1.000000000000000E+20
  9
$PLIMMIN
 10
0.0
 20
0.0
  9
$PLIMMAX
 10
12.0
 20
9.0
  9
$UNITMODE
 70
     0
  9
$VISRETAIN
 70
     0
  9
$PLINEGEN
 70
     1
  9
$PSLTSCALE
 70
     0
  0
ENDSEC
  0
SECTION
  2
TABLES
  0
TABLE
  2
VPORT
 70
     1
  0
VPORT
  2
*ACTIVE
 70
     0
 10
0.0
 20
0.0
 11
1.0
 21
1.0
 12
0.0
 22
0.0
 13
0.0
 23
0.0
 14
0.5
 24
0.5
 15
0.5
 25
0.5
 16
0.0
 26
0.0
 36
1.0
 17
-0.0000000000000036
 27
0.0
 37
0.0
 40
282.5399999999999
 41
1.386281588447654
 42
50.0
 43
0.0
 44
0.0
 50
0.0
 51
0.0
 71
     0
 72
  1000
 73
     1
 74
     1
 75
     0
 76
     0
 77
     0
 78
     0
  0
ENDTAB
  0
TABLE
  2
LTYPE
 70
    28
  0
LTYPE
  2
CONTINUOUS
 70
     0
  3
Solid line
 72
    65
 73
     0
 40
0.0
  0
LTYPE
  2
HIDDENX2
 70
     0
  3
CADPAC LINETYPE
 72
    65
 73
     2
 40
11.49110807113544
 49
8.618331053351582
 49
-2.872777017783861
  0
LTYPE
  2
HIDDEN
 70
     0
  3
CADPAC LINETYPE
 72
    65
 73
     2
 40
8.618331053351582
 49
5.745554035567722
 49
-2.872777017783861
  0
LTYPE
  2
HIDDEN2
 70
     0
  3
CADPAC LINETYPE
 72
    65
 73
     2
 40
7.181942544459652
 49
4.309165526675791
 49
-2.872777017783861
  0
LTYPE
  2
DASHED
 70
     0
  3
CADPAC LINETYPE
 72
    65
 73
     2
 40
8.04377564979481
 49
5.745554035567722
 49
-2.298221614227089
  0
LTYPE
  2
DASHED2
 70
     0
  3
CADPAC LINETYPE
 72
    65
 73
     2
 40
5.170998632010935
 49
3.447332421340633
 49
-1.723666210670302
  0
LTYPE
  2
DASHEDX2
 70
     0
  3
CADPAC LINETYPE
 72
    65
 73
     2
 40
13.7893296853625
 49
11.49110807113542
 49
-2.298221614227089
  0
LTYPE
  2
DOTX2
 70
     0
  3
CADPAC LINETYPE
 72
    65
 73
     2
 40
5.027359781121739
 49
0.0
 49
-5.027359781121739
  0
LTYPE
  2
DOT
 70
     0
  3
CADPAC LINETYPE
 72
    65
 73
     2
 40
4.021887824897391
 49
0.0
 49
-4.021887824897391
  0
LTYPE
  2
DOT2
 70
     0
  3
CADPAC LINETYPE
 72
    65
 73
     2
 40
3.016415868673043
 49
0.0
 49
-3.016415868673043
  0
LTYPE
  2
CENTERX2
 70
     0
  3
CADPAC LINETYPE
 72
    65
 73
     4
 40
17.23666210670316
 49
7.181942544459652
 49
-3.590971272229826
 49
2.872777017783861
 49
-3.590971272229826
  0
LTYPE
  2
CENTER
 70
     0
  3
CADPAC LINETYPE
 72
    65
 73
     4
 40
13.21477428180576
 49
5.745554035567722
 49
-2.872777017783861
 49
1.723666210670316
 49
-2.872777017783861
  0
LTYPE
  2
CENTER2
 70
     0
  3
CADPAC LINETYPE
 72
    65
 73
     4
 40
9.192886456908354
 49
4.309165526675791
 49
-2.154582763337896
 49
0.5745554035567722
 49
-2.154582763337896
  0
LTYPE
  2
DASHDOTX2
 70
     0
  3
CADPAC LINETYPE
 72
    65
 73
     4
 40
27.57865937072504
 49
13.7893296853625
 49
-4.596443228454177
 49
4.596443228454177
 49
-4.596443228454177
  0
LTYPE
  2
DASHDOT
 70
     0
  3
CADPAC LINETYPE
 72
    65
 73
     4
 40
13.78932968536253
 49
6.894664842681266
 49
-2.298221614227089
 49
2.298221614227089
 49
-2.298221614227089
  0
LTYPE
  2
DASHDOT2
 70
     0
  3
CADPAC LINETYPE
 72
    65
 73
     4
 40
8.848153214774291
 49
5.170998632010949
 49
-1.723666210670316
 49
0.2298221614227089
 49
-1.723666210670316
  0
LTYPE
  2
DIVIDEX2
 70
     0
  3
CADPAC LINETYPE
 72
    65
 73
     6
 40
36.77154582763339
 49
13.7893296853625
 49
-4.596443228454177
 49
4.596443228454177
 49
-4.596443228454177
 49
4.596443228454177
 49
-4.596443228454177
  0
LTYPE
  2
DIVIDE
 70
     0
  3
CADPAC LINETYPE
 72
    65
 73
     6
 40
18.38577291381671
 49
6.894664842681266
 49
-2.298221614227089
 49
2.298221614227089
 49
-2.298221614227089
 49
2.298221614227089
 49
-2.298221614227089
  0
LTYPE
  2
DIVIDE2
 70
     0
  3
CADPAC LINETYPE
 72
    65
 73
     6
 40
13.78932968536253
 49
5.170998632010949
 49
-1.723666210670316
 49
1.723666210670316
 49
-1.723666210670316
 49
1.723666210670316
 49
-1.723666210670316
  0
LTYPE
  2
BORDERX2
 70
     0
  3
CADPAC LINETYPE
 72
    65
 73
     6
 40
25.13679890560878
 49
7.181942544459652
 49
-3.590971272229826
 49
7.181942544459652
 49
-3.590971272229826
 49
0.0
 49
-3.590971272229826
  0
LTYPE
  2
BORDER
 70
     0
  3
CADPAC LINETYPE
 72
    65
 73
     6
 40
20.10943912448703
 49
5.745554035567722
 49
-2.872777017783861
 49
5.745554035567722
 49
-2.872777017783861
 49
0.0
 49
-2.872777017783861
  0
LTYPE
  2
BORDER2
 70
     0
  3
CADPAC LINETYPE
 72
    65
 73
     6
 40
14.93844049247603
 49
4.596443228454177
 49
-2.872777017783847
 49
1.723666210670302
 49
-2.872777017783847
 49
0.0
 49
-2.872777017783861
  0
LTYPE
  2
PHANTOMX2
 70
     0
  3
CADPAC LINETYPE
 72
    65
 73
     6
 40
21.54582763337896
 49
7.181942544459652
 49
-2.872777017783861
 49
2.872777017783861
 49
-2.872777017783861
 49
2.872777017783861
 49
-2.872777017783861
  0
LTYPE
  2
PHANTOM
 70
     0
  3
CADPAC LINETYPE
 72
    65
 73
     6
 40
17.81121751025994
 49
5.745554035567722
 49
-2.872777017783861
 49
1.723666210670316
 49
-2.872777017783861
 49
1.723666210670316
 49
-2.872777017783861
  0
LTYPE
  2
PHANTOM2
 70
     0
  3
CADPAC LINETYPE
 72
    65
 73
     6
 40
15.22571819425446
 49
4.309165526675791
 49
-2.872777017783861
 49
1.149110807113544
 49
-2.872777017783861
 49
1.149110807113544
 49
-2.872777017783861
  0
LTYPE
  2
ACAD_ISO06W100
 70
     0
  3
CADPAC LINETYPE
 72
    65
 73
     8
 40
30.4514363885088
 49
13.7893296853625
 49
-2.872777017783847
 49
1.723666210670302
 49
-2.872777017783847
 49
1.723666210670302
 49
-2.872777017783847
 49
1.723666210670302
 49
-2.872777017783847
  0
LTYPE
  2
ACAD_ISO13W100
 70
     0
  3
CADPAC LINETYPE
 72
    65
 73
     8
 40
22.98221614227089
 49
5.745554035567722
 49
-2.872777017783861
 49
5.745554035567722
 49
-2.872777017783861
 49
0.0
 49
-2.872777017783861
 49
0.0
 49
-2.872777017783861
  0
LTYPE
  2
ACAD_ISO14W100
 70
     0
  3
CADPAC LINETYPE
 72
    65
 73
     8
 40
17.23666210670316
 49
5.745554035567722
 49
-2.872777017783861
 49
0.0
 49
-2.872777017783861
 49
0.0
 49
-2.872777017783861
 49
0.0
 49
-2.872777017783861
  0
ENDTAB
  0
TABLE
  2
LAYER
 70
     3
  0
LAYER
  2
0
 70
     0
 62
     7
  6
CONTINUOUS
  0
LAYER
  2
LAYER0014
 70
     0
 62
     7
  6
CONTINUOUS
  0
LAYER
  2
ZUWAKU
 70
     0
 62
     7
  6
CONTINUOUS
  0
ENDTAB
  0
TABLE
  2
STYLE
 70
     5
  0
STYLE
  2
STANDARD
 70
     0
 40
0.0
 41
1.0
 50
0.0
 71
     0
 42
0.2
  3
txt
  4

  0
STYLE
  2
FDASTYLE1
 70
     0
 40
0.0
 41
0.8791213035583487
 50
0.0
 71
     0
 42
0.2
  3
txt.shx
  4
bigfont
  0
STYLE
  2
FDASTYLE0
 70
     4
 40
0.0
 41
0.8
 50
0.0
 71
     0
 42
0.2
  3
txt.shx
  4
bigfont
  0
STYLE
  2
FDASTYLE2
 70
     0
 40
0.0
 41
0.8123476848090983
 50
0.0
 71
     0
 42
0.2
  3
MSMINCHO.TTC
  4

  0
STYLE
  2
FDASTYLE3
 70
     0
 40
0.0
 41
0.77
 50
0.0
 71
     0
 42
0.2
  3
MSGOTHIC.TTC
  4

  0
ENDTAB
  0
TABLE
  2
VIEW
 70
     0
  0
ENDTAB
  0
TABLE
  2
UCS
 70
     0
  0
ENDTAB
  0
TABLE
  2
APPID
 70
     2
  0
APPID
  2
ACAD
 70
     0
  0
APPID
  2
DAFUSIONOUT
 70
     0
  0
ENDTAB
  0
TABLE
  2
DIMSTYLE
 70
     1
  0
DIMSTYLE
  2
STANDARD
 70
     0
  3

  4

  5

  6

  7

 40
1.0
 41
0.18
 42
0.0625
 43
0.38
 44
0.18
 45
0.0
 46
0.0
 47
0.0
 48
0.0
140
0.18
141
0.09
142
0.0
143
25.4
144
1.0
145
0.0
146
1.0
147
0.09
 71
     0
 72
     0
 73
     1
 74
     1
 75
     0
 76
     0
 77
     0
 78
     0
170
     0
171
     2
172
     0
173
     0
174
     0
175
     0
176
     0
177
     0
178
     0
  0
ENDTAB
  0
ENDSEC
  0
SECTION
  2
BLOCKS
  0
BLOCK
  8
0
  2
$MODEL_SPACE
 70
     0
 10
0.0
 20
0.0
 30
0.0
  3
$MODEL_SPACE
  1

  0
ENDBLK
  5
21
  8
0
  0
BLOCK
 67
     1
  8
0
  2
$PAPER_SPACE
 70
     0
 10
0.0
 20
0.0
 30
0.0
  3
$PAPER_SPACE
  1

  0
ENDBLK
  5
1D
 67
     1
  8
0
  0
BLOCK
  8
0
  2
DC_GROUP_1
 70
     0
 10
0.0
 20
0.0
 30
0.0
  3
DC_GROUP_1
  1

  0
LINE
  5
B8
  8
0
  6
CONTINUOUS
 62
     5
 10
123.7753735967795
 20
69.16607690361619
 30
0.0
 11
126.0253755190281
 21
65.26895716465302
 31
0.0
  0
LINE
  5
B9
  8
0
  6
CONTINUOUS
 62
     5
 10
124.7998646719178
 20
68.89157993318574
 30
0.0
 11
123.7753519017122
 21
69.16609741905816
 31
0.0
  0
LINE
  5
BA
  8
0
  6
CONTINUOUS
 62
     5
 10
123.5008970095406
 20
68.14153731964086
 30
0.0
 11
123.7754182719574
 21
69.16606487498549
 31
0.0
  0
LINE
  5
BB
  8
0
  6
CONTINUOUS
 62
     5
 10
126.0254534125028
 20
65.26892936777887
 30
0.0
 11
126.2999746749196
 21
66.2934569231235
 31
0.0
  0
LINE
  5
BC
  8
0
  6
CONTINUOUS
 62
     5
 10
126.0253640236488
 20
65.26898677696826
 30
0.0
 11
125.000836514585
 21
65.5435082121075
 31
0.0
  0
LINE
  5
BD
  8
0
  6
CONTINUOUS
 62
     5
 10
116.9051572202189
 20
66.06559707433647
 30
0.0
 11
129.8955398319705
 21
73.56559394509262
 31
0.0
  0
LINE
  5
BE
  8
0
  6
CONTINUOUS
 62
     5
 10
122.2612973689736
 20
75.54005740057423
 30
0.0
 11
121.4945865853397
 21
74.91918749785233
 31
0.0
  0
LINE
  5
BF
  8
0
  6
CONTINUOUS
 62
     5
 10
122.2613166885363
 20
75.54007579290834
 30
0.0
 11
121.6404562651053
 21
76.30677457910363
 31
0.0
  0
LINE
  5
C0
  8
0
  6
CONTINUOUS
 62
     5
 10
129.8955458431746
 20
73.56559879217116
 30
0.0
 11
126.1455469309595
 21
80.06079092395322
 31
0.0
  0
LINE
  5
C1
  8
0
  6
CONTINUOUS
 62
     5
 10
113.155161654421
 20
72.5607815026016
 30
0.0
 11
126.1455442661726
 21
80.06077837335775
 31
0.0
  0
LINE
  5
C2
  8
0
  6
CONTINUOUS
 62
     5
 10
116.9051570074757
 20
66.06559172077076
 30
0.0
 11
111.2801598312455
 21
75.80837785367814
 31
0.0
  0
LINE
  5
C3
  8
0
  6
CONTINUOUS
 62
     5
 10
111.2801613085234
 20
75.80837815598042
 30
0.0
 11
113.2287187002862
 21
76.93337768659384
 31
0.0
  0
LINE
  5
C4
  8
0
  6
CONTINUOUS
 62
     5
 10
113.7912297773289
 20
75.95909561067009
 30
0.0
 11
113.2287338267179
 21
76.93336769930119
 31
0.0
  0
LINE
  5
C5
  8
0
  6
CONTINUOUS
 62
     5
 10
113.7912187040113
 20
75.95909857775934
 30
0.0
 11
115.0902569651865
 21
76.70909826483495
 31
0.0
  0
LINE
  5
C6
  8
0
  6
CONTINUOUS
 62
     5
 10
115.6527485820812
 20
75.73481651628038
 30
0.0
 11
115.0902488167745
 21
76.70909521216174
 31
0.0
  0
LINE
  5
C7
  8
0
  6
CONTINUOUS
 62
     5
 10
115.6527749517818
 20
75.73481852632895
 30
0.0
 11
116.951813212957
 21
76.48481821340457
 31
0.0
  0
LINE
  5
C8
  8
0
  6
CONTINUOUS
 62
     5
 10
117.7017818686382
 20
75.18577552605413
 30
0.0
 11
116.9517823007718
 21
76.48481358075273
 31
0.0
  0
LINE
  5
C9
  8
0
  6
CONTINUOUS
 62
     5
 10
117.8257435262127
 20
77.97117119230342
 30
0.0
 11
118.1002647886295
 21
78.99569874764805
 31
0.0
  0
LINE
  5
CA
  8
0
  6
CONTINUOUS
 62
     5
 10
115.5371147316405
 20
77.51587477188187
 30
0.0
 11
118.1002257000774
 21
78.99568678490815
 31
0.0
  0
LINE
  5
CB
  8
0
  6
CONTINUOUS
 62
     5
 10
118.1002214344751
 20
78.99571615854526
 30
0.0
 11
117.0757086642695
 21
79.27023364441769
 31
0.0
  0
ARC
  5
CC
  8
0
  6
CONTINUOUS
 62
     5
 10
121.5819019375188
 20
73.00449137955863
 30
0.0
 40
2.625001907348633
 50
75.00008446424582
 51
369.9999367173826
  0
TEXT
  5
CE
  8
0
 62
     5
 10
123.7493301351877
 20
65.45138141176253
 30
0.0
 40
2.5
  1
F
 50
119.9999866787419
 41
0.8791213035583487
  7
FDASTYLE1
 72
     5
 11
122.6504289482691
 21
67.35473512198095
 31
0.0
  0
TEXT
  5
CF
  8
0
 62
     5
 10
126.364079830955
 20
75.96071874831661
 30
0.0
 40
2.5
  1
N min
 50
119.9999866787419
 41
0.7983872809842197
  7
FDASTYLE1
 72
     5
 11
120.1765823226707
 21
86.67778455874134
 31
0.0
  0
TEXT
  5
D0
  8
0
 62
     5
 10
118.3548066155758
 20
86.27550041074838
 30
0.0
 40
1.25
  1
-1
 50
119.9999866787419
 41
0.7826089106345572
  7
FDASTYLE1
 72
     5
 11
117.2298069345046
 21
88.22405806311176
 31
0.0
  0
TEXT
  5
D1
  8
0
 62
     5
 10
117.0945613055819
 20
80.38267933090666
 30
0.0
 40
2.5
  1
ΣS
 50
119.9999866787419
 41
0.9590411728078661
  7
FDASTYLE1
 72
     5
 11
114.4571991424304
 21
84.95072704819057
 31
0.0
  0
ENDBLK
  5
4E
  8
0
  0
BLOCK
  8
0
  2
DA_IMAGEDIMGROUP_1
 70
     0
 10
0.0
 20
0.0
 30
0.0
  3
DA_IMAGEDIMGROUP_1
  1

  0
LINE
  5
D2
  8
LAYER0014
  6
CONTINUOUS
 62
     7
 10
163.3432764492375
 20
33.416017105877
 30
0.0
 11
167.7824329433781
 21
33.416017105877
 31
0.0
  0
LINE
  5
D3
  8
LAYER0014
  6
CONTINUOUS
 62
     7
 10
137.3543793145179
 20
61.32614676357515
 30
0.0
 11
157.229306798046
 21
72.80088929121891
 31
0.0
  0
ARC
  5
D4
  8
LAYER0014
  6
CONTINUOUS
 62
     7
 10
89.01268807033125
 20
33.41603236466606
 30
0.0
 40
77.76973724365234
 50
359.9999887582982
 51
389.9999871744477
  0
INSERT
  5
DB
  8
LAYER0014
 62
     7
  2
_OPEN30
 10
166.7824253139821
 20
33.41601710587734
 30
0.0
 41
1.50000139391263
 42
1.499998500689492
 50
271.4064851111797
  0
INSERT
  5
DC
  8
LAYER0014
 62
     7
  2
_OPEN30
 10
156.3632648732779
 20
72.30088591019347
 30
0.0
 41
1.50000139391263
 42
1.499998500689492
 50
118.5934908215667
  0
TEXT
  5
DD
  8
LAYER0014
 62
     7
 10
164.4356347288313
 20
58.59485981327154
 30
0.0
 40
4.0
  1
30ﾟ
 50
-74.99999999999997
 41
0.800000000000002
  7
FDASTYLE1
 72
     5
 11
166.9202975618155
 21
49.32197188089646
 31
0.0
  0
ENDBLK
  5
51
  8
0
  0
BLOCK
  8
0
  2
DA_IMAGEDIMGROUP_2
 70
     0
 10
0.0
 20
0.0
 30
0.0
  3
DA_IMAGEDIMGROUP_2
  1

  0
LINE
  5
DE
  8
LAYER0014
  6
CONTINUOUS
 62
     7
 10
153.8583453693189
 20
-4.022536879662362
 30
0.0
 11
157.2293048624154
 21
-5.968762481292309
 31
0.0
  0
LINE
  5
DF
  8
LAYER0014
  6
CONTINUOUS
 62
     7
 10
163.3432773683343
 20
33.41602717851182
 30
0.0
 11
167.7824338624959
 21
33.41604520848516
 31
0.0
  0
ARC
  5
E0
  8
LAYER0014
  6
CONTINUOUS
 62
     7
 10
89.01281014064375
 20
33.41603236466606
 30
0.0
 40
77.76961517333984
 50
330.0000094104577
 51
360.0000066497848
  0
INSERT
  5
E1
  8
LAYER0014
 62
     7
  2
_OPEN30
 10
156.3632789098706
 20
-5.468764160129638
 30
0.0
 41
1.50000139391263
 42
1.499998500689492
 50
240.5525628584779
  0
INSERT
  5
E2
  8
LAYER0014
 62
     7
  2
_OPEN30
 10
166.7824253139831
 20
33.41604139065736
 30
0.0
 41
1.50000139391263
 42
1.499998500689492
 50
89.44745320176389
  0
TEXT
  5
E3
  8
LAYER0014
 62
     7
 10
161.3446873434954
 20
9.065452563269506
 30
0.0
 40
4.0
  1
30ﾟ
 50
75.0
 41
0.800000000000002
  7
FDASTYLE1
 72
     5
 11
163.8293501764796
 21
18.33834049564458
 31
0.0
  0
ENDBLK
  5
54
  8
0
  0
BLOCK
  8
0
  2
DA_IMAGEDIMGROUP_3
 70
     0
 10
0.0
 20
0.0
 30
0.0
  3
DA_IMAGEDIMGROUP_3
  1

  0
LINE
  5
E4
  8
LAYER0014
  6
CONTINUOUS
 62
     7
 10
23.77128359792521
 20
11.33738865664385
 30
0.0
 11
5.049344726638074
 21
0.5282734037664802
 31
0.0
  0
LINE
  5
E5
  8
LAYER0014
  6
CONTINUOUS
 62
     7
 10
26.81502586056843
 20
-18.08222211460955
 30
0.0
 11
18.54934461115403
 21
-22.85441488175351
 31
0.0
  0
LINE
  5
E6
  8
LAYER0014
  6
CONTINUOUS
 62
     7
 10
5.915385433271686
 20
1.028246944964895
 30
0.0
 11
19.41538436411339
 21
-22.35443968874264
 31
0.0
  0
INSERT
  5
E7
  8
LAYER0014
 62
     7
  2
_OPEN30
 10
5.915385433271686
 20
1.028246944964895
 30
0.0
 41
1.50000139391263
 42
1.499998500689492
 50
119.9999972589655
  0
INSERT
  5
E8
  8
LAYER0014
 62
     7
  2
_OPEN30
 10
19.41538436411339
 20
-22.35443968874264
 30
0.0
 41
1.50000139391263
 42
1.499998500689492
 50
299.9999972589655
  0
TEXT
  5
E9
  8
LAYER0014
 62
     7
 10
12.45102532588343
 20
-7.091814847023176
 30
0.0
 40
4.0
  1
27
 50
-59.99999999999999
 41
0.7999999999999998
  7
FDASTYLE1
 72
     5
 11
15.65102532588343
 21
-12.63437743124358
 31
0.0
  0
ENDBLK
  5
57
  8
0
  0
BLOCK
  8
0
  2
DC_GROUP_2
 70
     0
 10
0.0
 20
0.0
 30
0.0
  3
DC_GROUP_2
  1

  0
LINE
  5
EA
  8
LAYER0014
  6
CONTINUOUS
 62
     7
 10
90.43759701627073
 20
1.825406383257338
 30
0.0
 11
116.3901084303363
 21
-47.23810001705672
 31
0.0
  0
INSERT
  5
EB
  8
LAYER0014
 62
     7
  2
_OPEN30
 10
90.43759701627073
 20
1.825406383257338
 30
0.0
 41
1.50000139391263
 42
1.499998500689492
 50
117.8769392393152
  0
LINE
  5
EC
  8
LAYER0014
  6
CONTINUOUS
 62
     7
 10
116.3901065883977
 20
-47.23810047835152
 30
0.0
 11
161.5610269182935
 21
-47.23810047835152
 31
0.0
  0
TEXT
  5
ED
  8
LAYER0014
 62
     7
 10
118.3748096523625
 20
-45.63811192244332
 30
0.0
 40
4.0
  1
3-M5×11 PCD58
 41
0.7878787878787879
  7
FDASTYLE1
 72
     5
 11
159.9748096523625
 21
-45.63811192244332
 31
0.0
  0
ENDBLK
  5
5A
  8
0
  0
BLOCK
  8
0
  2
DC_GROUP_3
 70
     0
 10
0.0
 20
0.0
 30
0.0
  3
DC_GROUP_3
  1

  0
LINE
  5
EE
  8
LAYER0014
  6
CONTINUOUS
 62
     7
 10
85.70173630746444
 20
-15.98142769119342
 30
0.0
 11
72.63076357561818
 21
-47.23810082497996
 31
0.0
  0
INSERT
  5
EF
  8
LAYER0014
 62
     7
  2
_OPEN30
 10
85.70173630746444
 20
-15.98142769119342
 30
0.0
 41
1.50000139391263
 42
1.499998500689492
 50
67.30620453933895
  0
LINE
  5
F0
  8
LAYER0014
  6
CONTINUOUS
 62
     7
 10
72.63076058009688
 20
-47.23810047835152
 30
0.0
 11
45.31003920675141
 21
-47.23810047835152
 31
0.0
  0
TEXT
  5
F1
  8
LAYER0014
 62
     7
 10
46.46246224025312
 20
-45.63811192244332
 30
0.0
 40
4.0
  1
PCD82.55
 41
0.8
  7
FDASTYLE1
 72
     5
 11
72.06246224025313
 21
-45.63811192244332
 31
0.0
  0
ENDBLK
  5
5D
  8
0
  0
BLOCK
  8
0
  2
DA_IMAGEDIMGROUP_4
 70
     0
 10
0.0
 20
0.0
 30
0.0
  3
DA_IMAGEDIMGROUP_4
  1

  0
LINE
  5
F2
  8
LAYER0014
  6
CONTINUOUS
 62
     7
 10
-105.6631761874812
 20
46.06612821483994
 30
0.0
 11
-133.1346202792781
 21
46.06612821483994
 31
0.0
  0
LINE
  5
F3
  8
LAYER0014
  6
CONTINUOUS
 62
     7
 10
-105.6631761874812
 20
20.7661060895958
 30
0.0
 11
-133.1346202792781
 21
20.7661060895958
 31
0.0
  0
LINE
  5
F4
  8
LAYER0014
  6
CONTINUOUS
 62
     7
 10
-132.1346202792781
 20
46.06611295605088
 30
0.0
 11
-132.1346202792781
 21
20.76610990429307
 31
0.0
  0
INSERT
  5
F5
  8
LAYER0014
 62
     7
  2
_OPEN30
 10
-132.1346202792781
 20
46.06611295605088
 30
0.0
 41
1.50000139391263
 42
1.499998500689492
 50
90.0
  0
INSERT
  5
F6
  8
LAYER0014
 62
     7
  2
_OPEN30
 10
-132.1346202792781
 20
20.76610990429307
 30
0.0
 41
1.50000139391263
 42
1.499998500689492
 50
270.0
  0
TEXT
  5
F7
  8
LAYER0014
 62
     7
 10
-133.7346202792781
 20
22.21611138248826
 30
0.0
 40
4.0
  1
φ25.3
 50
90.0
 41
0.7692307692307692
  7
FDASTYLE1
 72
     5
 11
-133.7346202792781
 21
38.21611138248826
 31
0.0
  0
TEXT
  5
F8
  8
LAYER0014
 62
     7
 10
-135.9346202792781
 20
39.21611138248826
 30
0.0
 40
2.2
  1
+0.3
 50
90.0
 41
0.7999999999999991
  7
FDASTYLE1
 72
     5
 11
-135.9346202792781
 21
46.25611138248825
 31
0.0
  0
TEXT
  5
F9
  8
LAYER0014
 62
     7
 10
-133.5346202792781
 20
39.21611138248826
 30
0.0
 40
2.2
  1
 0
 50
90.0
 41
0.8000000000000023
  7
FDASTYLE1
 72
     5
 11
-133.5346202792781
 21
42.73611138248827
 31
0.0
  0
ENDBLK
  5
60
  8
0
  0
BLOCK
  8
0
  2
DA_IMAGEDIMGROUP_5
 70
     0
 10
0.0
 20
0.0
 30
0.0
  3
DA_IMAGEDIMGROUP_5
  1

  0
LINE
  5
FA
  8
LAYER0014
  6
CONTINUOUS
 62
     7
 10
-116.1631761874812
 20
56.41610380077744
 30
0.0
 11
-151.1346202792781
 21
56.41610380077744
 31
0.0
  0
LINE
  5
FB
  8
LAYER0014
  6
CONTINUOUS
 62
     7
 10
-112.8273302402156
 20
10.41611524486924
 30
0.0
 11
-151.1346202792781
 21
10.41611524486924
 31
0.0
  0
LINE
  5
FC
  8
LAYER0014
  6
CONTINUOUS
 62
     7
 10
-150.1346202792781
 20
56.41611143017197
 30
0.0
 11
-150.1346202792781
 21
10.41611143017197
 31
0.0
  0
INSERT
  5
FD
  8
LAYER0014
 62
     7
  2
_OPEN30
 10
-150.1346202792781
 20
56.41611143017197
 30
0.0
 41
1.50000139391263
 42
1.499998500689492
 50
90.0
  0
INSERT
  5
FE
  8
LAYER0014
 62
     7
  2
_OPEN30
 10
-150.1346202792781
 20
10.41611143017197
 30
0.0
 41
1.50000139391263
 42
1.499998500689492
 50
270.0
  0
TEXT
  5
FF
  8
LAYER0014
 62
     7
 10
-151.1346202792781
 20
25.41611143017197
 30
0.0
 40
4.0
  1
φ46H7
 50
90.0
 41
0.7692307692307692
  7
FDASTYLE1
 72
     5
 11
-151.1346202792781
 21
41.41611143017197
 31
0.0
  0
ENDBLK
  5
63
  8
0
  0
BLOCK
  8
0
  2
DA_IMAGEDIMGROUP_6
 70
     0
 10
0.0
 20
0.0
 30
0.0
  3
DA_IMAGEDIMGROUP_6
  1

  0
LINE
  5
100
  8
LAYER0014
  6
CONTINUOUS
 62
     7
 10
-86.16317618748124
 20
51.41610380077744
 30
0.0
 11
-142.1346202792781
 21
51.41610380077744
 31
0.0
  0
LINE
  5
101
  8
LAYER0014
  6
CONTINUOUS
 62
     7
 10
-86.16317618748124
 20
15.41611524486924
 30
0.0
 11
-142.1346202792781
 21
15.41611524486924
 31
0.0
  0
LINE
  5
102
  8
LAYER0014
  6
CONTINUOUS
 62
     7
 10
-141.1346202792781
 20
51.41611143017197
 30
0.0
 11
-141.1346202792781
 21
15.41611143017197
 31
0.0
  0
INSERT
  5
103
  8
LAYER0014
 62
     7
  2
_OPEN30
 10
-141.1346202792781
 20
51.41611143017197
 30
0.0
 41
1.50000139391263
 42
1.499998500689492
 50
90.0
  0
INSERT
  5
104
  8
LAYER0014
 62
     7
  2
_OPEN30
 10
-141.1346202792781
 20
15.41611143017197
 30
0.0
 41
1.50000139391263
 42
1.499998500689492
 50
270.0
  0
TEXT
  5
105
  8
LAYER0014
 62
     7
 10
-142.1346202792781
 20
25.41611143017197
 30
0.0
 40
4.0
  1
φ36H7
 50
90.0
 41
0.7692307692307692
  7
FDASTYLE1
 72
     5
 11
-142.1346202792781
 21
41.41611143017197
 31
0.0
  0
ENDBLK
  5
66
  8
0
  0
BLOCK
  8
0
  2
DA_IMAGEDIMGROUP_7
 70
     0
 10
0.0
 20
0.0
 30
0.0
  3
DA_IMAGEDIMGROUP_7
  1

  0
LINE
  5
106
  8
LAYER0014
  6
CONTINUOUS
 62
     7
 10
-117.0273424472469
 20
88.41610380077744
 30
0.0
 11
-160.1346202792781
 21
88.41610380077744
 31
0.0
  0
LINE
  5
107
  8
LAYER0014
  6
CONTINUOUS
 62
     7
 10
-117.0273424472469
 20
-21.58388284778213
 30
0.0
 11
-160.1346202792781
 21
-21.58388284778213
 31
0.0
  0
LINE
  5
108
  8
LAYER0014
  6
CONTINUOUS
 62
     7
 10
-159.1346202792781
 20
88.41611143017197
 30
0.0
 11
-159.1346202792781
 21
-21.58388666247939
 31
0.0
  0
INSERT
  5
109
  8
LAYER0014
 62
     7
  2
_OPEN30
 10
-159.1346202792781
 20
88.41611143017197
 30
0.0
 41
1.50000139391263
 42
1.499998500689492
 50
90.0
  0
INSERT
  5
10A
  8
LAYER0014
 62
     7
  2
_OPEN30
 10
-159.1346202792781
 20
-21.58388666247939
 30
0.0
 41
1.50000139391263
 42
1.499998500689492
 50
270.0
  0
TEXT
  5
10B
  8
LAYER0014
 62
     7
 10
-160.1346202792781
 20
23.81611238384629
 30
0.0
 40
4.0
  1
φ110H7
 50
90.0
 41
0.7741935483870963
  7
FDASTYLE1
 72
     5
 11
-160.1346202792781
 21
43.01611238384628
 31
0.0
  0
ENDBLK
  5
69
  8
0
  0
BLOCK
  8
0
  2
DA_IMAGEDIMGROUP_8
 70
     0
 10
0.0
 20
0.0
 30
0.0
  3
DA_IMAGEDIMGROUP_8
  1

  0
LINE
  5
10C
  8
LAYER0014
  6
CONTINUOUS
 62
     7
 10
-117.0273424472469
 20
98.41610380077744
 30
0.0
 11
-169.1346202792781
 21
98.41610380077744
 31
0.0
  0
LINE
  5
10D
  8
LAYER0014
  6
CONTINUOUS
 62
     7
 10
-116.1561679237068
 20
-31.58388284778213
 30
0.0
 11
-169.1346202792781
 21
-31.58388284778213
 31
0.0
  0
LINE
  5
10E
  8
LAYER0014
  6
CONTINUOUS
 62
     7
 10
-168.1346202792781
 20
98.41611143017197
 30
0.0
 11
-168.1346202792781
 21
-31.58388666247939
 31
0.0
  0
INSERT
  5
10F
  8
LAYER0014
 62
     7
  2
_OPEN30
 10
-168.1346202792781
 20
98.41611143017197
 30
0.0
 41
1.50000139391263
 42
1.499998500689492
 50
90.0
  0
INSERT
  5
110
  8
LAYER0014
 62
     7
  2
_OPEN30
 10
-168.1346202792781
 20
-31.58388666247939
 30
0.0
 41
1.50000139391263
 42
1.499998500689492
 50
270.0
  0
TEXT
  5
111
  8
LAYER0014
 62
     7
 10
-169.1346202792781
 20
27.01611238384628
 30
0.0
 40
4.0
  1
φ130
 50
90.0
 41
0.7619047619047625
  7
FDASTYLE1
 72
     5
 11
-169.1346202792781
 21
39.81611238384629
 31
0.0
  0
ENDBLK
  5
6C
  8
0
  0
BLOCK
  8
0
  2
DA_IMAGEDIMGROUP_9
 70
     0
 10
0.0
 20
0.0
 30
0.0
  3
DA_IMAGEDIMGROUP_9
  1

  0
LINE
  5
112
  8
LAYER0014
  6
CONTINUOUS
 62
     7
 10
-110.2873302402156
 20
-44.75574063902428
 30
0.0
 11
-83.62317618748125
 21
-44.75574063902428
 31
0.0
  0
INSERT
  5
113
  8
LAYER0014
 62
     7
  2
_OPEN30
 10
-110.2873302402156
 20
-44.75574063902428
 30
0.0
 41
1.50000139391263
 42
1.499998500689492
 50
180.0
  0
INSERT
  5
114
  8
LAYER0014
 62
     7
  2
_OPEN30
 10
-83.62317618748125
 20
-44.75574063902428
 30
0.0
 41
1.50000139391263
 42
1.499998500689492
 50
360.0
  0
LINE
  5
115
  8
LAYER0014
  6
CONTINUOUS
 62
     7
 10
-110.2873302402156
 20
-24.12388666247939
 30
0.0
 11
-110.2873302402156
 21
-45.75574063902428
 31
0.0
  0
LINE
  5
116
  8
LAYER0014
  6
CONTINUOUS
 62
     7
 10
-83.62317618748125
 20
12.87611143017197
 30
0.0
 11
-83.62317618748125
 21
-45.75574063902428
 31
0.0
  0
TEXT
  5
117
  8
LAYER0014
 62
     7
 10
-108.1552532138484
 20
-43.75574063902428
 30
0.0
 40
4.0
  1
MAX36.7
 41
0.8000000000000002
  7
FDASTYLE1
 72
     5
 11
-85.75525321384843
 21
-43.75574063902428
 31
0.0
  0
ENDBLK
  5
6F
  8
0
  0
BLOCK
  8
0
  2
DA_IMAGEDIMGROUP_10
 70
     0
 10
0.0
 20
0.0
 30
0.0
  3
DA_IMAGEDIMGROUP_10
  1

  0
LINE
  5
118
  8
LAYER0014
  6
CONTINUOUS
 62
     7
 10
-114.4873119296688
 20
-33.02673753034378
 30
0.0
 11
-114.4873119296688
 21
-60.68381075000381
 31
0.0
  0
LINE
  5
119
  8
LAYER0014
  6
CONTINUOUS
 62
     7
 10
-110.2873302402156
 20
-24.12388666247939
 30
0.0
 11
-110.2873302402156
 21
-60.68381075000381
 31
0.0
  0
LINE
  5
11A
  8
LAYER0014
  6
CONTINUOUS
 62
     7
 10
-114.4873119296688
 20
-59.68381075000381
 30
0.0
 11
-110.2873302402156
 21
-59.68381075000381
 31
0.0
  0
LINE
  5
11B
  8
LAYER0014
  6
CONTINUOUS
 62
     7
 10
-129.898318796612
 20
-59.68381075000381
 30
0.0
 11
-114.4873119296688
 21
-59.68381075000381
 31
0.0
  0
INSERT
  5
11C
  8
LAYER0014
 62
     7
  2
_OPEN30
 10
-114.4873119296688
 20
-59.68381075000381
 30
0.0
 41
1.50000139391263
 42
1.499998500689492
 50
360.0
  0
LINE
  5
11D
  8
LAYER0014
  6
CONTINUOUS
 62
     7
 10
-105.2873302402156
 20
-59.68381075000381
 30
0.0
 11
-110.2873302402156
 21
-59.68381075000381
 31
0.0
  0
INSERT
  5
11E
  8
LAYER0014
 62
     7
  2
_OPEN30
 10
-110.2873302402156
 20
-59.68381075000381
 30
0.0
 41
1.50000139391263
 42
1.499998500689492
 50
180.0
  0
TEXT
  5
11F
  8
LAYER0014
 62
     7
 10
-128.898318796612
 20
-58.68381075000381
 30
0.0
 40
4.0
  1
4.2
 41
0.7999999999999995
  7
FDASTYLE1
 72
     5
 11
-119.298318796612
 21
-58.68381075000381
 31
0.0
  0
ENDBLK
  5
72
  8
0
  0
BLOCK
  8
0
  2
DA_IMAGEDIMGROUP_11
 70
     0
 10
0.0
 20
0.0
 30
0.0
  3
DA_IMAGEDIMGROUP_11
  1

  0
LINE
  5
120
  8
LAYER0014
  6
CONTINUOUS
 62
     7
 10
-110.2873302402156
 20
-24.12388666247939
 30
0.0
 11
-110.2873302402156
 21
-60.68381075000381
 31
0.0
  0
LINE
  5
121
  8
LAYER0014
  6
CONTINUOUS
 62
     7
 10
-51.48731192966874
 20
-32.62388666247939
 30
0.0
 11
-51.48731192966874
 21
-60.68381075000381
 31
0.0
  0
LINE
  5
122
  8
LAYER0014
  6
CONTINUOUS
 62
     7
 10
-110.2873302402156
 20
-59.68381075000381
 30
0.0
 11
-51.48731192966874
 21
-59.68381075000381
 31
0.0
  0
INSERT
  5
123
  8
LAYER0014
 62
     7
  2
_OPEN30
 10
-110.2873302402156
 20
-59.68381075000381
 30
0.0
 41
1.50000139391263
 42
1.499998500689492
 50
180.0
  0
INSERT
  5
124
  8
LAYER0014
 62
     7
  2
_OPEN30
 10
-51.48731192966874
 20
-59.68381075000381
 30
0.0
 41
1.50000139391263
 42
1.499998500689492
 50
360.0
  0
TEXT
  5
125
  8
LAYER0014
 62
     7
 10
-87.28732108494219
 20
-58.68381075000381
 30
0.0
 40
4.0
  1
58.8
 41
0.8000000000000007
  7
FDASTYLE1
 72
     5
 11
-74.48732108494218
 21
-58.68381075000381
 31
0.0
  0
ENDBLK
  5
75
  8
0
  0
BLOCK
  8
0
  2
DA_IMAGEDIMGROUP_12
 70
     0
 10
0.0
 20
0.0
 30
0.0
  3
DA_IMAGEDIMGROUP_12
  1

  0
LINE
  5
126
  8
LAYER0014
  6
CONTINUOUS
 62
     7
 10
-128.9913689649661
 20
-2.858892003055566
 30
0.0
 11
-137.1346202792781
 21
-2.858892003055566
 31
0.0
  0
LINE
  5
127
  8
LAYER0014
  6
CONTINUOUS
 62
     7
 10
-128.9913689649661
 20
-12.85889200305557
 30
0.0
 11
-137.1346202792781
 21
-12.85889200305557
 31
0.0
  0
LINE
  5
128
  8
LAYER0014
  6
CONTINUOUS
 62
     7
 10
-136.1346202792781
 20
-2.8588881883583
 30
0.0
 11
-136.1346202792781
 21
-12.8588881883583
 31
0.0
  0
INSERT
  5
129
  8
LAYER0014
 62
     7
  2
_OPEN30
 10
-136.1346202792781
 20
-2.8588881883583
 30
0.0
 41
1.50000139391263
 42
1.499998500689492
 50
90.0
  0
INSERT
  5
12A
  8
LAYER0014
 62
     7
  2
_OPEN30
 10
-136.1346202792781
 20
-12.8588881883583
 30
0.0
 41
1.50000139391263
 42
1.499998500689492
 50
270.0
  0
TEXT
  5
12B
  8
LAYER0014
 62
     7
 10
-137.7346202792781
 20
-12.65888818835831
 30
0.0
 40
4.0
  1
M10
 50
90.0
 41
0.8000000000000019
  7
FDASTYLE1
 72
     5
 11
-137.7346202792781
 21
-3.058888188358289
 31
0.0
  0
ENDBLK
  5
78
  8
0
  0
BLOCK
  8
0
  2
DA_IMAGEDIMGROUP_13
 70
     0
 10
0.0
 20
0.0
 30
0.0
  3
DA_IMAGEDIMGROUP_13
  1

  0
LINE
  5
12C
  8
LAYER0014
  6
CONTINUOUS
 62
     7
 10
-110.2873302402156
 20
90.95611143017199
 30
0.0
 11
-110.2873302402156
 21
113.5323986616173
 31
0.0
  0
LINE
  5
12D
  8
LAYER0014
  6
CONTINUOUS
 62
     7
 10
-103.6231761874813
 20
58.45611143017197
 30
0.0
 11
-103.6231761874813
 21
113.5323986616173
 31
0.0
  0
LINE
  5
12E
  8
LAYER0014
  6
CONTINUOUS
 62
     7
 10
-110.2873302402156
 20
112.5323986616173
 30
0.0
 11
-103.6231761874813
 21
112.5323986616173
 31
0.0
  0
LINE
  5
12F
  8
LAYER0014
  6
CONTINUOUS
 62
     7
 10
-138.4689133410079
 20
112.5323986616173
 30
0.0
 11
-110.2873302402156
 21
112.5323986616173
 31
0.0
  0
INSERT
  5
130
  8
LAYER0014
 62
     7
  2
_OPEN30
 10
-110.2873302402156
 20
112.5323986616173
 30
0.0
 41
1.50000139391263
 42
1.499998500689492
 50
360.0
  0
LINE
  5
131
  8
LAYER0014
  6
CONTINUOUS
 62
     7
 10
-98.62317618748125
 20
112.5323986616173
 30
0.0
 11
-103.6231761874813
 21
112.5323986616173
 31
0.0
  0
INSERT
  5
132
  8
LAYER0014
 62
     7
  2
_OPEN30
 10
-103.6231761874813
 20
112.5323986616173
 30
0.0
 41
1.50000139391263
 42
1.499998500689492
 50
180.0
  0
TEXT
  5
133
  8
LAYER0014
 62
     7
 10
-137.4689133410079
 20
113.5323986616173
 30
0.0
 40
4.0
  1
ＭＡＸ16.7
 41
0.7368421052631581
  7
FDASTYLE1
 72
     5
 11
-115.0689133410079
 21
113.5323986616173
 31
0.0
  0
ENDBLK
  5
7B
  8
0
  0
BLOCK
  8
0
  2
DA_IMAGEDIMGROUP_14
 70
     0
 10
0.0
 20
0.0
 30
0.0
  3
DA_IMAGEDIMGROUP_14
  1

  0
LINE
  5
134
  8
0
  6
CONTINUOUS
 62
     9
 10
-103.6231761874813
 20
24.87208127329125
 30
0.0
 11
-83.62317618748125
 21
24.87208127329125
 31
0.0
  0
INSERT
  5
135
  8
0
 62
     9
  2
_OPEN30
 10
-103.6231761874813
 20
24.87208127329125
 30
0.0
 41
1.50000139391263
 42
1.499998500689492
 50
180.0
  0
INSERT
  5
136
  8
0
 62
     9
  2
_OPEN30
 10
-83.62317618748125
 20
24.87208127329125
 30
0.0
 41
1.50000139391263
 42
1.499998500689492
 50
360.0
  0
LINE
  5
137
  8
0
  6
CONTINUOUS
 62
     9
 10
-83.62317618748125
 20
24.87208127329125
 30
0.0
 11
-75.62317618748125
 21
24.87208127329125
 31
0.0
  0
INSERT
  5
138
  8
0
 62
     9
  2
_OPEN30
 10
-83.62317618748125
 20
24.87208127329125
 30
0.0
 41
1.50000139391263
 42
1.499998500689492
 50
180.0
  0
INSERT
  5
139
  8
0
 62
     9
  2
_OPEN30
 10
-75.62317618748125
 20
24.87208127329125
 30
0.0
 41
1.50000139391263
 42
1.499998500689492
 50
360.0
  0
LINE
  5
13A
  8
0
  6
CONTINUOUS
 62
     9
 10
-75.62317618748125
 20
24.87208127329125
 30
0.0
 11
-67.62317618748125
 21
24.87208127329125
 31
0.0
  0
INSERT
  5
13B
  8
0
 62
     9
  2
_OPEN30
 10
-75.62317618748125
 20
24.87208127329125
 30
0.0
 41
1.50000139391263
 42
1.499998500689492
 50
180.0
  0
INSERT
  5
13C
  8
0
 62
     9
  2
_OPEN30
 10
-67.62317618748125
 20
24.87208127329125
 30
0.0
 41
1.50000139391263
 42
1.499998500689492
 50
360.0
  0
TEXT
  5
13D
  8
0
 62
     7
 10
-96.82317618748125
 20
25.87208127329125
 30
0.0
 40
4.0
  1
20
 41
0.8000000000000007
  7
FDASTYLE1
 72
     5
 11
-90.42317618748125
 21
25.87208127329125
 31
0.0
  0
TEXT
  5
13E
  8
0
 62
     7
 10
-81.22317618748124
 20
25.87208127329125
 30
0.0
 40
4.0
  1
8
 41
0.7999999999999972
  7
FDASTYLE1
 72
     5
 11
-78.02317618748126
 21
25.87208127329125
 31
0.0
  0
TEXT
  5
13F
  8
0
 62
     7
 10
-73.22317618748124
 20
25.87208127329125
 30
0.0
 40
4.0
  1
8
 41
0.7999999999999972
  7
FDASTYLE1
 72
     5
 11
-70.02317618748126
 21
25.87208127329125
 31
0.0
  0
ENDBLK
  5
7E
  8
0
  0
BLOCK
  8
0
  2
DA_IMAGEDIMGROUP_15
 70
     0
 10
0.0
 20
0.0
 30
0.0
  3
DA_IMAGEDIMGROUP_15
  1

  0
LINE
  5
140
  8
0
  6
CONTINUOUS
 62
     9
 10
-53.98731192966874
 20
24.67185374200561
 30
0.0
 11
-51.48731192966874
 21
24.67185374200561
 31
0.0
  0
LINE
  5
141
  8
0
  6
CONTINUOUS
 62
     9
 10
-37.95546192966874
 20
24.67185374200561
 30
0.0
 11
-51.48731192966874
 21
24.67185374200561
 31
0.0
  0
INSERT
  5
142
  8
0
 62
     9
  2
_OPEN30
 10
-51.48731192966874
 20
24.67185374200561
 30
0.0
 41
1.50000139391263
 42
1.499998500689492
 50
180.0
  0
LINE
  5
143
  8
0
  6
CONTINUOUS
 62
     9
 10
-58.98731192966874
 20
24.67185374200561
 30
0.0
 11
-53.98731192966874
 21
24.67185374200561
 31
0.0
  0
INSERT
  5
144
  8
0
 62
     9
  2
_OPEN30
 10
-53.98731192966874
 20
24.67185374200561
 30
0.0
 41
1.50000139391263
 42
1.499998500689492
 50
360.0
  0
TEXT
  5
145
  8
0
 62
     7
 10
-48.55546192966875
 20
25.67185374200561
 30
0.0
 40
4.0
  1
2.5
 41
0.8000000000000002
  7
FDASTYLE1
 72
     5
 11
-38.95546192966874
 21
25.67185374200561
 31
0.0
  0
ENDBLK
  5
81
  8
0
  0
BLOCK
  8
0
  2
DA_IMAGEDIMGROUP_16
 70
     0
 10
0.0
 20
0.0
 30
0.0
  3
DA_IMAGEDIMGROUP_16
  1

  0
TEXT
  5
146
  8
LAYER0014
 62
     7
 10
-137.6672868245958
 20
107.5632935922362
 30
0.0
 40
4.0
  1
ＭＩＮ-3.3
 41
0.7368421052631576
  7
FDASTYLE1
 72
     5
 11
-115.2672868245958
 21
107.5632935922362
 31
0.0
  0
ENDBLK
  5
84
  8
0
  0
BLOCK
  8
0
  2
DA_IMAGEDIMGROUP_17
 70
     0
 10
0.0
 20
0.0
 30
0.0
  3
DA_IMAGEDIMGROUP_17
  1

  0
TEXT
  5
147
  8
LAYER0014
 62
     7
 10
-108.2658619301406
 20
-49.6278112247233
 30
0.0
 40
4.0
  1
ＭＩＮ16.7
 41
0.7368421052631581
  7
FDASTYLE1
 72
     5
 11
-85.86586193014061
 21
-49.6278112247233
 31
0.0
  0
ENDBLK
  5
87
  8
0
  0
BLOCK
  8
0
  2
DC_GROUP_4
 70
     0
 10
0.0
 20
0.0
 30
0.0
  3
DC_GROUP_4
  1

  0
TEXT
  5
148
  8
LAYER0014
 62
     7
 10
2.990825610631551
 20
35.34393740102865
 30
0.0
 40
4.0
  1
ＭＩＮ24.3
 50
90.0
 41
0.7368421052631581
  7
FDASTYLE1
 72
     5
 11
2.990825610631551
 21
57.74393740102866
 31
0.0
  0
ENDBLK
  5
8A
  8
0
  0
BLOCK
  8
0
  2
DC_GROUP_5
 70
     0
 10
0.0
 20
0.0
 30
0.0
  3
DC_GROUP_5
  1

  0
TEXT
  5
149
  8
LAYER0014
 62
     7
 10
-3.099653689920041
 20
35.50335072312846
 30
0.0
 40
4.0
  1
MAX30.3
 50
90.0
 41
0.7999999999999999
  7
FDASTYLE1
 72
     5
 11
-3.099653689920041
 21
57.90335072312846
 31
0.0
  0
ENDBLK
  5
8D
  8
0
  0
BLOCK
  8
0
  2
DA_IMAGEDIMGROUP_18
 70
     0
 10
0.0
 20
0.0
 30
0.0
  3
DA_IMAGEDIMGROUP_18
  1

  0
LINE
  5
14A
  8
LAYER0014
  6
CONTINUOUS
 62
     7
 10
-52.48731192966874
 20
100.956111430172
 30
0.0
 11
-52.48731192966874
 21
113.5323986616173
 31
0.0
  0
LINE
  5
14B
  8
LAYER0014
  6
CONTINUOUS
 62
     7
 10
-51.48731192966874
 20
99.45611143017199
 30
0.0
 11
-51.48731192966874
 21
113.5323986616173
 31
0.0
  0
LINE
  5
14C
  8
LAYER0014
  6
CONTINUOUS
 62
     7
 10
-52.48731192966874
 20
112.5323986616173
 30
0.0
 11
-51.48731192966874
 21
112.5323986616173
 31
0.0
  0
LINE
  5
14D
  8
LAYER0014
  6
CONTINUOUS
 62
     7
 10
-52.48731192966874
 20
112.5323986616173
 30
0.0
 11
-58.83731192966874
 21
112.5323986616173
 31
0.0
  0
INSERT
  5
14E
  8
LAYER0014
 62
     7
  2
_OPEN30
 10
-52.48731192966874
 20
112.5323986616173
 30
0.0
 41
1.50000139391263
 42
1.499998500689492
 50
360.0
  0
LINE
  5
14F
  8
LAYER0014
  6
CONTINUOUS
 62
     7
 10
-45.13731192966874
 20
112.5323986616173
 30
0.0
 11
-51.48731192966874
 21
112.5323986616173
 31
0.0
  0
INSERT
  5
150
  8
LAYER0014
 62
     7
  2
_OPEN30
 10
-51.48731192966874
 20
112.5323986616173
 30
0.0
 41
1.50000139391263
 42
1.499998500689492
 50
180.0
  0
TEXT
  5
151
  8
LAYER0014
 62
     7
 10
-59.80500525852617
 20
114.1323986616173
 30
0.0
 40
4.0
  1
1
 41
0.8000000000000007
  7
FDASTYLE1
 72
     5
 11
-56.60500525852616
 21
114.1323986616173
 31
0.0
  0
ENDBLK
  5
90
  8
0
  0
BLOCK
  8
0
  2
DA_IMAGEDIMGROUP_19
 70
     0
 10
0.0
 20
0.0
 30
0.0
  3
DA_IMAGEDIMGROUP_19
  1

  0
LINE
  5
152
  8
LAYER0014
  6
CONTINUOUS
 62
     7
 10
-51.48731192966874
 20
-32.62388666247939
 30
0.0
 11
-51.48731192966874
 21
-71.68381075000382
 31
0.0
  0
LINE
  5
153
  8
LAYER0014
  6
CONTINUOUS
 62
     7
 10
-114.4873119296688
 20
-51.95444734668349
 30
0.0
 11
-114.4873119296688
 21
-71.68381075000382
 31
0.0
  0
LINE
  5
154
  8
LAYER0014
  6
CONTINUOUS
 62
     7
 10
-51.48731192966874
 20
-70.68381075000382
 30
0.0
 11
-114.4873119296688
 21
-70.68381075000382
 31
0.0
  0
INSERT
  5
155
  8
LAYER0014
 62
     7
  2
_OPEN30
 10
-51.48731192966874
 20
-70.68381075000382
 30
0.0
 41
1.50000139391263
 42
1.499998500689492
 50
360.0
  0
INSERT
  5
156
  8
LAYER0014
 62
     7
  2
_OPEN30
 10
-114.4873119296688
 20
-70.68381075000382
 30
0.0
 41
1.50000139391263
 42
1.499998500689492
 50
180.0
  0
TEXT
  5
157
  8
LAYER0014
 62
     7
 10
-86.18731192966875
 20
-69.68381075000382
 30
0.0
 40
4.0
  1
63
 41
0.8000000000000007
  7
FDASTYLE1
 72
     5
 11
-79.78731192966875
 21
-69.68381075000382
 31
0.0
  0
ENDBLK
  5
93
  8
0
  0
BLOCK
  8
0
  2
DC_GROUP_6
 70
     0
 10
0.0
 20
0.0
 30
0.0
  3
DC_GROUP_6
  1

  0
LINE
  5
158
  8
LAYER0014
  6
CONTINUOUS
 62
     7
 10
-59.13261603957298
 20
87.52505488968249
 30
0.0
 11
-72.2853926813369
 21
112.5099785108419
 31
0.0
  0
INSERT
  5
159
  8
LAYER0014
 62
     7
  2
_OPEN30
 10
-59.13261603957298
 20
87.52505488968249
 30
0.0
 41
1.50000139391263
 42
1.499998500689492
 50
297.7635987668411
  0
LINE
  5
15A
  8
LAYER0014
  6
CONTINUOUS
 62
     7
 10
-72.28539237400469
 20
112.5099758710899
 30
0.0
 11
-81.51396140476641
 21
112.5099758710899
 31
0.0
  0
TEXT
  5
15B
  8
LAYER0014
 62
     7
 10
-79.68539237400469
 20
114.1099606123009
 30
0.0
 40
4.0
  1
M8
 41
0.8000000000000007
  7
FDASTYLE1
 72
     5
 11
-73.28539237400469
 21
114.1099606123009
 31
0.0
  0
ENDBLK
  5
96
  8
0
  0
BLOCK
  8
0
  2
DA_IMAGEDIMGROUP_20
 70
     0
 10
0.0
 20
0.0
 30
0.0
  3
DA_IMAGEDIMGROUP_20
  1

  0
LINE
  5
15C
  8
LAYER0014
  6
CONTINUOUS
 62
     7
 10
-29.65666251560624
 20
69.41610380077744
 30
0.0
 11
-23.13462027927812
 21
69.41610380077744
 31
0.0
  0
LINE
  5
15D
  8
LAYER0014
  6
CONTINUOUS
 62
     7
 10
-29.65666251560624
 20
86.41610380077744
 30
0.0
 11
-23.13462027927812
 21
86.41610380077744
 31
0.0
  0
LINE
  5
15E
  8
LAYER0014
  6
CONTINUOUS
 62
     7
 10
-24.13462027927812
 20
69.41610380077744
 30
0.0
 11
-24.13462027927812
 21
86.41610380077744
 31
0.0
  0
INSERT
  5
15F
  8
LAYER0014
 62
     7
  2
_OPEN30
 10
-24.13462027927812
 20
69.41610380077744
 30
0.0
 41
1.50000139391263
 42
1.499998500689492
 50
270.0
  0
INSERT
  5
160
  8
LAYER0014
 62
     7
  2
_OPEN30
 10
-24.13462027927812
 20
86.41610380077744
 30
0.0
 41
1.50000139391263
 42
1.499998500689492
 50
90.0
  0
TEXT
  5
161
  8
LAYER0014
 62
     7
 10
-25.73462027927812
 20
74.71610380077743
 30
0.0
 40
4.0
  1
17
 50
90.0
 41
0.8000000000000007
  7
FDASTYLE1
 72
     5
 11
-25.73462027927812
 21
81.11610380077744
 31
0.0
  0
ENDBLK
  5
99
  8
0
  0
BLOCK
  8
0
  2
DA_IMAGEDIMGROUP_21
 70
     0
 10
0.0
 20
0.0
 30
0.0
  3
DA_IMAGEDIMGROUP_21
  1

  0
LINE
  5
162
  8
LAYER0014
  6
CONTINUOUS
 62
     7
 10
-65.08317618748124
 20
13.41611524486924
 30
0.0
 11
-23.13462027927812
 21
13.41611524486924
 31
0.0
  0
LINE
  5
163
  8
LAYER0014
  6
CONTINUOUS
 62
     7
 10
-24.13462027927812
 20
13.41611143017197
 30
0.0
 11
-24.13462027927812
 21
49.41610380077744
 31
0.0
  0
INSERT
  5
164
  8
LAYER0014
 62
     7
  2
_OPEN30
 10
-24.13462027927812
 20
13.41611143017197
 30
0.0
 41
1.50000139391263
 42
1.499998500689492
 50
270.0
  0
TEXT
  5
165
  8
LAYER0014
 62
     7
 10
-25.73462027927812
 20
19.25982099438096
 30
0.0
 40
4.0
  1
M40×P1.25
 50
90.0
 41
0.782608695652174
  7
FDASTYLE1
 72
     5
 11
-25.73462027927812
 21
48.05982099438096
 31
0.0
  0
ENDBLK
  5
9C
  8
0
  0
BLOCK
  8
0
  2
DA_IMAGEDIMGROUP_22
 70
     0
 10
0.0
 20
0.0
 30
0.0
  3
DA_IMAGEDIMGROUP_22
  1

  0
LINE
  5
166
  8
LAYER0014
  6
CONTINUOUS
 62
     7
 10
-48.94734244724687
 20
8.416115244869239
 30
0.0
 11
-14.13462027927812
 21
8.416115244869239
 31
0.0
  0
LINE
  5
167
  8
LAYER0014
  6
CONTINUOUS
 62
     7
 10
-15.13462027927812
 20
8.416111430171974
 30
0.0
 11
-15.13462027927812
 21
49.41610380077744
 31
0.0
  0
INSERT
  5
168
  8
LAYER0014
 62
     7
  2
_OPEN30
 10
-15.13462027927812
 20
8.416111430171974
 30
0.0
 41
1.50000139391263
 42
1.499998500689492
 50
270.0
  0
TEXT
  5
169
  8
LAYER0014
 62
     7
 10
-16.73462027927812
 20
25.45867582226182
 30
0.0
 40
4.0
  1
φ50H7
 50
90.0
 41
0.7692307692307692
  7
FDASTYLE1
 72
     5
 11
-16.73462027927812
 21
41.45867582226182
 31
0.0
  0
ENDBLK
  5
9F
  8
0
  0
BLOCK
  8
0
  2
DA_IMAGEDIMGROUP_23
 70
     0
 10
0.0
 20
0.0
 30
0.0
  3
DA_IMAGEDIMGROUP_23
  1

  0
LINE
  5
16A
  8
LAYER0014
  6
CONTINUOUS
 62
     7
 10
-2.081990851930962
 20
60.91611143017197
 30
0.0
 11
-2.081990851930962
 21
98.41611143017197
 31
0.0
  0
INSERT
  5
16B
  8
LAYER0014
 62
     7
  2
_OPEN30
 10
-2.081990851930962
 20
60.91611143017197
 30
0.0
 41
1.50000139391263
 42
1.499998500689492
 50
270.0
  0
INSERT
  5
16C
  8
LAYER0014
 62
     7
  2
_OPEN30
 10
-2.081990851930962
 20
98.41611143017197
 30
0.0
 41
1.50000139391263
 42
1.499998500689492
 50
90.0
  0
LINE
  5
16D
  8
LAYER0014
  6
CONTINUOUS
 62
     7
 10
-49.94734244724687
 20
60.91610380077744
 30
0.0
 11
-1.081990851930975
 21
60.91611158956482
 31
0.0
  0
LINE
  5
16E
  8
LAYER0014
  6
CONTINUOUS
 62
     7
 10
-49.94734244724687
 20
98.41610380077744
 30
0.0
 11
-1.081990851930975
 21
98.41611158956481
 31
0.0
  0
TEXT
  5
16F
  8
LAYER0014
 62
     7
 10
-3.681990851930962
 20
73.26611143017196
 30
0.0
 40
4.0
  1
37.5
 50
90.0
 41
0.8000000000000007
  7
FDASTYLE1
 72
     5
 11
-3.681990851930962
 21
86.06611143017197
 31
0.0
  0
ENDBLK
  5
A2
  8
0
  0
BLOCK
  8
0
  2
DC_GROUP_7
 70
     0
 10
0.0
 20
0.0
 30
0.0
  3
DC_GROUP_7
  1

  0
LINE
  5
170
  8
LAYER0014
  6
CONTINUOUS
 62
     7
 10
-52.39809250502866
 20
96.00973710061415
 30
0.0
 11
-38.49246949270195
 21
112.5099860974065
 31
0.0
  0
INSERT
  5
171
  8
LAYER0014
 62
     7
  2
_OPEN30
 10
-52.39809250502866
 20
96.00973710061415
 30
0.0
 41
1.50000139391263
 42
1.499998500689492
 50
229.8774082158932
  0
LINE
  5
172
  8
LAYER0014
  6
CONTINUOUS
 62
     7
 10
-38.49246749302323
 20
112.5099758710899
 30
0.0
 11
8.137201696429891
 21
112.5099758710899
 31
0.0
  0
TEXT
  5
173
  8
LAYER0014
 62
     7
 10
-38.16061362644609
 20
114.1099758710899
 30
0.0
 40
4.0
  1
ｾﾚｰｼｮﾝP1.5山60ﾟ
 41
0.7887323943661972
  7
FDASTYLE1
 72
     5
 11
6.639386373553919
 21
114.1099758710899
 31
0.0
  0
ENDBLK
  5
A5
  8
0
  0
BLOCK
  8
0
  2
DA_IMAGEDIMGROUP_24
 70
     0
 10
0.0
 20
0.0
 30
0.0
  3
DA_IMAGEDIMGROUP_24
  1

  0
LINE
  5
174
  8
LAYER0014
  6
CONTINUOUS
 62
     7
 10
-49.94734244724687
 20
60.91610380077744
 30
0.0
 11
-23.13462027927812
 21
60.91610380077744
 31
0.0
  0
LINE
  5
175
  8
LAYER0014
  6
CONTINUOUS
 62
     7
 10
-29.65666251560624
 20
69.41610380077744
 30
0.0
 11
-23.13462027927812
 21
69.41610380077744
 31
0.0
  0
LINE
  5
176
  8
LAYER0014
  6
CONTINUOUS
 62
     7
 10
-24.13462027927812
 20
60.91611143017197
 30
0.0
 11
-24.13462027927812
 21
69.41611143017197
 31
0.0
  0
LINE
  5
177
  8
LAYER0014
  6
CONTINUOUS
 62
     7
 10
-24.13462027927812
 20
55.91611143017197
 30
0.0
 11
-24.13462027927812
 21
60.91611143017197
 31
0.0
  0
INSERT
  5
178
  8
LAYER0014
 62
     7
  2
_OPEN30
 10
-24.13462027927812
 20
60.91611143017197
 30
0.0
 41
1.50000139391263
 42
1.499998500689492
 50
90.0
  0
LINE
  5
179
  8
LAYER0014
  6
CONTINUOUS
 62
     7
 10
-24.13462027927812
 20
74.41611143017197
 30
0.0
 11
-24.13462027927812
 21
69.41611143017197
 31
0.0
  0
INSERT
  5
17A
  8
LAYER0014
 62
     7
  2
_OPEN30
 10
-24.13462027927812
 20
69.41611143017197
 30
0.0
 41
1.50000139391263
 42
1.499998500689492
 50
270.0
  0
TEXT
  5
17B
  8
LAYER0014
 62
     7
 10
-29.63462027927812
 20
60.96611143017196
 30
0.0
 40
3.5
  1
MIN
 50
90.0
 41
0.8000000000000005
  7
FDASTYLE1
 72
     5
 11
-29.63462027927812
 21
69.36611143017197
 31
0.0
  0
TEXT
  5
17C
  8
LAYER0014
 62
     7
 10
-25.73462027927812
 20
63.44355587625885
 30
0.0
 40
4.0
  1
7
 50
90.0
 41
0.8000000000000025
  7
FDASTYLE1
 72
     5
 11
-25.73462027927812
 21
66.64355587625886
 31
0.0
  0
ENDBLK
  5
A8
  8
0
  0
BLOCK
  8
0
  2
DC_GROUP_8
 70
     0
 10
0.0
 20
0.0
 30
0.0
  3
DC_GROUP_8
  1

  0
LINE
  5
17D
  8
LAYER0014
  6
CONTINUOUS
 62
     7
 10
-48.94734244724687
 20
93.41610380077744
 30
0.0
 11
-14.13462027927812
 21
93.41610380077744
 31
0.0
  0
LINE
  5
17E
  8
LAYER0014
  6
CONTINUOUS
 62
     7
 10
-48.94734244724687
 20
62.41610380077744
 30
0.0
 11
-33.6204019719378
 21
62.41610380077744
 31
0.0
  0
LINE
  5
17F
  8
LAYER0014
  6
CONTINUOUS
 62
     7
 10
-25.14410314751611
 20
62.41610380077744
 30
0.0
 11
-14.13462027927812
 21
62.41610380077744
 31
0.0
  0
LINE
  5
180
  8
LAYER0014
  6
CONTINUOUS
 62
     7
 10
-15.13462027927812
 20
93.41610380077744
 30
0.0
 11
-15.13462027927812
 21
62.41610380077744
 31
0.0
  0
INSERT
  5
181
  8
LAYER0014
 62
     7
  2
_OPEN30
 10
-15.13462027927812
 20
93.41610380077744
 30
0.0
 41
1.50000139391263
 42
1.499998500689492
 50
90.0
  0
INSERT
  5
182
  8
LAYER0014
 62
     7
  2
_OPEN30
 10
-15.13462027927812
 20
62.41610380077744
 30
0.0
 41
1.50000139391263
 42
1.499998500689492
 50
270.0
  0
TEXT
  5
183
  8
LAYER0014
 62
     7
 10
-16.73462027927812
 20
74.76353574657821
 30
0.0
 40
4.0
  1
31
 50
90.0
 41
0.8000000000000007
  7
FDASTYLE1
 72
     5
 11
-16.73462027927812
 21
81.16353574657822
 31
0.0
  0
ENDBLK
  5
AB
  8
0
  0
BLOCK
  8
0
  2
DC_GROUP_9
 70
     0
 10
0.0
 20
0.0
 30
0.0
  3
DC_GROUP_9
  1

  0
LINE
  5
184
  8
LAYER0014
  6
CONTINUOUS
 62
     7
 10
-2.081990851930962
 20
33.41611143017197
 30
0.0
 11
-2.081990851930962
 21
60.91611143017197
 31
0.0
  0
INSERT
  5
185
  8
LAYER0014
 62
     7
  2
_OPEN30
 10
-2.081990851930962
 20
33.41611143017197
 30
0.0
 41
1.50000139391263
 42
1.499998500689492
 50
270.0
  0
INSERT
  5
186
  8
LAYER0014
 62
     7
  2
_OPEN30
 10
-2.081990851930962
 20
60.91611143017197
 30
0.0
 41
1.50000139391263
 42
1.499998500689492
 50
90.0
  0
LINE
  5
187
  8
LAYER0014
  6
CONTINUOUS
 62
     7
 10
-49.94734244724687
 20
60.91610380077744
 30
0.0
 11
-1.081990851930975
 21
60.91611158956482
 31
0.0
  0
LINE
  5
188
  8
LAYER0014
  6
CONTINUOUS
 62
     7
 10
-47.20253981355794
 20
33.41606048146409
 30
0.0
 11
-30.85765863595686
 21
33.41607893759097
 31
0.0
  0
LINE
  5
189
  8
LAYER0014
  6
CONTINUOUS
 62
     7
 10
-14.37004679342509
 20
33.41609755488484
 30
0.0
 11
-1.0819908519316
 21
33.41611255934059
 31
0.0
  0
ENDBLK
  5
AE
  8
0
  0
BLOCK
  8
0
  2
DA_IMAGEDIMGROUP_25
 70
     0
 10
0.0
 20
0.0
 30
0.0
  3
DA_IMAGEDIMGROUP_25
  1

  0
LINE
  5
18A
  8
0
  6
CONTINUOUS
 62
     9
 10
104.2626880703313
 20
37.44102244645317
 30
0.0
 11
104.2626880703313
 21
39.84982332155475
 31
0.0
  0
LINE
  5
18B
  8
0
  6
CONTINUOUS
 62
     9
 10
73.76268807033125
 20
37.95085292130668
 30
0.0
 11
73.76268807033125
 21
39.84982332155475
 31
0.0
  0
LINE
  5
18C
  8
0
  6
CONTINUOUS
 62
     9
 10
73.76268807033125
 20
38.84982332155475
 30
0.0
 11
104.2626880703313
 21
38.84982332155475
 31
0.0
  0
INSERT
  5
18D
  8
0
 62
     9
  2
_OPEN30
 10
73.76268807033125
 20
38.84982332155475
 30
0.0
 41
1.50000139391263
 42
1.499998500689492
 50
180.0
  0
INSERT
  5
18E
  8
0
 62
     9
  2
_OPEN30
 10
104.2626880703313
 20
38.84982332155475
 30
0.0
 41
1.50000139391263
 42
1.499998500689492
 50
360.0
  0
TEXT
  5
18F
  8
0
 62
     7
 10
77.81268807033125
 20
39.84982332155475
 30
0.0
 40
4.0
  1
PCD30.5
 41
0.8000000000000002
  7
FDASTYLE1
 72
     5
 11
100.2126880703313
 21
39.84982332155475
 31
0.0
  0
ENDBLK
  5
B1
  8
0
  0
BLOCK
  8
0
  2
DC_GROUP_10
 70
     0
 10
0.0
 20
0.0
 30
0.0
  3
DC_GROUP_10
  1

  0
LINE
  5
190
  8
0
  6
CONTINUOUS
 62
     7
 10
105.1629140994966
 20
34.73875424499732
 30
0.0
 11
132.2188195262401
 21
98.08081402957733
 31
0.0
  0
INSERT
  5
191
  8
0
 62
     7
  2
_OPEN30
 10
105.1629140994966
 20
34.73875424499732
 30
0.0
 41
1.50000139391263
 42
1.499998500689492
 50
246.8707505820835
  0
LINE
  5
192
  8
0
  6
CONTINUOUS
 62
     7
 10
132.2188195262401
 20
98.08081402957733
 30
0.0
 11
151.4188195262402
 21
98.08081402957733
 31
0.0
  0
TEXT
  5
193
  8
0
 62
     7
 10
132.2188195262401
 20
98.08081402957733
 30
0.0
 40
4.0
  1
2-φ3.2
 41
0.7741935483870974
  7
FDASTYLE1
 72
     5
 11
151.4188195262402
 21
98.08081402957733
 31
0.0
  0
ENDBLK
  5
B4
  8
0
  0
BLOCK
  8
0
  2
DA_IMAGEDIMGROUP_26
 70
     0
 10
0.0
 20
0.0
 30
0.0
  3
DA_IMAGEDIMGROUP_26
  1

  0
LINE
  5
194
  8
0
  6
CONTINUOUS
 62
     7
 10
-110.2873302402156
 20
-22.58388666247939
 30
0.0
 11
-110.2873302402156
 21
-45.74364361309721
 31
0.0
  0
LINE
  5
195
  8
0
  6
CONTINUOUS
 62
     7
 10
-127.4873119296688
 20
-13.85889200305557
 30
0.0
 11
-127.4873119296688
 21
-45.74364361309721
 31
0.0
  0
LINE
  5
196
  8
0
  6
CONTINUOUS
 62
     7
 10
-127.4873119296688
 20
-44.74364361309721
 30
0.0
 11
-110.2873302402156
 21
-44.74364361309721
 31
0.0
  0
INSERT
  5
197
  8
0
 62
     7
  2
_OPEN30
 10
-127.4873119296688
 20
-44.74364361309721
 30
0.0
 41
1.50000139391263
 42
1.499998500689492
 50
180.0
  0
INSERT
  5
198
  8
0
 62
     7
  2
_OPEN30
 10
-110.2873302402156
 20
-44.74364361309721
 30
0.0
 41
1.50000139391263
 42
1.499998500689492
 50
360.0
  0
TEXT
  5
199
  8
0
 62
     7
 10
-122.0873210849422
 20
-44.24364361309721
 30
0.0
 40
4.0
  1
17
 41
0.8000000000000007
  7
FDASTYLE1
 72
     5
 11
-115.6873210849422
 21
-44.24364361309721
 31
0.0
  0
ENDBLK
  5
B7
  8
0
  0
BLOCK
  8
0
  2
_OPEN30
 70
     0
 10
0.0
 20
0.0
 30
0.0
  3
_OPEN30
  1

  0
LINE
  5
D8
  8
0
  6
BYBLOCK
 62
     0
 10
-1.0
 20
0.267949
 30
0.0
 11
0.0
 21
0.0
 31
0.0
  0
LINE
  5
D9
  8
0
  6
BYBLOCK
 62
     0
 10
0.0
 20
0.0
 30
0.0
 11
-1.0
 21
-0.267949
 31
0.0
  0
LINE
  5
DA
  8
0
  6
BYBLOCK
 62
     0
 10
0.0
 20
0.0
 30
0.0
 11
-1.0
 21
0.0
 31
0.0
  0
ENDBLK
  5
D7
  8
0
  0
ENDSEC
  0
SECTION
  2
ENTITIES
  0
LINE
  5
19A
  8
ZUWAKU
  6
CONTINUOUS
 62
     3
 10
-192.0
 20
-138.4999999999999
 30
0.0
 11
-192.0
 21
138.4999999999999
 31
0.0
  0
LINE
  5
19B
  8
ZUWAKU
  6
CONTINUOUS
 62
     3
 10
192.0
 20
-138.4999999999999
 30
0.0
 11
192.0
 21
138.4999999999999
 31
0.0
  0
LINE
  5
19C
  8
ZUWAKU
  6
CONTINUOUS
 62
     3
 10
-192.0
 20
-138.4999999999999
 30
0.0
 11
192.0
 21
-138.4999999999999
 31
0.0
  0
LINE
  5
19D
  8
ZUWAKU
  6
CONTINUOUS
 62
     3
 10
-192.0
 20
138.4999999999999
 30
0.0
 11
192.0
 21
138.4999999999999
 31
0.0
  0
LINE
  5
19E
  8
ZUWAKU
  6
CONTINUOUS
 62
     3
 10
12.00000000000001
 20
-138.4999999999999
 30
0.0
 11
12.00000000000001
 21
-78.49999999999994
 31
0.0
  0
LINE
  5
19F
  8
ZUWAKU
  6
CONTINUOUS
 62
     3
 10
12.00000000000001
 20
-124.4999999999999
 30
0.0
 11
192.0
 21
-124.4999999999999
 31
0.0
  0
LINE
  5
1A0
  8
ZUWAKU
  6
CONTINUOUS
 62
     3
 10
61.00000000000001
 20
-110.4999999999999
 30
0.0
 11
192.0
 21
-110.4999999999999
 31
0.0
  0
LINE
  5
1A1
  8
ZUWAKU
  6
CONTINUOUS
 62
     3
 10
61.00000000000001
 20
-96.49999999999994
 30
0.0
 11
192.0
 21
-96.49999999999994
 31
0.0
  0
LINE
  5
1A2
  8
ZUWAKU
  6
CONTINUOUS
 62
     3
 10
61.00000000000001
 20
-86.49999999999994
 30
0.0
 11
192.0
 21
-86.49999999999994
 31
0.0
  0
LINE
  5
1A3
  8
ZUWAKU
  6
CONTINUOUS
 62
     3
 10
61.00000000000001
 20
-124.4999999999999
 30
0.0
 11
61.00000000000001
 21
-78.49999999999994
 31
0.0
  0
LINE
  5
1A4
  8
ZUWAKU
  6
CONTINUOUS
 62
     3
 10
170.0
 20
-124.4999999999999
 30
0.0
 11
170.0
 21
-78.49999999999994
 31
0.0
  0
LINE
  5
1A5
  8
ZUWAKU
  6
CONTINUOUS
 62
     3
 10
86.00000000000001
 20
-138.4999999999999
 30
0.0
 11
86.00000000000001
 21
-124.4999999999999
 31
0.0
  0
LINE
  5
1A6
  8
ZUWAKU
  6
CONTINUOUS
 62
     3
 10
177.0
 20
-136.4999999999999
 30
0.0
 11
187.0
 21
-136.4999999999999
 31
0.0
  0
LINE
  5
1A7
  8
ZUWAKU
  6
CONTINUOUS
 62
     3
 10
182.0
 20
-126.4999999999999
 30
0.0
 11
177.0
 21
-136.4999999999999
 31
0.0
  0
LINE
  5
1A8
  8
ZUWAKU
  6
CONTINUOUS
 62
     3
 10
182.0
 20
-126.4999999999999
 30
0.0
 11
187.0
 21
-136.4999999999999
 31
0.0
  0
LINE
  5
1A9
  8
ZUWAKU
  6
CONTINUOUS
 62
     3
 10
12.00000000000001
 20
-78.49999999999994
 30
0.0
 11
192.0
 21
-78.49999999999994
 31
0.0
  0
LINE
  5
1AA
  8
ZUWAKU
  6
CONTINUOUS
 62
     3
 10
141.0
 20
-124.4999999999999
 30
0.0
 11
141.0
 21
-96.49999999999994
 31
0.0
  0
LINE
  5
1AB
  8
ZUWAKU
  6
CONTINUOUS
 62
     4
 10
20.00000000000001
 20
-120.4999999999999
 30
0.0
 11
20.00000000000001
 21
-78.49999999999994
 31
0.0
  0
LINE
  5
1AC
  8
ZUWAKU
  6
CONTINUOUS
 62
     4
 10
24.00000000000001
 20
-120.4999999999999
 30
0.0
 11
24.00000000000001
 21
-78.49999999999994
 31
0.0
  0
LINE
  5
1AD
  8
ZUWAKU
  6
CONTINUOUS
 62
     4
 10
36.50000000000001
 20
-124.4999999999999
 30
0.0
 11
36.50000000000001
 21
-78.49999999999994
 31
0.0
  0
LINE
  5
1AE
  8
ZUWAKU
  6
CONTINUOUS
 62
     4
 10
12.00000000000001
 20
-85.49999999999994
 30
0.0
 11
61.00000000000001
 21
-85.49999999999994
 31
0.0
  0
LINE
  5
1AF
  8
ZUWAKU
  6
CONTINUOUS
 62
     4
 10
12.00000000000001
 20
-92.49999999999994
 30
0.0
 11
61.00000000000001
 21
-92.49999999999994
 31
0.0
  0
LINE
  5
1B0
  8
ZUWAKU
  6
CONTINUOUS
 62
     4
 10
12.00000000000001
 20
-113.4999999999999
 30
0.0
 11
61.00000000000001
 21
-113.4999999999999
 31
0.0
  0
LINE
  5
1B1
  8
ZUWAKU
  6
CONTINUOUS
 62
     4
 10
12.00000000000001
 20
-120.4999999999999
 30
0.0
 11
61.00000000000001
 21
-120.4999999999999
 31
0.0
  0
LINE
  5
1B2
  8
ZUWAKU
  6
CONTINUOUS
 62
     4
 10
170.0
 20
-114.4999999999999
 30
0.0
 11
192.0
 21
-114.4999999999999
 31
0.0
  0
LINE
  5
1B3
  8
ZUWAKU
  6
CONTINUOUS
 62
     4
 10
68.00000000000001
 20
-87.99999999999994
 30
0.0
 11
68.00000000000001
 21
-78.49999999999994
 31
0.0
  0
LINE
  5
1B4
  8
ZUWAKU
  6
CONTINUOUS
 62
     4
 10
117.0
 20
-96.49999999999994
 30
0.0
 11
117.0
 21
-94.99999999999994
 31
0.0
  0
LINE
  5
1B5
  8
ZUWAKU
  6
CONTINUOUS
 62
     4
 10
141.0
 20
-96.49999999999994
 30
0.0
 11
141.0
 21
-94.99999999999994
 31
0.0
  0
LINE
  5
1B6
  8
ZUWAKU
  6
CONTINUOUS
 62
     4
 10
158.0
 20
-96.49999999999994
 30
0.0
 11
158.0
 21
-94.99999999999994
 31
0.0
  0
LINE
  5
1B7
  8
ZUWAKU
  6
CONTINUOUS
 62
     4
 10
117.0
 20
-87.99999999999994
 30
0.0
 11
117.0
 21
-78.49999999999994
 31
0.0
  0
LINE
  5
1B8
  8
ZUWAKU
  6
CONTINUOUS
 62
     4
 10
141.0
 20
-87.99999999999994
 30
0.0
 11
141.0
 21
-78.49999999999994
 31
0.0
  0
LINE
  5
1B9
  8
ZUWAKU
  6
CONTINUOUS
 62
     4
 10
158.0
 20
-87.99999999999994
 30
0.0
 11
158.0
 21
-78.49999999999994
 31
0.0
  0
LINE
  5
1BA
  8
ZUWAKU
  6
CONTINUOUS
 62
     4
 10
12.00000000000001
 20
-99.49999999999994
 30
0.0
 11
61.00000000000001
 21
-99.49999999999994
 31
0.0
  0
LINE
  5
1BB
  8
ZUWAKU
  6
CONTINUOUS
 62
     4
 10
12.00000000000001
 20
-106.4999999999999
 30
0.0
 11
61.00000000000001
 21
-106.4999999999999
 31
0.0
  0
LINE
  5
1BC
  8
ZUWAKU
  6
CONTINUOUS
 62
     4
 10
16.00000000000001
 20
-78.99999999999994
 30
0.0
 11
13.00000000000001
 21
-84.99999999999994
 31
0.0
  0
LINE
  5
1BD
  8
ZUWAKU
  6
CONTINUOUS
 62
     4
 10
16.00000000000001
 20
-78.99999999999994
 30
0.0
 11
19.00000000000001
 21
-84.99999999999994
 31
0.0
  0
LINE
  5
1BE
  8
ZUWAKU
  6
CONTINUOUS
 62
     4
 10
13.00000000000001
 20
-84.99999999999994
 30
0.0
 11
19.00000000000001
 21
-84.99999999999994
 31
0.0
  0
LINE
  5
1BF
  8
ZUWAKU
  6
CONTINUOUS
 62
     4
 10
16.00000000000001
 20
-106.9999999999999
 30
0.0
 11
13.00000000000001
 21
-112.9999999999999
 31
0.0
  0
LINE
  5
1C0
  8
ZUWAKU
  6
CONTINUOUS
 62
     4
 10
16.00000000000001
 20
-106.9999999999999
 30
0.0
 11
19.00000000000001
 21
-112.9999999999999
 31
0.0
  0
LINE
  5
1C1
  8
ZUWAKU
  6
CONTINUOUS
 62
     4
 10
13.00000000000001
 20
-112.9999999999999
 30
0.0
 11
19.00000000000001
 21
-112.9999999999999
 31
0.0
  0
LINE
  5
1C2
  8
ZUWAKU
  6
CONTINUOUS
 62
     4
 10
16.00000000000001
 20
-99.99999999999994
 30
0.0
 11
13.00000000000001
 21
-105.9999999999999
 31
0.0
  0
LINE
  5
1C3
  8
ZUWAKU
  6
CONTINUOUS
 62
     4
 10
16.00000000000001
 20
-99.99999999999994
 30
0.0
 11
19.00000000000001
 21
-105.9999999999999
 31
0.0
  0
LINE
  5
1C4
  8
ZUWAKU
  6
CONTINUOUS
 62
     4
 10
13.00000000000001
 20
-105.9999999999999
 30
0.0
 11
19.00000000000001
 21
-105.9999999999999
 31
0.0
  0
LINE
  5
1C5
  8
ZUWAKU
  6
CONTINUOUS
 62
     4
 10
16.00000000000001
 20
-92.99999999999994
 30
0.0
 11
13.00000000000001
 21
-98.99999999999994
 31
0.0
  0
LINE
  5
1C6
  8
ZUWAKU
  6
CONTINUOUS
 62
     4
 10
16.00000000000001
 20
-92.99999999999994
 30
0.0
 11
19.00000000000001
 21
-98.99999999999994
 31
0.0
  0
LINE
  5
1C7
  8
ZUWAKU
  6
CONTINUOUS
 62
     4
 10
13.00000000000001
 20
-98.99999999999994
 30
0.0
 11
19.00000000000001
 21
-98.99999999999994
 31
0.0
  0
LINE
  5
1C8
  8
ZUWAKU
  6
CONTINUOUS
 62
     4
 10
16.00000000000001
 20
-85.99999999999994
 30
0.0
 11
13.00000000000001
 21
-91.99999999999994
 31
0.0
  0
LINE
  5
1C9
  8
ZUWAKU
  6
CONTINUOUS
 62
     4
 10
16.00000000000001
 20
-85.99999999999994
 30
0.0
 11
19.00000000000001
 21
-91.99999999999994
 31
0.0
  0
LINE
  5
1CA
  8
ZUWAKU
  6
CONTINUOUS
 62
     4
 10
13.00000000000001
 20
-91.99999999999994
 30
0.0
 11
19.00000000000001
 21
-91.99999999999994
 31
0.0
  0
LINE
  5
1CB
  8
ZUWAKU
  6
CONTINUOUS
 62
     4
 10
87.66666666666664
 20
-124.4999999999999
 30
0.0
 11
87.66666666666664
 21
-110.4999999999999
 31
0.0
  0
LINE
  5
1CC
  8
ZUWAKU
  6
CONTINUOUS
 62
     4
 10
114.3333333333333
 20
-124.4999999999999
 30
0.0
 11
114.3333333333333
 21
-110.4509415757252
 31
0.0
  0
LINE
  5
1CD
  8
ZUWAKU
  6
CONTINUOUS
 62
     4
 10
127.6666666666666
 20
-115.9999999999999
 30
0.0
 11
127.6666666666666
 21
-110.4509415757252
 31
0.0
  0
LINE
  5
1CE
  8
ZUWAKU
  6
CONTINUOUS
 62
     4
 10
141.0
 20
-103.4999999999999
 30
0.0
 11
170.0
 21
-103.4999999999999
 31
0.0
  0
LINE
  5
1CF
  8
ZUWAKU
  6
CONTINUOUS
 62
     4
 10
60.99999999999999
 20
-114.4999999999999
 30
0.0
 11
141.0
 21
-114.4999999999999
 31
0.0
  0
TEXT
  5
1D1
  8
ZUWAKU
 62
     7
 10
63.31323014747473
 20
-79.32118872895592
 30
0.0
 40
2.6656
  1
符号
 41
0.8
  7
FDASTYLE0
  0
TEXT
  5
1D2
  8
ZUWAKU
 62
     7
 10
77.41413112190584
 20
-84.32455250199624
 30
0.0
 40
4.0
  1
品       名
 41
0.7659574468085105
  7
FDASTYLE1
 72
     5
 11
106.2141311219058
 21
-84.32455250199624
 31
0.0
  0
TEXT
  5
1D3
  8
ZUWAKU
 62
     7
 10
122.2331564413096
 20
-84.32455250199624
 30
0.0
 40
4.0
  1
材  料
 41
0.7272727272727271
  7
FDASTYLE1
 72
     5
 11
135.0331564413096
 21
-84.32455250199624
 31
0.0
  0
TEXT
  5
1D4
  8
ZUWAKU
 62
     7
 10
144.516061684855
 20
-84.32455250199624
 30
0.0
 40
4.0
  1
個 数
 41
0.7058823529411761
  7
FDASTYLE1
 72
     5
 11
154.116061684855
 21
-84.32455250199624
 31
0.0
  0
TEXT
  5
1D5
  8
ZUWAKU
 62
     7
 10
160.721810952888
 20
-82.06490800505719
 30
0.0
 40
2.5
  1
単重量
 41
0.6666666666666666
  7
FDASTYLE1
 72
     5
 11
166.721810952888
 21
-82.06490800505719
 31
0.0
  0
TEXT
  5
1D6
  8
ZUWAKU
 62
     7
 10
159.7089516236359
 20
-85.86313048975242
 30
0.0
 40
2.5
  1
(kg)
 41
0.8
  7
FDASTYLE1
 72
     5
 11
167.7089516236359
 21
-85.86313048975242
 31
0.0
  0
TEXT
  5
1D7
  8
ZUWAKU
 62
     7
 10
174.1421970654778
 20
-84.32455250199624
 30
0.0
 40
4.0
  1
記  事
 41
0.7272727272727279
  7
FDASTYLE1
 72
     5
 11
186.9421970654778
 21
-84.32455250199624
 31
0.0
  0
TEXT
  5
1D8
  8
ZUWAKU
 62
     7
 10
173.8450794551645
 20
-113.9873041997729
 30
0.0
 40
3.0
  1
コード番号
 41
0.6666666666666666
  7
FDASTYLE1
 72
     5
 11
185.8450794551645
 21
-113.9873041997729
 31
0.0
  0
TEXT
  5
1D9
  8
ZUWAKU
 62
     7
 10
16.91199201583167
 20
-123.6879010540338
 30
0.0
 40
2.5
  1
訂 正 来 歴
 41
0.717948717948718
  7
FDASTYLE1
 72
     5
 11
30.91199201583167
 21
-123.6879010540338
 31
0.0
  0
TEXT
  5
1DA
  8
ZUWAKU
 62
     7
 10
40.89033484676499
 20
-123.7166697391651
 30
0.0
 40
2.5
  1
工 事 番 号
 41
0.717948717948718
  7
FDASTYLE1
 72
     5
 11
54.89033484676499
 21
-123.7166697391651
 31
0.0
  0
TEXT
  5
1DB
  8
ZUWAKU
 62
     7
 10
14.96483784660289
 20
-114.4634530565915
 30
0.0
 40
2.0825
  1
記号
 41
0.8
  7
FDASTYLE0
  0
TEXT
  5
1DC
  8
ZUWAKU
 62
     7
 10
20.90422490676183
 20
-114.4634530565915
 30
0.0
 40
2.0825
  1
理由
 41
0.8
  7
FDASTYLE0
  0
TEXT
  5
1DD
  8
ZUWAKU
 62
     7
 10
26.61936679098429
 20
-118.3786046700178
 30
0.0
 40
3.0
  1
日 付
 41
0.7058823529411769
  7
FDASTYLE1
 72
     5
 11
33.8193667909843
 21
-118.3786046700178
 31
0.0
  0
TEXT
  5
1DE
  8
ZUWAKU
 62
     7
 10
68.44816898196524
 20
-114.2187911464244
 30
0.0
 40
3.0
  1
承   認
 41
0.7407407407407408
  7
FDASTYLE1
 72
     5
 11
80.44816898196524
 21
-114.2187911464244
 31
0.0
  0
TEXT
  5
1DF
  8
ZUWAKU
 62
     7
 10
94.86322803323402
 20
-113.9873041997729
 30
0.0
 40
3.0
  1
検   図
 41
0.7407407407407408
  7
FDASTYLE1
 72
     5
 11
106.863228033234
 21
-113.9873041997729
 31
0.0
  0
TEXT
  5
1E0
  8
ZUWAKU
 62
     7
 10
116.4771920983751
 20
-113.9873041997729
 30
0.0
 40
3.0
  1
担  当
 41
0.7272727272727269
  7
FDASTYLE1
 72
     5
 11
126.0771920983751
 21
-113.9873041997729
 31
0.0
  0
TEXT
  5
1E1
  8
ZUWAKU
 62
     7
 10
129.6770574841112
 20
-113.9873041997729
 30
0.0
 40
3.0
  1
製  図
 41
0.7272727272727269
  7
FDASTYLE1
 72
     5
 11
139.2770574841112
 21
-113.9873041997729
 31
0.0
  0
TEXT
  5
1E2
  8
ZUWAKU
 62
     7
 10
141.9462372304199
 20
-101.7184960272417
 30
0.0
 40
3.0
  1
作図
 41
0.6666666666666683
  7
FDASTYLE1
 72
     5
 11
146.7462372304199
 21
-101.7184960272417
 31
0.0
  0
TEXT
  5
1E3
  8
ZUWAKU
 62
     7
 10
143.1036719636776
 20
-108.7371566401815
 30
0.0
 40
4.0
  1
第 三 角 法
 41
0.7179487179487182
  7
FDASTYLE1
 72
     5
 11
165.5036719636776
 21
-108.7371566401815
 31
0.0
  0
TEXT
  5
1E4
  8
ZUWAKU
 62
     7
 10
142.409211123723
 20
-114.913251986379
 30
0.0
 40
3.0
  1
尺度
 41
0.6666666666666683
  7
FDASTYLE1
 72
     5
 11
147.209211123723
 21
-114.913251986379
 31
0.0
  0
TEXT
  5
1E6
  8
ZUWAKU
 62
     3
 10
20.37915437003404
 20
-134.4272077185016
 30
0.0
 40
7.0
  1
株式会社 野村製作所
 41
0.5763738641280831
  7
FDASTYLE2
 72
     5
 11
76.37915437003404
 21
-134.4272077185016
 31
0.0
  0
TEXT
  5
1E8
  8
ZUWAKU
 62
     3
 10
98.61182179341655
 20
-135.6216685584562
 30
0.0
 40
8.0
  1
３－
 41
0.8244023083264632
  7
FDASTYLE3
 72
     5
 11
114.6118217934166
 21
-135.6216685584562
 31
0.0
  0
TEXT
  5
1E9
  8
ZUWAKU
 62
     3
 10
115.5237794178233
 20
-135.6216685584562
 30
0.0
 40
8.0
  1
9305023
 41
1.564945226917058
  7
FDASTYLE3
 72
     5
 11
171.5237794178233
 21
-135.6216685584562
 31
0.0
  0
TEXT
  5
1EA
  8
ZUWAKU
 62
     6
 10
145.7056952989098
 20
-93.7216474852281
 30
0.0
 40
3.2
  1
一式
 41
0.7610475333317444
  7
FDASTYLE1
 72
     5
 11
152.2463546989098
 21
-93.7216474852281
 31
0.0
  0
TEXT
  5
1EB
  8
ZUWAKU
 62
     6
 10
81.89523347633649
 20
-93.85890002285609
 30
0.0
 40
5.0
  1
外　形　図
 41
0.5833333333333334
  7
FDASTYLE1
 72
     5
 11
99.39523347633649
 21
-93.85890002285609
 31
0.0
  0
TEXT
  5
1EC
  8
ZUWAKU
 62
     4
 10
151.8208864698005
 20
-120.3093119866973
 30
0.0
 40
4.0
  1
1/1
 41
0.7999999999999995
  7
FDASTYLE1
 72
     5
 11
161.4208864698005
 21
-120.3093119866973
 31
0.0
  0
TEXT
  5
1ED
  8
0
 62
     6
 10
64.86815394284068
 20
-102.7072071313602
 30
0.0
 40
5.0
  1
日鋼プﾚｼジｫﾝ
 41
0.8583403611075855
  7
FDASTYLE1
 72
     5
 11
109.8791379428407
 21
-102.7072071313602
 31
0.0
  0
TEXT
  5
1EE
  8
0
 62
     6
 10
64.66736284309491
 20
-109.5473278366374
 30
0.0
 40
5.0
  1
  MO3-5型チャック
 41
0.8628214532885973
  7
FDASTYLE1
 72
     5
 11
132.8871348430949
 21
-109.5473278366374
 31
0.0
  0
TEXT
  5
1EF
  8
0
 62
     6
 10
-147.1135112050816
 20
-85.56776212227742
 30
0.0
 40
3.0
  1
爪ノｽﾄﾛ-ｸ            
 41
0.8980686729776907
  7
FDASTYLE1
 72
     5
 11
-78.96034777200663
 21
-85.56776212227742
 31
0.0
  0
TEXT
  5
1F0
  8
0
 62
     6
 10
-78.04990574753724
 20
-85.19276212227742
 30
0.0
 40
2.25
  1
（直径ﾆﾃ）
 41
0.8472481677389405
  7
FDASTYLE1
 72
     5
 11
-62.44231048262559
 21
-85.19276212227742
 31
0.0
  0
TEXT
  5
1F1
  8
0
 62
     6
 10
-61.53186845815621
 20
-85.56776212227742
 30
0.0
 40
3.0
  1
   12 mm
 41
0.8980337423383251
  7
FDASTYLE1
 72
     5
 11
-33.43819737470589
 21
-85.56776212227742
 31
0.0
  0
TEXT
  5
1F2
  8
0
 62
     6
 10
-147.1378935579106
 20
-91.2677590705196
 30
0.0
 40
3.0
  1
ピｽﾄﾝｽﾄﾛ-ｸ                 20 mm
 41
0.9164469705543989
  7
FDASTYLE1
 72
     5
 11
-33.18658411539042
 21
-91.2677590705196
 31
0.0
  0
TEXT
  5
1F3
  8
0
 62
     6
 10
-147.1378935579106
 20
-96.96775601876179
 30
0.0
 40
3.0
  1
推奨ｼﾘﾝダ              FM5-17SB 型
 41
0.9030225096355957
  7
FDASTYLE1
 72
     5
 11
-36.89662671125376
 21
-96.96775601876179
 31
0.0
  0
TEXT
  5
1F4
  8
0
 62
     6
 10
-147.1166690591618
 20
-102.6677605963985
 30
0.0
 40
3.0
  1
許容ｼﾘﾝダ力    
 41
0.8733220705847341
  7
FDASTYLE1
 72
     5
 11
-108.0029462579533
 21
-102.6677605963985
 31
0.0
  0
TEXT
  5
1F5
  8
0
 62
     6
 10
-116.2512860456827
 20
-102.2927605963985
 30
0.0
 40
2.25
  1
FM5-17SB型使用油圧力  1.8ＭＰａ 
 41
0.86103779044698
  7
FDASTYLE1
 72
     5
 11
-54.06046773589878
 21
-102.2927605963985
 31
0.0
  0
TEXT
  5
1F6
  8
0
 62
     6
 10
-54.026011467342
 20
-102.6677605963985
 30
0.0
 40
3.0
  1
  6 ｋN
 41
0.9160608391769991
  7
FDASTYLE1
 72
     5
 11
-33.1653587821766
 21
-102.6677605963985
 31
0.0
  0
TEXT
  5
1F7
  8
0
 62
     6
 10
-147.1378935579106
 20
-108.3677575446407
 30
0.0
 40
3.0
  1
最大静的把握力                 13.8 ｋN
 41
0.8865024575729605
  7
FDASTYLE1
 72
     5
 11
-33.18658411539042
 21
-108.3677575446407
 31
0.0
  0
TEXT
  5
1F8
  8
0
 62
     6
 10
-147.0961136821553
 20
-114.0677621222774
 30
0.0
 40
3.0
  1
最高使用回転速度               4000 min
 41
0.8650729208782636
  7
FDASTYLE1
 72
     5
 11
-36.73786997831309
 21
-114.0677621222774
 31
0.0
  0
TEXT
  5
1F9
  8
0
 62
     6
 10
-36.04624941714428
 20
-112.3050731902767
 30
0.0
 40
1.5
  1
-1
 41
0.8766034862732288
  7
FDASTYLE1
 72
     5
 11
-32.96648397811077
 21
-112.3050731902767
 31
0.0
  0
TEXT
  5
1FA
  8
0
 62
     6
 10
-147.1166690591618
 20
-119.7677590705196
 30
0.0
 40
3.0
  1
慣性モーメント              0.015 ｋg・m
 41
0.8715726619684151
  7
FDASTYLE1
 72
     5
 11
-34.99066579378092
 21
-119.7677590705196
 31
0.0
  0
TEXT
  5
1FB
  8
0
 62
     6
 10
-34.28671207793377
 20
-118.0050701385189
 30
0.0
 40
1.5
  1
2
 41
0.8691941897074381
  7
FDASTYLE1
 72
     5
 11
-32.98292079337261
 21
-118.0050701385189
 31
0.0
  0
TEXT
  5
1FC
  8
0
 62
     6
 10
-147.1378935579106
 20
-131.1677605963985
 30
0.0
 40
3.0
  1
ｱﾝバﾗﾝｽ量              
 41
0.9112010023309265
  7
FDASTYLE1
 72
     5
 11
-70.28701007402384
 21
-131.1677605963985
 31
0.0
  0
TEXT
  5
1FD
  8
0
 62
     6
 10
-69.35950042343579
 20
-130.7927605963985
 30
0.0
 40
2.25
  1
外周ﾆﾃ
 41
0.8994869133739929
  7
FDASTYLE1
 72
     5
 11
-59.02438090777837
 21
-130.7927605963985
 31
0.0
  0
TEXT
  5
1FE
  8
0
 62
     6
 10
-58.09687125719033
 20
-131.1677605963985
 30
0.0
 40
3.0
  1
  3g 以内
 41
0.9058268068682894
  7
FDASTYLE1
 72
     5
 11
-33.1865841153904
 21
-131.1677605963985
 31
0.0
  0
TEXT
  5
1FF
  8
0
 62
     6
 10
-147.1378935579106
 20
-125.4677560187618
 30
0.0
 40
3.0
  1
質 量                       6  ｋg
 41
0.9076869453609291
  7
FDASTYLE1
 72
     5
 11
-33.18658411539042
 21
-125.4677560187618
 31
0.0
  0
TEXT
  5
200
  8
0
 62
     6
 10
-147.1315596107289
 20
-79.8677575446407
 30
0.0
 40
3.0
  1
仕  様
 41
0.895779671758837
  7
FDASTYLE1
 72
     5
 11
-133.4172735217854
 21
-79.8677575446407
 31
0.0
  0
TEXT
  5
201
  8
0
 62
     7
 10
173.2434236356506
 20
-90.91440910875508
 30
0.0
 40
3.0
  1
標　準
 41
0.6666666666666656
  7
FDASTYLE1
 72
     5
 11
180.4434236356506
 21
-90.91440910875508
 31
0.0
  0
LINE
  5
202
  8
0
  6
CENTER
 62
     7
 10
17.55864754298751
 20
33.41603236466606
 30
0.0
 11
160.8032154140813
 21
33.41603236466606
 31
0.0
  0
LINE
  5
203
  8
0
  6
CENTER
 62
     7
 10
26.98559278822359
 20
-2.395321100043269
 30
0.0
 11
89.01265688621061
 21
33.41601709746576
 31
0.0
  0
LINE
  5
204
  8
0
  6
CENTER
 62
     7
 10
42.58155859698582
 20
60.22312212460285
 30
0.0
 11
68.54593440099416
 21
45.23258442100164
 31
0.0
  0
LINE
  5
205
  8
0
  6
CENTER
 62
     7
 10
89.01281902377195
 20
33.41602438008429
 30
0.0
 11
151.6586388525011
 21
-2.752552565662903
 31
0.0
  0
LINE
  5
206
  8
0
  6
CENTER
 62
     7
 10
109.8362173721653
 20
45.43850402125052
 30
0.0
 11
135.5157959319295
 21
60.2646139773892
 31
0.0
  0
LINE
  5
207
  8
0
  6
CENTER
 62
     7
 10
73.76268807033125
 20
36.95085292130668
 30
0.0
 11
73.76268807033125
 21
29.41604380875786
 31
0.0
  0
LINE
  5
208
  8
0
  6
CENTER
 62
     7
 10
104.2626880703313
 20
36.44102244645317
 30
0.0
 11
104.2626880703313
 21
29.41604380875786
 31
0.0
  0
LINE
  5
209
  8
0
  6
CENTER
 62
     7
 10
40.73394051173751
 20
80.41603617936332
 30
0.0
 11
64.97264900783125
 21
80.41603617936332
 31
0.0
  0
LINE
  5
20A
  8
0
  6
CENTER
 62
     7
 10
130.1651593073941
 20
-1.305866163824724
 30
0.0
 11
139.6080010092403
 21
15.049613188326
 31
0.0
  0
LINE
  5
20B
  8
0
  6
CENTER
 62
     7
 10
38.15598395325444
 20
15.50241807766697
 30
0.0
 11
47.78705833783329
 21
-1.179089799904453
 31
0.0
  0
LINE
  5
20C
  8
0
  6
CENTER
 62
     7
 10
53.20707465014468
 20
23.43316491500236
 30
0.0
 11
62.64993184920036
 21
7.077658720901106
 31
0.0
  0
LINE
  5
20D
  8
0
  6
CENTER
 62
     7
 10
115.3963867593932
 20
7.113869984217196
 30
0.0
 11
124.9333599421873
 21
23.63238982159917
 31
0.0
  0
LINE
  5
20E
  8
0
  6
CENTER
 62
     7
 10
79.50280037501875
 20
86.41603617936332
 30
0.0
 11
98.62133064845625
 21
86.41603617936332
 31
0.0
  0
LINE
  5
20F
  8
0
  6
CENTER
 62
     7
 10
79.50280037501875
 20
69.41603617936332
 30
0.0
 11
98.62133064845625
 21
69.41603617936332
 31
0.0
  0
LINE
  5
210
  8
0
  6
CENTER
 62
     7
 10
85.94224587062422
 20
49.41603617936332
 30
0.0
 11
92.09500923732344
 21
49.41603617936332
 31
0.0
  0
LINE
  5
211
  8
0
  6
CENTER
 62
     7
 10
76.69149517481924
 20
22.75695045179587
 30
0.0
 11
73.61511349146963
 21
28.08539973519542
 31
0.0
  0
LINE
  5
212
  8
0
  6
CENTER
 62
     7
 10
104.404319205725
 20
28.07510928060035
 30
0.0
 11
101.3279375223754
 21
22.7466599972008
 31
0.0
  0
ARC
  5
213
  8
0
  6
CENTER
 62
     7
 10
89.01268807033125
 20
33.41603236466606
 30
0.0
 40
41.27500152587891
 50
10.7246076479504
 51
46.54355228767568
  0
ARC
  5
214
  8
0
  6
CENTER
 62
     7
 10
89.01268807033125
 20
33.41603236466606
 30
0.0
 40
29.0
 50
139.0301398010103
 51
161.3326881959613
  0
ARC
  5
215
  8
0
  6
CENTER
 62
     7
 10
89.01268807033125
 20
33.41603236466606
 30
0.0
 40
41.27500152587891
 50
130.3443111769102
 51
169.4462289298844
  0
ARC
  5
216
  8
0
  6
CENTER
 62
     7
 10
89.01268807033125
 20
33.41603236466606
 30
0.0
 40
41.27500152587891
 50
251.8786313632643
 51
288.1213431372119
  0
ARC
  5
217
  8
0
  6
CENTER
 62
     7
 10
89.01268807033125
 20
33.41603236466606
 30
0.0
 40
29.0
 50
19.54028670590897
 51
40.47854238019029
  0
ARC
  5
218
  8
0
  6
CENTER
 62
     7
 10
89.01268807033125
 20
33.41603236466606
 30
0.0
 40
29.0
 50
259.5802570487222
 51
281.1433076924251
  0
LINE
  5
219
  8
0
  6
CENTER
 62
     7
 10
-129.749715132083
 20
-7.858892003055566
 30
0.0
 11
-44.84918937107499
 21
-7.858892003055566
 31
0.0
  0
LINE
  5
21A
  8
0
  6
CENTER
 62
     7
 10
-68.4467235507625
 20
4.416117152217872
 30
0.0
 11
-45.89420279880937
 21
4.416117152217872
 31
0.0
  0
LINE
  5
21B
  8
0
  6
CENTER
 62
     7
 10
-78.31824454685625
 20
49.41610380077744
 30
0.0
 11
-65.54422721287187
 21
49.41610380077744
 31
0.0
  0
LINE
  5
21C
  8
0
  6
CENTER
 62
     7
 10
-118.6880984952124
 20
33.41609998608018
 30
0.0
 11
-48.22866894197942
 21
33.41609998608018
 31
0.0
  0
LINE
  5
21D
  8
0
  6
CENTER
 62
     7
 10
-67.5009227695125
 20
86.41610380077744
 30
0.0
 11
-32.19666251560624
 21
86.41610380077744
 31
0.0
  0
LINE
  5
21E
  8
0
  6
CENTER
 62
     7
 10
-67.6129833163875
 20
69.41610380077744
 30
0.0
 11
-32.19666251560624
 21
69.41610380077744
 31
0.0
  0
LINE
  5
21F
  8
0
  6
CENTER
 62
     7
 10
89.01268807033125
 20
104.920468857586
 30
0.0
 11
89.01268807033125
 21
44.43803894196512
 31
0.0
  0
LINE
  5
220
  8
0
  6
CENTER
 62
     7
 10
89.01268807033125
 20
38.1592408401072
 30
0.0
 11
89.01268807033125
 21
-39.07952923506539
 31
0.0
  0
LINE
  5
221
  8
0
  6
CONTINUOUS
 62
     7
 10
38.36783692676795
 20
-11.41220427255886
 30
0.0
 11
32.77270026150922
 21
-14.64255757550304
 31
0.0
  0
LINE
  5
222
  8
0
  6
CONTINUOUS
 62
     2
 10
92.0437549648625
 20
67.66603617936332
 30
0.0
 11
92.0437549648625
 21
71.16603617936332
 31
0.0
  0
LINE
  5
223
  8
0
  6
CONTINUOUS
 62
     2
 10
92.0437549648625
 20
84.66603617936332
 30
0.0
 11
92.0437549648625
 21
88.16603617936332
 31
0.0
  0
LINE
  5
224
  8
0
  6
CONTINUOUS
 62
     2
 10
85.98156014064375
 20
71.16603617936332
 30
0.0
 11
85.98156014064375
 21
67.66603617936332
 31
0.0
  0
LINE
  5
225
  8
0
  6
CONTINUOUS
 62
     2
 10
89.01266662638716
 20
89.91604336886914
 30
0.0
 11
85.98157693307928
 21
88.16604472487481
 31
0.0
  0
LINE
  5
226
  8
0
  6
CONTINUOUS
 62
     2
 10
89.01266345566654
 20
72.91603571187451
 30
0.0
 11
85.98158036960984
 21
71.16604088257449
 31
0.0
  0
LINE
  5
227
  8
0
  6
CONTINUOUS
 62
     2
 10
92.04374587637017
 20
71.16603556106335
 30
0.0
 11
89.01265785199234
 21
72.91603702137715
 31
0.0
  0
LINE
  5
228
  8
0
  6
CONTINUOUS
 62
     2
 10
93.08298778499852
 20
-5.508998577192436
 30
0.0
 11
89.01266097023586
 21
-3.15898687082565
 31
0.0
  0
LINE
  5
229
  8
0
  6
CONTINUOUS
 62
     2
 10
93.08300057033125
 20
-10.20895809859078
 30
0.0
 11
93.08300057033125
 21
-5.50896115034859
 31
0.0
  0
LINE
  5
22A
  8
0
  6
CONTINUOUS
 62
     2
 10
89.01268371478955
 20
-12.55904190328831
 30
0.0
 11
93.08301613240337
 21
-10.20904000191106
 31
0.0
  0
LINE
  5
22B
  8
0
  6
CONTINUOUS
 62
     2
 10
84.94234929686832
 20
-10.20894397329223
 30
0.0
 11
89.01267723220121
 21
-12.55895343851855
 31
0.0
  0
LINE
  5
22C
  8
0
  6
CONTINUOUS
 62
     2
 10
84.942314535175
 20
-5.508953520954059
 30
0.0
 11
84.942314535175
 21
-10.20895046919625
 31
0.0
  0
LINE
  5
22D
  8
0
  6
CONTINUOUS
 62
     2
 10
89.01264764470511
 20
-3.158958318873623
 30
0.0
 11
84.94236808511892
 21
-5.508929562657862
 31
0.0
  0
LINE
  5
22E
  8
0
  6
CONTINUOUS
 62
     2
 10
123.2206958828313
 20
13.66604762345512
 30
0.0
 11
123.2206958828313
 21
17.16604762345512
 31
0.0
  0
LINE
  5
22F
  8
0
  6
CONTINUOUS
 62
     2
 10
120.189592935404
 20
11.91605668853502
 30
0.0
 11
123.2206753956133
 21
13.66605256091405
 31
0.0
  0
LINE
  5
230
  8
0
  6
CONTINUOUS
 62
     2
 10
117.1584619557355
 20
13.66606240651479
 30
0.0
 11
120.189550605962
 21
11.91606198928228
 31
0.0
  0
LINE
  5
231
  8
0
  6
CONTINUOUS
 62
     2
 10
117.1585010586125
 20
17.16604762345512
 30
0.0
 11
117.1585010586125
 21
13.66604762345512
 31
0.0
  0
LINE
  5
232
  8
0
  6
CONTINUOUS
 62
     2
 10
123.2206444101091
 20
17.16605477370556
 30
0.0
 11
120.1895563857313
 21
18.91605623401936
 31
0.0
  0
LINE
  5
233
  8
0
  6
CONTINUOUS
 62
     2
 10
120.1895958805989
 20
18.91607105851447
 30
0.0
 11
117.1585127945422
 21
17.16607622921445
 31
0.0
  0
LINE
  5
234
  8
0
  6
CONTINUOUS
 62
     2
 10
137.9431079922063
 20
5.166047623455121
 30
0.0
 11
137.9431079922063
 21
8.666047623455121
 31
0.0
  0
LINE
  5
235
  8
0
  6
CONTINUOUS
 62
     2
 10
134.9120054658936
 20
3.416071877117226
 30
0.0
 11
137.9430945333527
 21
5.166071564192841
 31
0.0
  0
LINE
  5
236
  8
0
  6
CONTINUOUS
 62
     2
 10
131.8808925425503
 20
5.166060379956868
 30
0.0
 11
134.9119811927769
 21
3.416059962724354
 31
0.0
  0
LINE
  5
237
  8
0
  6
CONTINUOUS
 62
     2
 10
131.8809131679875
 20
8.666047623455121
 30
0.0
 11
131.8809131679875
 21
5.166049530803754
 31
0.0
  0
LINE
  5
238
  8
0
  6
CONTINUOUS
 62
     2
 10
137.9430719570871
 20
8.666047680752833
 30
0.0
 11
134.9119839327093
 21
10.41604914106663
 31
0.0
  0
LINE
  5
239
  8
0
  6
CONTINUOUS
 62
     2
 10
134.9120293167615
 20
10.4160551633938
 30
0.0
 11
131.8809396234536
 21
8.666056519399469
 31
0.0
  0
LINE
  5
23A
  8
0
  6
CONTINUOUS
 62
     2
 10
60.86681404689376
 20
13.66604380875786
 30
0.0
 11
60.86681404689376
 21
17.16604380875786
 31
0.0
  0
LINE
  5
23B
  8
0
  6
CONTINUOUS
 62
     2
 10
57.83576633898691
 20
11.91605930844728
 30
0.0
 11
60.86685540644601
 21
13.6660589955229
 31
0.0
  0
LINE
  5
23C
  8
0
  6
CONTINUOUS
 62
     2
 10
54.80469145422536
 20
13.66604234352324
 30
0.0
 11
57.83578010445195
 21
11.91604192629072
 31
0.0
  0
LINE
  5
23D
  8
0
  6
CONTINUOUS
 62
     2
 10
54.80468025783126
 20
17.16604762345512
 30
0.0
 11
54.80468025783126
 21
13.66604762345512
 31
0.0
  0
LINE
  5
23E
  8
0
  6
CONTINUOUS
 62
     2
 10
60.86686231791851
 20
17.16602804247439
 30
0.0
 11
57.83577429354069
 21
18.91602950278818
 31
0.0
  0
LINE
  5
23F
  8
0
  6
CONTINUOUS
 62
     2
 10
57.83573792769165
 20
18.91604221468194
 30
0.0
 11
54.80464823438377
 21
17.16604357068761
 31
0.0
  0
LINE
  5
240
  8
0
  6
CONTINUOUS
 62
     2
 10
46.14440193751876
 20
5.166045716106488
 30
0.0
 11
46.14440193751876
 21
8.666047623455121
 31
0.0
  0
LINE
  5
241
  8
0
  6
CONTINUOUS
 62
     2
 10
43.11333372561411
 20
3.416060828365723
 30
0.0
 11
46.14442279307321
 21
5.166060515441338
 31
0.0
  0
LINE
  5
242
  8
0
  6
CONTINUOUS
 62
     2
 10
40.08225309228943
 20
5.166035142467969
 30
0.0
 11
43.11334174251602
 21
3.416034725235456
 31
0.0
  0
LINE
  5
243
  8
0
  6
CONTINUOUS
 62
     2
 10
40.08220711330001
 20
8.666047623455121
 30
0.0
 11
40.08220711330001
 21
5.166049530803754
 31
0.0
  0
LINE
  5
244
  8
0
  6
CONTINUOUS
 62
     2
 10
46.14442108827121
 20
8.666026007194411
 30
0.0
 11
43.11333306389339
 21
10.41602746750821
 31
0.0
  0
LINE
  5
245
  8
0
  6
CONTINUOUS
 62
     2
 10
43.11330227448196
 20
10.41604880099519
 30
0.0
 11
40.08221258117408
 21
8.666050157000861
 31
0.0
  0
LINE
  5
246
  8
0
  6
CONTINUOUS
 62
     2
 10
92.04376337373992
 20
88.1660512965436
 30
0.0
 11
89.0126753493621
 21
89.9160527568574
 31
0.0
  0
LINE
  5
247
  8
0
  6
CONTINUOUS
 62
     2
 10
85.98156014064375
 20
88.16603617936332
 30
0.0
 11
85.98156014064375
 21
84.66603617936332
 31
0.0
  0
LINE
  5
248
  8
0
  6
CONTINUOUS
 62
     2
 10
85.9815564297794
 20
67.66606101182603
 30
0.0
 11
89.012645080006
 21
65.91606059459352
 31
0.0
  0
LINE
  5
249
  8
0
  6
CONTINUOUS
 62
     2
 10
89.01268810987938
 20
65.91605227240709
 30
0.0
 11
92.04377057008867
 21
67.66604814478612
 31
0.0
  0
LINE
  5
24A
  8
0
  6
CONTINUOUS
 62
     2
 10
85.98155276080593
 20
84.6660504176925
 30
0.0
 11
89.01264141103252
 21
82.91605000045999
 31
0.0
  0
LINE
  5
24B
  8
0
  6
CONTINUOUS
 62
     2
 10
89.01268544152151
 20
82.91604445263781
 30
0.0
 11
92.04377450898062
 21
84.66604413971342
 31
0.0
  0
CIRCLE
  5
24C
  8
0
  6
CONTINUOUS
 62
     2
 10
89.01268807033125
 20
86.41603617936332
 30
0.0
 40
6.5
  0
CIRCLE
  5
24D
  8
0
  6
CONTINUOUS
 62
     2
 10
89.01268807033125
 20
69.41603617936332
 30
0.0
 40
6.5
  0
CIRCLE
  5
24E
  8
0
  6
CONTINUOUS
 62
     2
 10
89.01268807033125
 20
-7.858959624469684
 30
0.0
 40
8.0
  0
CIRCLE
  5
24F
  8
0
  6
CONTINUOUS
 62
     2
 10
120.1895679531438
 20
15.41604762345512
 30
0.0
 40
6.5
  0
CIRCLE
  5
250
  8
0
  6
CONTINUOUS
 62
     2
 10
134.912041097675
 20
6.916049530803754
 30
0.0
 40
6.5
  0
CIRCLE
  5
251
  8
0
  6
CONTINUOUS
 62
     2
 10
57.83574715236251
 20
15.41604762345512
 30
0.0
 40
6.5
  0
CIRCLE
  5
252
  8
0
  6
CONTINUOUS
 62
     2
 10
43.11333504298751
 20
6.916049530803754
 30
0.0
 40
6.5
  0
LINE
  5
253
  8
0
  6
CONTINUOUS
 62
     3
 10
25.97105630108126
 20
12.60739263998686
 30
0.0
 11
66.13621078282449
 21
35.79675283005883
 31
0.0
  0
LINE
  5
254
  8
0
  6
CONTINUOUS
 62
     3
 10
39.47105523192295
 20
-10.77529399372067
 30
0.0
 11
79.6362625716647
 21
12.4140967139276
 31
0.0
  0
LINE
  5
255
  8
0
  6
CONTINUOUS
 62
     3
 10
98.38914522153118
 20
12.41410808512317
 30
0.0
 11
138.5543525612729
 21
-10.7752826225251
 31
0.0
  0
LINE
  5
256
  8
0
  6
CONTINUOUS
 62
     3
 10
111.8891068176581
 20
35.79685212352613
 30
0.0
 11
152.0543141573999
 21
12.60746141587786
 31
0.0
  0
LINE
  5
257
  8
0
  6
CONTINUOUS
 62
     3
 10
75.51268807033125
 20
98.41603617936332
 30
0.0
 11
75.51268807033125
 21
52.03725962907036
 31
0.0
  0
LINE
  5
258
  8
0
  6
CONTINUOUS
 62
     3
 10
102.5126880703313
 20
98.41603617936332
 30
0.0
 11
102.5126880703313
 21
52.03725962907036
 31
0.0
  0
LINE
  5
259
  8
0
  6
CONTINUOUS
 62
     3
 10
94.51268807033125
 20
82.95194011002738
 30
0.0
 11
94.51268807033125
 21
72.88013224869926
 31
0.0
  0
LINE
  5
25A
  8
0
  6
CONTINUOUS
 62
     3
 10
71.01268807033125
 20
97.21027140885551
 30
0.0
 11
71.01268807033125
 21
95.87402110367972
 31
0.0
  0
LINE
  5
25B
  8
0
  6
CONTINUOUS
 62
     3
 10
134.102922772784
 20
-13.40140111983694
 30
0.0
 11
135.2601429345077
 21
-14.06952241790443
 31
0.0
  0
LINE
  5
25C
  8
0
  6
CONTINUOUS
 62
     3
 10
107.0126880703313
 20
97.21027140885551
 30
0.0
 11
107.0126880703313
 21
95.87401347428519
 31
0.0
  0
LINE
  5
25D
  8
0
  6
CONTINUOUS
 62
     3
 10
24.76526616999035
 20
17.10738192038341
 30
0.0
 11
25.92248633171402
 21
17.7755032184509
 31
0.0
  0
LINE
  5
25E
  8
0
  6
CONTINUOUS
 62
     3
 10
42.76526485868818
 20
-14.0695337891
 30
0.0
 11
43.92248502041185
 21
-13.40141249103251
 31
0.0
  0
LINE
  5
25F
  8
0
  6
CONTINUOUS
 62
     3
 10
115.5783624087792
 20
24.42918161080659
 30
0.0
 11
119.5783628856163
 21
31.3573847167331
 31
0.0
  0
LINE
  5
260
  8
0
  6
CONTINUOUS
 62
     3
 10
67.94696893638115
 20
14.90292114375277
 30
0.0
 11
71.94696941321831
 21
7.974718037826257
 31
0.0
  0
LINE
  5
261
  8
0
  6
CONTINUOUS
 62
     3
 10
68.69697212063238
 20
13.60381335311215
 30
0.0
 11
69.92951493025521
 21
14.31542219741571
 31
0.0
  0
LINE
  5
262
  8
0
  6
CONTINUOUS
 62
     3
 10
61.69701037549384
 20
25.72822615657103
 30
0.0
 11
62.92950032711814
 21
26.43980448329828
 31
0.0
  0
LINE
  5
263
  8
0
  6
CONTINUOUS
 62
     3
 10
108.0958705225185
 20
14.31551694418611
 30
0.0
 11
109.3284133321413
 21
13.60390809988255
 31
0.0
  0
LINE
  5
264
  8
0
  6
CONTINUOUS
 62
     3
 10
115.0958548464978
 20
26.43984678502327
 30
0.0
 11
116.3283976561206
 21
25.72823794071972
 31
0.0
  0
LINE
  5
265
  8
0
  6
CONTINUOUS
 62
     3
 10
110.0783980286496
 20
14.90291984265148
 30
0.0
 11
114.4396057710101
 21
12.38497565679516
 31
0.0
  0
LINE
  5
266
  8
0
  6
CONTINUOUS
 62
     3
 10
115.5784129596123
 20
24.42922619795079
 30
0.0
 11
119.9396207019727
 21
21.91128201209447
 31
0.0
  0
LINE
  5
267
  8
0
  6
CONTINUOUS
 62
     3
 10
152.1028841006901
 20
17.77557194917515
 30
0.0
 11
153.2601042624137
 21
17.10745065110766
 31
0.0
  0
LINE
  5
268
  8
0
  6
CONTINUOUS
 62
     3
 10
29.97105603658564
 20
5.679189102389934
 30
0.0
 11
37.36335284640517
 21
9.947133183938128
 31
0.0
  0
LINE
  5
269
  8
0
  6
CONTINUOUS
 62
     3
 10
35.47100261234301
 20
-3.847120928533307
 30
0.0
 11
42.86335228016106
 21
0.4208536705911925
 31
0.0
  0
LINE
  5
26A
  8
0
  6
CONTINUOUS
 62
     3
 10
106.0783612762909
 20
7.974699234231117
 30
0.0
 11
110.0783617531281
 21
14.90290234015763
 31
0.0
  0
LINE
  5
26B
  8
0
  6
CONTINUOUS
 62
     3
 10
58.44695248456605
 20
31.35743005417705
 30
0.0
 11
62.44696804231146
 21
24.42920082735481
 31
0.0
  0
LINE
  5
26C
  8
0
  6
CONTINUOUS
 62
     3
 10
75.51268807033125
 20
98.41603617936332
 30
0.0
 11
102.5126880703313
 21
98.41603617936332
 31
0.0
  0
LINE
  5
26D
  8
0
  6
CONTINUOUS
 62
     3
 10
138.5543661933164
 20
-10.77533351852483
 30
0.0
 11
152.0543678026418
 21
12.60735196397716
 31
0.0
  0
LINE
  5
26E
  8
0
  6
CONTINUOUS
 62
     3
 10
25.97103094311729
 20
12.60737496100799
 30
0.0
 11
39.47103261297867
 21
-10.77531062634537
 31
0.0
  0
LINE
  5
26F
  8
0
  6
CONTINUOUS
 62
     3
 10
71.0126498447637
 20
97.21019950927186
 30
0.0
 11
75.51265908299615
 21
98.41597322185336
 31
0.0
  0
LINE
  5
270
  8
0
  6
CONTINUOUS
 62
     3
 10
102.5126907976649
 20
98.41600955789951
 30
0.0
 11
107.0126410804644
 21
97.21025164237696
 31
0.0
  0
LINE
  5
271
  8
0
  6
CONTINUOUS
 62
     3
 10
152.0542712507313
 20
12.60738067216514
 30
0.0
 11
153.2600432663633
 21
17.10738254096848
 31
0.0
  0
LINE
  5
272
  8
0
  6
CONTINUOUS
 62
     3
 10
24.76519386448656
 20
17.1073916465683
 30
0.0
 11
25.97096588011852
 21
12.60738977776496
 31
0.0
  0
LINE
  5
273
  8
0
  6
CONTINUOUS
 62
     3
 10
39.47104192329881
 20
-10.77527288569925
 30
0.0
 11
42.76525600860351
 21
-14.06948669332248
 31
0.0
  0
LINE
  5
274
  8
0
  6
CONTINUOUS
 62
     3
 10
135.2601084287178
 20
-14.06957049367568
 30
0.0
 11
138.5543009348346
 21
-10.77537826523851
 31
0.0
  0
LINE
  5
275
  8
0
  6
CONTINUOUS
 62
     3
 10
83.51268807033125
 20
82.95194011002738
 30
0.0
 11
83.51268807033125
 21
72.88013224869926
 31
0.0
  0
LINE
  5
276
  8
0
  6
CONTINUOUS
 62
     3
 10
120.439622899662
 20
8.920864535147281
 30
0.0
 11
129.1620383843829
 21
3.884976163434637
 31
0.0
  0
LINE
  5
277
  8
0
  6
CONTINUOUS
 62
     3
 10
135.1620555130348
 20
0.4208650417867617
 30
0.0
 11
142.5543523228544
 21
-3.847079039761432
 31
0.0
  0
LINE
  5
278
  8
0
  6
CONTINUOUS
 62
     3
 10
140.6620175859989
 20
9.947201914662379
 30
0.0
 11
148.0543143958184
 21
5.679257833114185
 31
0.0
  0
LINE
  5
279
  8
0
  6
CONTINUOUS
 62
     3
 10
125.9395849726261
 20
18.4472014080229
 30
0.0
 11
134.6620533153455
 21
13.41128251873395
 31
0.0
  0
LINE
  5
27A
  8
0
  6
CONTINUOUS
 62
     3
 10
48.8633165508145
 20
3.884934274662761
 30
0.0
 11
57.58578489353386
 21
8.920853163951712
 31
0.0
  0
LINE
  5
27B
  8
0
  6
CONTINUOUS
 62
     3
 10
63.5857491641873
 20
12.38493376802328
 30
0.0
 11
67.94695690654771
 21
14.9028779538796
 31
0.0
  0
LINE
  5
27C
  8
0
  6
CONTINUOUS
 62
     3
 10
58.08580258842994
 20
21.91124379894652
 30
0.0
 11
62.44701033079036
 21
24.42918798480284
 31
0.0
  0
LINE
  5
27D
  8
0
  6
CONTINUOUS
 62
     3
 10
43.36331711705861
 20
13.4112137880097
 30
0.0
 11
52.08578545977797
 21
18.44713267729865
 31
0.0
  0
LINE
  5
27E
  8
0
  6
CONTINUOUS
 62
     3
 10
94.51268807033125
 20
60.91603617936332
 30
0.0
 11
102.5126880703313
 21
60.91603617936332
 31
0.0
  0
LINE
  5
27F
  8
0
  6
CONTINUOUS
 62
     3
 10
94.51268807033125
 20
65.95193248063285
 30
0.0
 11
94.51268807033125
 21
60.91603617936332
 31
0.0
  0
LINE
  5
280
  8
0
  6
CONTINUOUS
 62
     3
 10
83.51268807033125
 20
65.95193248063285
 30
0.0
 11
83.51268807033125
 21
60.91603617936332
 31
0.0
  0
LINE
  5
281
  8
0
  6
CONTINUOUS
 62
     3
 10
82.01268807033125
 20
60.91603617936332
 30
0.0
 11
82.01268807033125
 21
59.49284129410942
 31
0.0
  0
LINE
  5
282
  8
0
  6
CONTINUOUS
 62
     3
 10
75.51268807033125
 20
60.91603617936332
 30
0.0
 11
83.51268807033125
 21
60.91603617936332
 31
0.0
  0
LINE
  5
283
  8
0
  6
CONTINUOUS
 62
     3
 10
83.51268807033125
 20
98.41603617936332
 30
0.0
 11
83.51268807033125
 21
89.88013987809379
 31
0.0
  0
LINE
  5
284
  8
0
  6
CONTINUOUS
 62
     3
 10
94.51268807033125
 20
98.41603617936332
 30
0.0
 11
94.51268807033125
 21
89.88013987809379
 31
0.0
  0
LINE
  5
285
  8
0
  6
CONTINUOUS
 62
     3
 10
96.01268807033125
 20
60.91603617936332
 30
0.0
 11
96.01268807033125
 21
59.49284129410942
 31
0.0
  0
LINE
  5
286
  8
0
  6
CONTINUOUS
 62
     3
 10
83.51268807033125
 20
93.41603617936332
 30
0.0
 11
94.51268807033125
 21
93.41603617936332
 31
0.0
  0
LINE
  5
287
  8
0
  6
CONTINUOUS
 62
     3
 10
83.51268807033125
 20
62.41603617936332
 30
0.0
 11
94.51268807033125
 21
62.41603617936332
 31
0.0
  0
LINE
  5
288
  8
0
  6
CONTINUOUS
 62
     3
 10
34.30115818327588
 20
8.179172461206413
 30
0.0
 11
39.80115907734558
 21
-1.347107222395628
 31
0.0
  0
LINE
  5
289
  8
0
  6
CONTINUOUS
 62
     3
 10
61.14791470115936
 20
23.67922716694529
 30
0.0
 11
66.64793085401993
 21
14.1529210543458
 31
0.0
  0
LINE
  5
28A
  8
0
  6
CONTINUOUS
 62
     3
 10
111.3774526934842
 20
14.1528717331689
 30
0.0
 11
116.8774533491353
 21
23.67915100381786
 31
0.0
  0
LINE
  5
28B
  8
0
  6
CONTINUOUS
 62
     3
 10
138.2242549877403
 20
-1.347103685577643
 30
0.0
 11
143.7242556433914
 21
8.179175585071313
 31
0.0
  0
ARC
  5
28C
  8
0
  6
CONTINUOUS
 62
     3
 10
89.01268807033125
 20
33.41603236466606
 30
0.0
 40
65.0
 50
0.0
 51
78.01284975637654
  0
ARC
  5
28D
  8
0
  6
CONTINUOUS
 62
     3
 10
89.01268807033125
 20
33.41603236466606
 30
0.0
 40
63.5
 50
102.2746857260698
 51
197.7252884712449
  0
ARC
  5
28E
  8
0
  6
CONTINUOUS
 62
     3
 10
89.01268807033125
 20
33.41603236466606
 30
0.0
 40
63.5
 50
222.2746448965155
 51
317.7253330190552
  0
ARC
  5
28F
  8
0
  6
CONTINUOUS
 62
     3
 10
89.01268807033125
 20
33.41603236466606
 30
0.0
 40
63.5
 50
342.2746755565764
 51
437.7253329432649
  0
ARC
  5
290
  8
0
  6
CONTINUOUS
 62
     3
 10
89.01268807033125
 20
33.41603236466606
 30
0.0
 40
25.0
 50
122.6836529660939
 51
177.316369042545
  0
CIRCLE
  5
291
  8
0
  6
CONTINUOUS
 62
     3
 10
89.01268807033125
 20
4.416049530803754
 30
0.0
 40
2.0
  0
CIRCLE
  5
292
  8
0
  6
CONTINUOUS
 62
     3
 10
53.26744881251876
 20
54.05354838639457
 30
0.0
 40
5.5
  0
CIRCLE
  5
293
  8
0
  6
CONTINUOUS
 62
     3
 10
124.7578662929875
 20
54.05354838639457
 30
0.0
 40
5.5
  0
CIRCLE
  5
294
  8
0
  6
CONTINUOUS
 62
     3
 10
89.01268807033125
 20
-7.858959624469684
 30
0.0
 40
8.5
  0
CIRCLE
  5
295
  8
0
  6
CONTINUOUS
 62
     3
 10
124.7578662929875
 20
54.05354838639457
 30
0.0
 40
8.5
  0
CIRCLE
  5
296
  8
0
  6
CONTINUOUS
 62
     3
 10
53.26744881251876
 20
54.05354838639457
 30
0.0
 40
8.5
  0
ARC
  5
297
  8
0
  6
CONTINUOUS
 62
     3
 10
89.01268807033125
 20
33.41603236466606
 30
0.0
 40
65.0
 50
101.9871689129581
 51
198.0128121145457
  0
ARC
  5
298
  8
0
  6
CONTINUOUS
 62
     3
 10
89.01268807033125
 20
33.41603236466606
 30
0.0
 40
65.0
 50
221.987134913593
 51
318.0128566623561
  0
ARC
  5
299
  8
0
  6
CONTINUOUS
 62
     3
 10
89.01268807033125
 20
33.41603236466606
 30
0.0
 40
65.0
 50
341.9871519132756
 51
360.0
  0
ARC
  5
29A
  8
0
  6
CONTINUOUS
 62
     3
 10
89.01268807033125
 20
33.41603236466606
 30
0.0
 40
27.0
 50
299.9999983303479
 51
360.0001679720572
  0
ARC
  5
29B
  8
0
  6
CONTINUOUS
 62
     3
 10
89.01268807033125
 20
33.41603236466606
 30
0.0
 40
27.0
 50
180.0000359721787
 51
239.9999693399391
  0
CIRCLE
  5
29C
  8
0
  6
CONTINUOUS
 62
     3
 10
89.01268807033125
 20
33.41603236466606
 30
0.0
 40
23.0
  0
CIRCLE
  5
29D
  8
0
  6
CONTINUOUS
 62
     3
 10
114.1274341640813
 20
47.91602854996879
 30
0.0
 40
2.0
  0
CIRCLE
  5
29E
  8
0
  6
CONTINUOUS
 62
     3
 10
63.89794197658126
 20
47.91608958512504
 30
0.0
 40
2.0
  0
CIRCLE
  5
29F
  8
0
  6
CONTINUOUS
 62
     3
 10
73.76268807033125
 20
33.41603236466606
 30
0.0
 40
1.600000023841858
  0
CIRCLE
  5
2A0
  8
0
  6
CONTINUOUS
 62
     3
 10
104.2626880703313
 20
33.41603236466606
 30
0.0
 40
1.600000023841858
  0
CIRCLE
  5
2A1
  8
0
  6
CONTINUOUS
 62
     3
 10
89.01268807033125
 20
33.41603236466606
 30
0.0
 40
20.0
  0
ARC
  5
2A2
  8
0
  6
CONTINUOUS
 62
     3
 10
89.01268807033125
 20
33.41603236466606
 30
0.0
 40
27.0
 50
60.00000166965211
 51
120.0000169996826
  0
ARC
  5
2A3
  8
0
  6
CONTINUOUS
 62
     3
 10
89.01268807033125
 20
33.41603236466606
 30
0.0
 40
25.0
 50
242.6836326271072
 51
297.3164374960174
  0
ARC
  5
2A4
  8
0
  6
CONTINUOUS
 62
     3
 10
89.01268807033125
 20
33.41603236466606
 30
0.0
 40
25.0
 50
2.683824863830603
 51
57.3163520428624
  0
CIRCLE
  5
2A5
  8
0
  6
CONTINUOUS
 62
     3
 10
89.01268807033125
 20
49.41603617936332
 30
0.0
 40
2.0
  0
CIRCLE
  5
2A6
  8
0
  6
CONTINUOUS
 62
     3
 10
75.15628090480391
 20
25.41602854996879
 30
0.0
 40
2.0
  0
CIRCLE
  5
2A7
  8
0
  6
CONTINUOUS
 62
     3
 10
102.8690952358586
 20
25.41603236466606
 30
0.0
 40
2.0
  0
LINE
  5
2A8
  8
0
  6
CONTINUOUS
 62
     3
 10
-114.4873119296688
 20
98.41611143017197
 30
0.0
 11
-114.4873119296688
 21
-2.3588881883583
 31
0.0
  0
LINE
  5
2A9
  8
0
  6
CONTINUOUS
 62
     3
 10
-62.48734244724687
 20
-16.35889200305557
 30
0.0
 11
-51.48734244724687
 21
-16.35889200305557
 31
0.0
  0
LINE
  5
2AA
  8
0
  6
CONTINUOUS
 62
     3
 10
-110.2873302402156
 20
-2.358892003055566
 30
0.0
 11
-62.48734244724687
 21
-2.358892003055566
 31
0.0
  0
LINE
  5
2AB
  8
0
  6
CONTINUOUS
 62
     3
 10
-110.2873302402156
 20
-13.35889200305557
 30
0.0
 11
-62.48734244724687
 21
-13.35889200305557
 31
0.0
  0
LINE
  5
2AC
  8
0
  6
CONTINUOUS
 62
     3
 10
-62.48731192966874
 20
0.6411118116417001
 30
0.0
 11
-62.48731192966874
 21
-16.3588881883583
 31
0.0
  0
LINE
  5
2AD
  8
0
  6
CONTINUOUS
 62
     3
 10
-62.48734244724687
 20
0.6411079969444344
 30
0.0
 11
-51.48734244724687
 21
0.6411079969444344
 31
0.0
  0
LINE
  5
2AE
  8
0
  6
CONTINUOUS
 62
     3
 10
-127.4873119296688
 20
-2.858892003055566
 30
0.0
 11
-127.4873119296688
 21
-12.85889200305557
 31
0.0
  0
LINE
  5
2AF
  8
0
  6
CONTINUOUS
 62
     3
 10
-110.2873302402156
 20
56.41610380077744
 30
0.0
 11
-103.1231700964578
 21
56.41610380077744
 31
0.0
  0
LINE
  5
2B0
  8
0
  6
CONTINUOUS
 62
     3
 10
-127.4873119296688
 20
-12.85889200305557
 30
0.0
 11
-62.48734244724687
 21
-12.85889200305557
 31
0.0
  0
LINE
  5
2B1
  8
0
  6
CONTINUOUS
 62
     3
 10
-127.4873119296688
 20
-2.858892003055566
 30
0.0
 11
-62.48734244724687
 21
-2.858892003055566
 31
0.0
  0
LINE
  5
2B2
  8
0
  6
CONTINUOUS
 62
     3
 10
-52.48731192966874
 20
0.1411118116417001
 30
0.0
 11
-52.48731192966874
 21
-15.8588881883583
 31
0.0
  0
LINE
  5
2B3
  8
0
  6
CONTINUOUS
 62
     3
 10
-114.4873424472469
 20
-21.58388284778213
 30
0.0
 11
-110.2873302402156
 21
-21.58388284778213
 31
0.0
  0
LINE
  5
2B4
  8
0
  6
CONTINUOUS
 62
     3
 10
-114.4873424472469
 20
98.41610380077744
 30
0.0
 11
-98.48734244724687
 21
98.41610380077744
 31
0.0
  0
LINE
  5
2B5
  8
0
  6
CONTINUOUS
 62
     3
 10
-114.4873424472469
 20
-31.58388284778213
 30
0.0
 11
-52.98734244724687
 21
-31.58388284778213
 31
0.0
  0
LINE
  5
2B6
  8
0
  6
CONTINUOUS
 62
     3
 10
-51.48731192966874
 20
96.91611143017197
 30
0.0
 11
-51.48731192966874
 21
93.41610380077744
 31
0.0
  0
LINE
  5
2B7
  8
0
  6
CONTINUOUS
 62
     3
 10
-62.48734244724687
 20
-15.85889200305557
 30
0.0
 11
-52.48734244724687
 21
-15.85889200305557
 31
0.0
  0
LINE
  5
2B8
  8
0
  6
CONTINUOUS
 62
     3
 10
-62.48734244724687
 20
0.1411079969444344
 30
0.0
 11
-52.48734244724687
 21
0.1411079969444344
 31
0.0
  0
LINE
  5
2B9
  8
0
  6
CONTINUOUS
 62
     3
 10
-114.4873424472469
 20
88.41610380077744
 30
0.0
 11
-110.2873302402156
 21
88.41610380077744
 31
0.0
  0
LINE
  5
2BA
  8
0
  6
CONTINUOUS
 62
     3
 10
-110.2873302402156
 20
88.41611143017197
 30
0.0
 11
-110.2873302402156
 21
-2.3588881883583
 31
0.0
  0
LINE
  5
2BB
  8
0
  6
CONTINUOUS
 62
     3
 10
-103.6231761874813
 20
55.91611143017197
 30
0.0
 11
-103.6231761874813
 21
10.91611143017197
 31
0.0
  0
LINE
  5
2BC
  8
0
  6
CONTINUOUS
 62
     3
 10
-67.62317618748125
 20
55.91611143017197
 30
0.0
 11
-67.62317618748125
 21
10.91611143017197
 31
0.0
  0
LINE
  5
2BD
  8
0
  6
CONTINUOUS
 62
     3
 10
-52.48733080655256
 20
97.91612925983857
 30
0.0
 11
-51.48732974496306
 21
96.91612819824907
 31
0.0
  0
LINE
  5
2BE
  8
0
  6
CONTINUOUS
 62
     3
 10
-53.98731192966874
 20
54.45773740673447
 30
0.0
 11
-53.98731192966874
 21
8.416111430171974
 31
0.0
  0
LINE
  5
2BF
  8
0
  6
CONTINUOUS
 62
     3
 10
-53.98734244724687
 20
8.416115244869239
 30
0.0
 11
-51.48734244724687
 21
8.416115244869239
 31
0.0
  0
LINE
  5
2C0
  8
0
  6
CONTINUOUS
 62
     3
 10
-51.4873270475648
 20
-30.0838582667133
 30
0.0
 11
-52.98733942954208
 21
-31.58387064869059
 31
0.0
  0
LINE
  5
2C1
  8
0
  6
CONTINUOUS
 62
     3
 10
-66.48734244724687
 20
60.91610380077744
 30
0.0
 11
-52.48731192966874
 21
60.91610380077744
 31
0.0
  0
LINE
  5
2C2
  8
0
  6
CONTINUOUS
 62
     3
 10
-76.62317618748125
 20
13.16611524486924
 30
0.0
 11
-75.12317618748125
 21
13.16611524486924
 31
0.0
  0
LINE
  5
2C3
  8
0
  6
CONTINUOUS
 62
     3
 10
-59.48731192966874
 20
98.41611143017197
 30
0.0
 11
-59.48731192966874
 21
93.41610380077744
 31
0.0
  0
LINE
  5
2C4
  8
0
  6
CONTINUOUS
 62
     3
 10
-53.98734244724687
 20
54.45772977733994
 30
0.0
 11
-51.48734244724687
 21
54.45772977733994
 31
0.0
  0
LINE
  5
2C5
  8
0
  6
CONTINUOUS
 62
     3
 10
-66.48734244724687
 20
52.03735013866807
 30
0.0
 11
-53.98734244724687
 21
52.03735013866807
 31
0.0
  0
LINE
  5
2C6
  8
0
  6
CONTINUOUS
 62
     3
 10
-83.62317618748125
 20
51.41611143017197
 30
0.0
 11
-83.62317618748125
 21
15.41611143017197
 31
0.0
  0
LINE
  5
2C7
  8
0
  6
CONTINUOUS
 62
     3
 10
-76.62317618748125
 20
53.66611143017197
 30
0.0
 11
-76.62317618748125
 21
29.8380055036583
 31
0.0
  0
LINE
  5
2C8
  8
0
  6
CONTINUOUS
 62
     3
 10
-98.48731192966875
 20
98.41611143017197
 30
0.0
 11
-98.48731192966875
 21
86.47036405468369
 31
0.0
  0
LINE
  5
2C9
  8
0
  6
CONTINUOUS
 62
     3
 10
-75.12317618748125
 20
53.66611143017197
 30
0.0
 11
-75.12317618748125
 21
53.41611143017197
 31
0.0
  0
LINE
  5
2CA
  8
0
  6
CONTINUOUS
 62
     3
 10
-98.48734244724687
 20
98.41610380077744
 30
0.0
 11
-52.48734244724687
 21
98.41610380077744
 31
0.0
  0
LINE
  5
2CB
  8
0
  6
CONTINUOUS
 62
     3
 10
-103.1231761874813
 20
46.06612821483994
 30
0.0
 11
-84.12317618748125
 21
46.06612821483994
 31
0.0
  0
LINE
  5
2CC
  8
0
  6
CONTINUOUS
 62
     3
 10
-103.1231761874813
 20
20.7661060895958
 30
0.0
 11
-84.12317618748125
 21
20.7661060895958
 31
0.0
  0
LINE
  5
2CD
  8
0
  6
CONTINUOUS
 62
     3
 10
-103.6231814168456
 20
55.91608602177868
 30
0.0
 11
-103.1231700964578
 21
56.41609734216646
 31
0.0
  0
LINE
  5
2CE
  8
0
  6
CONTINUOUS
 62
     3
 10
-68.12317677354696
 20
56.41611824700296
 30
0.0
 11
-67.62318703234524
 21
55.91612850580125
 31
0.0
  0
LINE
  5
2CF
  8
0
  6
CONTINUOUS
 62
     3
 10
-67.62318500929655
 20
10.91609894171196
 30
0.0
 11
-68.12317475049827
 21
10.41610920051024
 31
0.0
  0
LINE
  5
2D0
  8
0
  6
CONTINUOUS
 62
     3
 10
-103.6231827655447
 20
10.91610163911022
 30
0.0
 11
-103.123193024343
 21
10.4161118979085
 31
0.0
  0
LINE
  5
2D1
  8
0
  6
CONTINUOUS
 62
     3
 10
-76.62317618748125
 20
53.66610380077744
 30
0.0
 11
-75.12317618748125
 21
53.66610380077744
 31
0.0
  0
LINE
  5
2D2
  8
0
  6
CONTINUOUS
 62
     3
 10
-75.62317618748125
 20
13.41611524486924
 30
0.0
 11
-67.62317618748125
 21
13.41611524486924
 31
0.0
  0
LINE
  5
2D3
  8
0
  6
CONTINUOUS
 62
     3
 10
-84.12317164496221
 20
20.76610772412786
 30
0.0
 11
-83.62316129397391
 21
20.26609543434059
 31
0.0
  0
LINE
  5
2D4
  8
0
  6
CONTINUOUS
 62
     3
 10
-103.1231302990708
 20
46.06615178650812
 30
0.0
 11
-103.6231210096302
 21
46.56614060049818
 31
0.0
  0
LINE
  5
2D5
  8
0
  6
CONTINUOUS
 62
     3
 10
-75.62317618748125
 20
53.41610380077744
 30
0.0
 11
-67.62317618748125
 21
53.41610380077744
 31
0.0
  0
LINE
  5
2D6
  8
0
  6
CONTINUOUS
 62
     3
 10
-103.1231205292627
 20
20.76603264220201
 30
0.0
 11
-103.6231307959554
 21
20.26602022597134
 31
0.0
  0
LINE
  5
2D7
  8
0
  6
CONTINUOUS
 62
     3
 10
-83.62317618748125
 20
51.41610380077744
 30
0.0
 11
-76.62317618748125
 21
51.41610380077744
 31
0.0
  0
LINE
  5
2D8
  8
0
  6
CONTINUOUS
 62
     3
 10
-83.62317618748125
 20
15.41611524486924
 30
0.0
 11
-76.62317618748125
 21
15.41611524486924
 31
0.0
  0
LINE
  5
2D9
  8
0
  6
CONTINUOUS
 62
     3
 10
-84.12319443332854
 20
46.06613571710326
 30
0.0
 11
-83.62320469212682
 21
46.56612545830497
 31
0.0
  0
LINE
  5
2DA
  8
0
  6
CONTINUOUS
 62
     3
 10
-110.2873302402156
 20
10.41611524486924
 30
0.0
 11
-95.53150138279375
 21
10.41611524486924
 31
0.0
  0
LINE
  5
2DB
  8
0
  6
CONTINUOUS
 62
     3
 10
-110.2873302402156
 20
-13.3588881883583
 30
0.0
 11
-110.2873302402156
 21
-21.58388666247939
 31
0.0
  0
LINE
  5
2DC
  8
0
  6
CONTINUOUS
 62
     3
 10
-114.4873119296688
 20
-13.3588881883583
 30
0.0
 11
-114.4873119296688
 21
-31.58388666247939
 31
0.0
  0
LINE
  5
2DD
  8
0
  6
CONTINUOUS
 62
     3
 10
-65.48734244724687
 20
93.41610380077744
 30
0.0
 11
-51.48734244724687
 21
93.41610380077744
 31
0.0
  0
LINE
  5
2DE
  8
0
  6
CONTINUOUS
 62
     3
 10
-65.48734244724687
 20
62.41610380077744
 30
0.0
 11
-51.48734244724687
 21
62.41610380077744
 31
0.0
  0
LINE
  5
2DF
  8
0
  6
CONTINUOUS
 62
     3
 10
-59.48731192966874
 20
62.41610380077744
 30
0.0
 11
-59.48731192966874
 21
60.91611143017197
 31
0.0
  0
LINE
  5
2E0
  8
0
  6
CONTINUOUS
 62
     3
 10
-51.48731192966874
 20
61.59490629101182
 30
0.0
 11
-51.48731192966874
 21
-30.08388666247939
 31
0.0
  0
LINE
  5
2E1
  8
0
  6
CONTINUOUS
 62
     3
 10
-65.48731192966875
 20
93.41610380077744
 30
0.0
 11
-65.48731192966875
 21
62.41610380077744
 31
0.0
  0
LINE
  5
2E2
  8
0
  6
CONTINUOUS
 62
     3
 10
-51.48731192966874
 20
93.41610380077744
 30
0.0
 11
-51.48731192966874
 21
90.41611143017197
 31
0.0
  0
LINE
  5
2E3
  8
0
  6
CONTINUOUS
 62
     3
 10
-44.48731192966874
 20
92.91611143017197
 30
0.0
 11
-44.48731192966874
 21
79.91611143017197
 31
0.0
  0
LINE
  5
2E4
  8
0
  6
CONTINUOUS
 62
     3
 10
-44.48731192966874
 20
75.91611143017197
 30
0.0
 11
-44.48731192966874
 21
62.91611143017197
 31
0.0
  0
LINE
  5
2E5
  8
0
  6
CONTINUOUS
 62
     3
 10
-51.48731192966874
 20
82.41611143017197
 30
0.0
 11
-51.48731192966874
 21
73.41610380077744
 31
0.0
  0
LINE
  5
2E6
  8
0
  6
CONTINUOUS
 62
     3
 10
-51.48731192966874
 20
65.41611143017197
 30
0.0
 11
-51.48731192966874
 21
62.41610380077744
 31
0.0
  0
LINE
  5
2E7
  8
0
  6
CONTINUOUS
 62
     3
 10
-64.48731192966875
 20
73.41611143017197
 30
0.0
 11
-64.48731192966875
 21
65.41611143017197
 31
0.0
  0
LINE
  5
2E8
  8
0
  6
CONTINUOUS
 62
     3
 10
-64.48731192966875
 20
90.41611143017197
 30
0.0
 11
-64.48731192966875
 21
82.41611143017197
 31
0.0
  0
LINE
  5
2E9
  8
0
  6
CONTINUOUS
 62
     3
 10
-65.48734244724687
 20
90.41610380077744
 30
0.0
 11
-44.48734244724687
 21
90.41610380077744
 31
0.0
  0
LINE
  5
2EA
  8
0
  6
CONTINUOUS
 62
     3
 10
-65.48734244724687
 20
82.41610380077744
 30
0.0
 11
-44.48734244724687
 21
82.41610380077744
 31
0.0
  0
LINE
  5
2EB
  8
0
  6
CONTINUOUS
 62
     3
 10
-65.48734244724687
 20
73.41610380077744
 30
0.0
 11
-44.48734244724687
 21
73.41610380077744
 31
0.0
  0
LINE
  5
2EC
  8
0
  6
CONTINUOUS
 62
     3
 10
-65.48734244724687
 20
65.41610380077744
 30
0.0
 11
-44.48734244724687
 21
65.41610380077744
 31
0.0
  0
LINE
  5
2ED
  8
0
  6
CONTINUOUS
 62
     3
 10
-75.12317618748125
 20
13.41611143017197
 30
0.0
 11
-75.12317618748125
 21
13.16611143017197
 31
0.0
  0
LINE
  5
2EE
  8
0
  6
CONTINUOUS
 62
     3
 10
-75.62317618748125
 20
46.06612821483994
 30
0.0
 11
-67.62317618748125
 21
46.06612821483994
 31
0.0
  0
LINE
  5
2EF
  8
0
  6
CONTINUOUS
 62
     3
 10
-75.62317618748125
 20
20.7661060895958
 30
0.0
 11
-67.62317618748125
 21
20.7661060895958
 31
0.0
  0
LINE
  5
2F0
  8
0
  6
CONTINUOUS
 62
     3
 10
-75.62317618748125
 20
53.41611143017197
 30
0.0
 11
-75.62317618748125
 21
13.41611143017197
 31
0.0
  0
LINE
  5
2F1
  8
0
  6
CONTINUOUS
 62
     3
 10
-66.48734244724687
 20
98.41610380077744
 30
0.0
 11
-66.48734244724687
 21
54.91610380077744
 31
0.0
  0
LINE
  5
2F2
  8
0
  6
CONTINUOUS
 62
     3
 10
-67.2094188632625
 20
54.91610380077744
 30
0.0
 11
-66.48734244724687
 21
54.91610380077744
 31
0.0
  0
LINE
  5
2F3
  8
0
  6
CONTINUOUS
 62
     3
 10
-75.08731803318437
 20
10.41611143017197
 30
0.0
 11
-75.08731803318437
 21
2.416111430171974
 31
0.0
  0
LINE
  5
2F4
  8
0
  6
CONTINUOUS
 62
     3
 10
-80.08731803318437
 20
10.41611143017197
 30
0.0
 11
-80.08731803318437
 21
2.416111430171974
 31
0.0
  0
LINE
  5
2F5
  8
0
  6
CONTINUOUS
 62
     3
 10
-80.08731803318437
 20
2.416115244869239
 30
0.0
 11
-75.08731803318437
 21
2.416115244869239
 31
0.0
  0
LINE
  5
2F6
  8
0
  6
CONTINUOUS
 62
     3
 10
-95.62317618748125
 20
10.41611524486924
 30
0.0
 11
-53.98734244724687
 21
10.41611524486924
 31
0.0
  0
LINE
  5
2F7
  8
0
  6
CONTINUOUS
 62
     3
 10
-80.48731192966875
 20
71.4161190595665
 30
0.0
 11
-80.48731192966875
 21
65.08523221874619
 31
0.0
  0
LINE
  5
2F8
  8
0
  6
CONTINUOUS
 62
     3
 10
-80.08731803318437
 20
64.41610380077744
 30
0.0
 11
-75.08731803318437
 21
64.41610380077744
 31
0.0
  0
LINE
  5
2F9
  8
0
  6
CONTINUOUS
 62
     3
 10
-75.08731803318437
 20
60.41610380077744
 30
0.0
 11
-66.48734244724687
 21
60.41610380077744
 31
0.0
  0
LINE
  5
2FA
  8
0
  6
CONTINUOUS
 62
     3
 10
-80.08731803318437
 20
64.4161190595665
 30
0.0
 11
-80.08731803318437
 21
56.41611143017197
 31
0.0
  0
LINE
  5
2FB
  8
0
  6
CONTINUOUS
 62
     3
 10
-87.56735953709062
 20
56.41610380077744
 30
0.0
 11
-68.12317618748125
 21
56.41610380077744
 31
0.0
  0
LINE
  5
2FC
  8
0
  6
CONTINUOUS
 62
     3
 10
-75.08731803318437
 20
68.4161190595665
 30
0.0
 11
-75.08731803318437
 21
56.41611143017197
 31
0.0
  0
LINE
  5
2FD
  8
0
  6
CONTINUOUS
 62
     3
 10
-101.5873180331844
 20
10.41609998608018
 30
0.0
 11
-95.62317618748125
 21
10.41609998608018
 31
0.0
  0
LINE
  5
2FE
  8
0
  6
CONTINUOUS
 62
     3
 10
-80.48734244724687
 20
68.41610380077744
 30
0.0
 11
-75.08731803318437
 21
68.41610380077744
 31
0.0
  0
LINE
  5
2FF
  8
0
  6
CONTINUOUS
 62
     3
 10
-103.0315013827938
 20
10.41609998608018
 30
0.0
 11
-95.53150138279375
 21
10.41609998608018
 31
0.0
  0
LINE
  5
300
  8
0
  6
CONTINUOUS
 62
     3
 10
-76.62317618748125
 20
23.80355306530381
 30
0.0
 11
-76.62317618748125
 21
13.16611143017197
 31
0.0
  0
LINE
  5
301
  8
0
  6
CONTINUOUS
 62
     3
 10
-103.1231761874813
 20
56.41610380077744
 30
0.0
 11
-87.56735953709062
 21
56.41610380077744
 31
0.0
  0
LINE
  5
302
  8
0
  6
CONTINUOUS
 62
     3
 10
-75.62317618748125
 20
47.41610380077744
 30
0.0
 11
-67.62317618748125
 21
47.41610380077744
 31
0.0
  0
LINE
  5
303
  8
0
  6
CONTINUOUS
 62
     3
 10
-75.62317618748125
 20
51.41610380077744
 30
0.0
 11
-67.62317618748125
 21
51.41610380077744
 31
0.0
  0
LINE
  5
304
  8
0
  6
CONTINUOUS
 62
     3
 10
-71.62317618748125
 20
51.41610380077744
 30
0.0
 11
-71.62317618748125
 21
47.41610380077744
 31
0.0
  0
LINE
  5
305
  8
0
  6
CONTINUOUS
 62
     3
 10
-36.48731192966874
 20
92.91611143017197
 30
0.0
 11
-36.48731192966874
 21
79.91611143017197
 31
0.0
  0
LINE
  5
306
  8
0
  6
CONTINUOUS
 62
     3
 10
-36.48731192966874
 20
75.91611143017197
 30
0.0
 11
-36.48731192966874
 21
62.91611143017197
 31
0.0
  0
LINE
  5
307
  8
0
  6
CONTINUOUS
 62
     3
 10
-44.48734244724687
 20
62.91610380077744
 30
0.0
 11
-36.48731192966874
 21
62.91610380077744
 31
0.0
  0
LINE
  5
308
  8
0
  6
CONTINUOUS
 62
     3
 10
-44.48734244724687
 20
75.91610380077744
 30
0.0
 11
-36.48731192966874
 21
75.91610380077744
 31
0.0
  0
LINE
  5
309
  8
0
  6
CONTINUOUS
 62
     3
 10
-44.48734244724687
 20
79.91610380077744
 30
0.0
 11
-36.48731192966874
 21
79.91610380077744
 31
0.0
  0
LINE
  5
30A
  8
0
  6
CONTINUOUS
 62
     3
 10
-44.48734244724687
 20
92.91610380077744
 30
0.0
 11
-36.48731192966874
 21
92.91610380077744
 31
0.0
  0
ARC
  5
30B
  8
0
  6
CONTINUOUS
 62
     3
 10
89.01268807033125
 20
33.41603236466606
 30
0.0
 40
12.64999961853027
 50
157.0597263704018
 51
382.6035162812364
  0
ARC
  5
30C
  8
0
  6
CONTINUOUS
 62
     3
 10
89.01268807033125
 20
33.41603236466606
 30
0.0
 40
12.64999961853027
 50
53.3599263938052
 51
126.759956727082
  0
LINE
  5
30D
  8
0
  6
CONTINUOUS
 62
     4
 10
76.51268807033125
 20
95.41603617936332
 30
0.0
 11
82.51268807033125
 21
95.41603617936332
 31
0.0
  0
LINE
  5
30E
  8
0
  6
CONTINUOUS
 62
     4
 10
95.51268807033125
 20
90.91603617936332
 30
0.0
 11
101.5126880703313
 21
90.91603617936332
 31
0.0
  0
LINE
  5
30F
  8
0
  6
CONTINUOUS
 62
     4
 10
76.51268807033125
 20
65.41603617936332
 30
0.0
 11
82.51268807033125
 21
65.41603617936332
 31
0.0
  0
LINE
  5
310
  8
0
  6
CONTINUOUS
 62
     4
 10
95.51268807033125
 20
95.41603617936332
 30
0.0
 11
101.5126880703313
 21
95.41603617936332
 31
0.0
  0
LINE
  5
311
  8
0
  6
CONTINUOUS
 62
     4
 10
142.0591769736031
 20
10.2951746933263
 30
0.0
 11
145.059177331231
 21
15.49132702277118
 31
0.0
  0
LINE
  5
312
  8
0
  6
CONTINUOUS
 62
     4
 10
143.3582150559644
 20
9.545174603919328
 30
0.0
 11
146.3582154135922
 21
14.74132693336421
 31
0.0
  0
LINE
  5
313
  8
0
  6
CONTINUOUS
 62
     4
 10
144.6572155391216
 20
8.795231461091568
 30
0.0
 11
147.6572158967495
 21
13.99138379053645
 31
0.0
  0
LINE
  5
314
  8
0
  6
CONTINUOUS
 62
     4
 10
145.9563064794777
 20
8.045200854102838
 30
0.0
 11
148.9563068371056
 21
13.24135318354772
 31
0.0
  0
LINE
  5
315
  8
0
  6
CONTINUOUS
 62
     4
 10
132.5591758411149
 20
-6.159307683249175
 30
0.0
 11
135.5591761987428
 21
-0.9631553538042894
 31
0.0
  0
LINE
  5
316
  8
0
  6
CONTINUOUS
 62
     4
 10
133.858229182267
 20
-6.909281343658698
 30
0.0
 11
136.8582295398949
 21
-1.713129014213813
 31
0.0
  0
LINE
  5
317
  8
0
  6
CONTINUOUS
 62
     4
 10
135.1572144066333
 20
-7.659250915483902
 30
0.0
 11
138.1572147642612
 21
-2.463098586039017
 31
0.0
  0
LINE
  5
318
  8
0
  6
CONTINUOUS
 62
     4
 10
136.4563053469894
 20
-8.409281522472632
 30
0.0
 11
139.4563057046173
 21
-3.213129193027747
 31
0.0
  0
LINE
  5
319
  8
0
  6
CONTINUOUS
 62
     4
 10
113.0735517477017
 20
5.090724175437096
 30
0.0
 11
115.764607366352
 21
9.751768593635894
 31
0.0
  0
LINE
  5
31A
  8
0
  6
CONTINUOUS
 62
     4
 10
111.7745817821262
 20
5.840720176259744
 30
0.0
 11
114.7745821397541
 21
11.03687250570463
 31
0.0
  0
LINE
  5
31B
  8
0
  6
CONTINUOUS
 62
     4
 10
110.4754908417701
 20
6.590750783248474
 30
0.0
 11
113.475491199398
 21
11.78690311269336
 31
0.0
  0
LINE
  5
31C
  8
0
  6
CONTINUOUS
 62
     4
 10
118.6764914911012
 20
23.7951763026517
 30
0.0
 11
121.676491848729
 21
28.99132863209659
 31
0.0
  0
LINE
  5
31D
  8
0
  6
CONTINUOUS
 62
     4
 10
119.9754919742584
 20
23.04523315982394
 30
0.0
 11
122.9754923318862
 21
28.24138548926883
 31
0.0
  0
LINE
  5
31E
  8
0
  6
CONTINUOUS
 62
     4
 10
121.2745829146145
 20
22.29520255283521
 30
0.0
 11
124.2745832722424
 21
27.4913548822801
 31
0.0
  0
LINE
  5
31F
  8
0
  6
CONTINUOUS
 62
     4
 10
117.3774005507451
 20
24.54520690964043
 30
0.0
 11
120.3774009083729
 21
29.74135923908532
 31
0.0
  0
LINE
  5
320
  8
0
  6
CONTINUOUS
 62
     4
 10
107.8773994182568
 20
8.090724533064964
 30
0.0
 11
110.8773997758847
 21
13.28687686250985
 31
0.0
  0
LINE
  5
321
  8
0
  6
CONTINUOUS
 62
     4
 10
122.9706018777172
 20
22.23291549449957
 30
0.0
 11
125.5735532378178
 21
26.74135888145745
 31
0.0
  0
LINE
  5
322
  8
0
  6
CONTINUOUS
 62
     4
 10
109.1764903586129
 20
7.340693926076234
 30
0.0
 11
112.1764907162408
 21
12.53684625552112
 31
0.0
  0
LINE
  5
323
  8
0
  6
CONTINUOUS
 62
     4
 10
147.255329303048
 20
7.295174335698427
 30
0.0
 11
150.2553296606759
 21
12.49132666514331
 31
0.0
  0
LINE
  5
324
  8
0
  6
CONTINUOUS
 62
     4
 10
137.7553281705598
 20
-9.159308040877043
 30
0.0
 11
140.7553285281877
 21
-3.963155711432158
 31
0.0
  0
LINE
  5
325
  8
0
  6
CONTINUOUS
 62
     4
 10
76.51268807033125
 20
62.41603617936332
 30
0.0
 11
82.51268807033125
 21
62.41603617936332
 31
0.0
  0
LINE
  5
326
  8
0
  6
CONTINUOUS
 62
     4
 10
95.51268807033125
 20
62.41603617936332
 30
0.0
 11
101.5126880703313
 21
62.41603617936332
 31
0.0
  0
LINE
  5
327
  8
0
  6
CONTINUOUS
 62
     4
 10
95.51268807033125
 20
65.41603617936332
 30
0.0
 11
101.5126880703313
 21
65.41603617936332
 31
0.0
  0
LINE
  5
328
  8
0
  6
CONTINUOUS
 62
     4
 10
96.3976368008
 20
68.41603617936332
 30
0.0
 11
101.5126880703313
 21
68.41603617936332
 31
0.0
  0
LINE
  5
329
  8
0
  6
CONTINUOUS
 62
     4
 10
95.9182666836125
 20
66.91603617936332
 30
0.0
 11
101.5126880703313
 21
66.91603617936332
 31
0.0
  0
LINE
  5
32A
  8
0
  6
CONTINUOUS
 62
     4
 10
95.51268807033125
 20
63.91603617936332
 30
0.0
 11
101.5126880703313
 21
63.91603617936332
 31
0.0
  0
LINE
  5
32B
  8
0
  6
CONTINUOUS
 62
     4
 10
76.51268807033125
 20
96.91603617936332
 30
0.0
 11
82.51268807033125
 21
96.91603617936332
 31
0.0
  0
LINE
  5
32C
  8
0
  6
CONTINUOUS
 62
     4
 10
95.51268807033125
 20
96.91603617936332
 30
0.0
 11
101.5126880703313
 21
96.91603617936332
 31
0.0
  0
LINE
  5
32D
  8
0
  6
CONTINUOUS
 62
     4
 10
76.51268807033125
 20
68.41603617936332
 30
0.0
 11
81.824638753925
 21
68.41603617936332
 31
0.0
  0
LINE
  5
32E
  8
0
  6
CONTINUOUS
 62
     4
 10
95.51268807033125
 20
93.91603617936332
 30
0.0
 11
101.5126880703313
 21
93.91603617936332
 31
0.0
  0
LINE
  5
32F
  8
0
  6
CONTINUOUS
 62
     4
 10
76.51268807033125
 20
90.91603617936332
 30
0.0
 11
82.51268807033125
 21
90.91603617936332
 31
0.0
  0
LINE
  5
330
  8
0
  6
CONTINUOUS
 62
     4
 10
76.51268807033125
 20
63.91603617936332
 30
0.0
 11
82.51268807033125
 21
63.91603617936332
 31
0.0
  0
LINE
  5
331
  8
0
  6
CONTINUOUS
 62
     4
 10
76.51268807033125
 20
93.91603617936332
 30
0.0
 11
82.51268807033125
 21
93.91603617936332
 31
0.0
  0
LINE
  5
332
  8
0
  6
CONTINUOUS
 62
     4
 10
76.51268807033125
 20
66.91603617936332
 30
0.0
 11
82.112236410175
 21
66.91603617936332
 31
0.0
  0
LINE
  5
333
  8
0
  6
CONTINUOUS
 62
     4
 10
76.51268807033125
 20
92.41603617936332
 30
0.0
 11
82.51268807033125
 21
92.41603617936332
 31
0.0
  0
LINE
  5
334
  8
0
  6
CONTINUOUS
 62
     4
 10
95.51268807033125
 20
92.41603617936332
 30
0.0
 11
101.5126880703313
 21
92.41603617936332
 31
0.0
  0
CIRCLE
  5
335
  8
0
  6
CONTINUOUS
 62
     4
 10
89.01268807033125
 20
4.416049530803754
 30
0.0
 40
2.5
  0
ARC
  5
336
  8
0
  6
CONTINUOUS
 62
     4
 10
89.01268807033125
 20
33.41603236466606
 30
0.0
 40
42.0
 50
348.7493465501008
 51
368.6818619917397
  0
ARC
  5
337
  8
0
  6
CONTINUOUS
 62
     4
 10
89.01268807033125
 20
33.41603236466606
 30
0.0
 40
36.0
 50
352.0243180967371
 51
377.3467629162229
  0
ARC
  5
338
  8
0
  6
CONTINUOUS
 62
     4
 10
89.01268807033125
 20
33.41603236466606
 30
0.0
 40
42.0
 50
290.4141215283693
 51
311.25066885572
  0
ARC
  5
339
  8
0
  6
CONTINUOUS
 62
     4
 10
89.01268807033125
 20
33.41603236466606
 30
0.0
 40
36.0
 50
283.125155381996
 51
307.9756956015364
  0
ARC
  5
33A
  8
0
  6
CONTINUOUS
 62
     4
 10
89.01268807033125
 20
33.41603236466606
 30
0.0
 40
42.0
 50
228.7493227202291
 51
251.787304903872
  0
ARC
  5
33B
  8
0
  6
CONTINUOUS
 62
     4
 10
89.01268807033125
 20
33.41603236466606
 30
0.0
 40
36.0
 50
232.0242891442235
 51
257.8571574154789
  0
ARC
  5
33C
  8
0
  6
CONTINUOUS
 62
     4
 10
89.01268807033125
 20
33.41603236466606
 30
0.0
 40
42.0
 50
108.7493567195943
 51
127.8962074538376
  0
ARC
  5
33D
  8
0
  6
CONTINUOUS
 62
     4
 10
89.01268807033125
 20
33.41603236466606
 30
0.0
 40
36.0
 50
112.0243299737778
 51
137.3467440574123
  0
ARC
  5
33E
  8
0
  6
CONTINUOUS
 62
     4
 10
89.01268807033125
 20
33.41603236466606
 30
0.0
 40
30.0
 50
356.7436910914972
 51
377.9659656682615
  0
ARC
  5
33F
  8
0
  6
CONTINUOUS
 62
     4
 10
89.01268807033125
 20
33.41603236466606
 30
0.0
 40
30.0
 50
281.6191806322782
 51
303.2563285831919
  0
ARC
  5
340
  8
0
  6
CONTINUOUS
 62
     4
 10
89.01268807033125
 20
33.41603236466606
 30
0.0
 40
30.0
 50
116.7436969921223
 51
136.8862253828134
  0
ARC
  5
341
  8
0
  6
CONTINUOUS
 62
     4
 10
89.01268807033125
 20
33.41603236466606
 30
0.0
 40
30.0
 50
236.7436629927572
 51
258.1112950941168
  0
ARC
  5
342
  8
0
  6
CONTINUOUS
 62
     4
 10
89.01268807033125
 20
33.41603236466606
 30
0.0
 40
42.0
 50
48.73868287936399
 51
71.25066194974043
  0
ARC
  5
343
  8
0
  6
CONTINUOUS
 62
     4
 10
89.01268807033125
 20
33.41603236466606
 30
0.0
 40
36.0
 50
162.6532506304699
 51
187.9756442235369
  0
ARC
  5
344
  8
0
  6
CONTINUOUS
 62
     4
 10
89.01268807033125
 20
33.41603236466606
 30
0.0
 40
36.0
 50
42.65327802701693
 51
67.97568869555687
  0
ARC
  5
345
  8
0
  6
CONTINUOUS
 62
     4
 10
89.01268807033125
 20
33.41603236466606
 30
0.0
 40
42.0
 50
171.6852878832196
 51
191.2506243079096
  0
ARC
  5
346
  8
0
  6
CONTINUOUS
 62
     4
 10
89.01268807033125
 20
33.41603236466606
 30
0.0
 40
30.0
 50
41.60311936665455
 51
63.2563148470232
  0
ARC
  5
347
  8
0
  6
CONTINUOUS
 62
     4
 10
89.01268807033125
 20
33.41603236466606
 30
0.0
 40
30.0
 50
164.2916900689509
 51
183.2562840353816
  0
CIRCLE
  5
348
  8
0
  6
CONTINUOUS
 62
     4
 10
63.89794197658126
 20
47.91608958512504
 30
0.0
 40
2.5
  0
CIRCLE
  5
349
  8
0
  6
CONTINUOUS
 62
     4
 10
114.1274341640813
 20
47.91602854996879
 30
0.0
 40
2.5
  0
CIRCLE
  5
34A
  8
0
  6
CONTINUOUS
 62
     4
 10
89.01268807033125
 20
33.41603236466606
 30
0.0
 40
19.20000076293945
  0
CIRCLE
  5
34B
  8
0
  6
CONTINUOUS
 62
     4
 10
89.01268807033125
 20
49.41603617936332
 30
0.0
 40
1.5
  0
CIRCLE
  5
34C
  8
0
  6
CONTINUOUS
 62
     4
 10
75.15628090480391
 20
25.41602854996879
 30
0.0
 40
1.5
  0
CIRCLE
  5
34D
  8
0
  6
CONTINUOUS
 62
     4
 10
102.8690952358586
 20
25.41603236466606
 30
0.0
 40
1.5
  0
LINE
  5
34E
  8
0
  6
CONTINUOUS
 62
     4
 10
-95.48731192966875
 20
-2.8588881883583
 30
0.0
 11
-95.48731192966875
 21
-12.8588881883583
 31
0.0
  0
LINE
  5
34F
  8
0
  6
CONTINUOUS
 62
     4
 10
-127.4873119296688
 20
-3.658879796024316
 30
0.0
 11
-95.48731192966875
 21
-3.658879796024316
 31
0.0
  0
LINE
  5
350
  8
0
  6
CONTINUOUS
 62
     4
 10
-127.4873119296688
 20
-12.05888895129775
 30
0.0
 11
-95.48731192966875
 21
-12.05888895129775
 31
0.0
  0
LINE
  5
351
  8
0
  6
CONTINUOUS
 62
     4
 10
-52.48731192966874
 20
98.41611143017197
 30
0.0
 11
-52.48731192966874
 21
93.41610380077744
 31
0.0
  0
LINE
  5
352
  8
0
  6
CONTINUOUS
 62
     4
 10
-53.48731192966874
 20
98.41611143017197
 30
0.0
 11
-53.48731192966874
 21
93.41610380077744
 31
0.0
  0
LINE
  5
353
  8
0
  6
CONTINUOUS
 62
     4
 10
-103.1231761874813
 20
46.06611295605088
 30
0.0
 11
-103.1231761874813
 21
40.40597196483994
 31
0.0
  0
LINE
  5
354
  8
0
  6
CONTINUOUS
 62
     4
 10
-84.12317618748125
 20
46.06611295605088
 30
0.0
 11
-84.12317618748125
 21
40.52547880077744
 31
0.0
  0
LINE
  5
355
  8
0
  6
CONTINUOUS
 62
     4
 10
-103.1231761874813
 20
24.00470205212022
 30
0.0
 11
-103.1231761874813
 21
20.76610990429307
 31
0.0
  0
LINE
  5
356
  8
0
  6
CONTINUOUS
 62
     4
 10
-84.12317618748125
 20
23.80355306530381
 30
0.0
 11
-84.12317618748125
 21
20.76610990429307
 31
0.0
  0
LINE
  5
357
  8
0
  6
CONTINUOUS
 62
     4
 10
-75.62317618748125
 20
14.11611219311143
 30
0.0
 11
-67.62317618748125
 21
14.11611219311143
 31
0.0
  0
LINE
  5
358
  8
0
  6
CONTINUOUS
 62
     4
 10
-62.48731192966874
 20
6.916113337520606
 30
0.0
 11
-62.48731192966874
 21
1.916113337520606
 31
0.0
  0
LINE
  5
359
  8
0
  6
CONTINUOUS
 62
     4
 10
-64.48731192966875
 20
6.416113337520606
 30
0.0
 11
-64.48731192966875
 21
2.416113337520606
 31
0.0
  0
LINE
  5
35A
  8
0
  6
CONTINUOUS
 62
     4
 10
-64.48734244724687
 20
2.416117152217872
 30
0.0
 11
-51.48734244724687
 21
2.416117152217872
 31
0.0
  0
LINE
  5
35B
  8
0
  6
CONTINUOUS
 62
     4
 10
-64.48734244724687
 20
6.416117152217872
 30
0.0
 11
-51.48734244724687
 21
6.416117152217872
 31
0.0
  0
LINE
  5
35C
  8
0
  6
CONTINUOUS
 62
     4
 10
-62.48734244724687
 20
6.916117152217872
 30
0.0
 11
-51.48734244724687
 21
6.916117152217872
 31
0.0
  0
LINE
  5
35D
  8
0
  6
CONTINUOUS
 62
     4
 10
-62.48734244724687
 20
1.916117152217872
 30
0.0
 11
-51.48734244724687
 21
1.916117152217872
 31
0.0
  0
LINE
  5
35E
  8
0
  6
CONTINUOUS
 62
     4
 10
-65.64202997008601
 20
4.416093549964522
 30
0.0
 11
-64.48733575208297
 21
6.4160823284383
 31
0.0
  0
LINE
  5
35F
  8
0
  6
CONTINUOUS
 62
     4
 10
-65.64204590053282
 20
4.416116661810143
 30
0.0
 11
-64.48734452997155
 21
2.416115494743814
 31
0.0
  0
LINE
  5
360
  8
0
  6
CONTINUOUS
 62
     4
 10
-53.48731192966874
 20
62.41610380077744
 30
0.0
 11
-53.48731192966874
 21
60.91611143017197
 31
0.0
  0
LINE
  5
361
  8
0
  6
CONTINUOUS
 62
     4
 10
-52.48731192966874
 20
62.41610380077744
 30
0.0
 11
-52.48731192966874
 21
60.91611143017197
 31
0.0
  0
LINE
  5
362
  8
0
  6
CONTINUOUS
 62
     4
 10
-65.48734244724687
 20
66.41610380077744
 30
0.0
 11
-44.48734244724687
 21
66.41610380077744
 31
0.0
  0
LINE
  5
363
  8
0
  6
CONTINUOUS
 62
     4
 10
-65.48734244724687
 20
72.41610380077744
 30
0.0
 11
-44.48734244724687
 21
72.41610380077744
 31
0.0
  0
LINE
  5
364
  8
0
  6
CONTINUOUS
 62
     4
 10
-65.48734244724687
 20
89.41610380077744
 30
0.0
 11
-44.48734244724687
 21
89.41610380077744
 31
0.0
  0
LINE
  5
365
  8
0
  6
CONTINUOUS
 62
     4
 10
-65.48734244724687
 20
83.41610380077744
 30
0.0
 11
-44.48734244724687
 21
83.41610380077744
 31
0.0
  0
LINE
  5
366
  8
0
  6
CONTINUOUS
 62
     4
 10
-75.62317618748125
 20
52.71612211132432
 30
0.0
 11
-67.62317618748125
 21
52.71612211132432
 31
0.0
  0
LINE
  5
367
  8
0
  6
CONTINUOUS
 62
     4
 10
-75.62317618748125
 20
50.91610380077744
 30
0.0
 11
-67.62317618748125
 21
50.91610380077744
 31
0.0
  0
LINE
  5
368
  8
0
  6
CONTINUOUS
 62
     4
 10
-75.62317618748125
 20
47.91610380077744
 30
0.0
 11
-67.62317618748125
 21
47.91610380077744
 31
0.0
  0
LINE
  5
369
  8
0
  6
DASHED2
 62
     7
 10
36.27745857814376
 20
71.41603617936332
 30
0.0
 11
56.01268807033126
 21
71.41603617936332
 31
0.0
  0
LINE
  5
36A
  8
0
  6
DASHED2
 62
     7
 10
56.01268807033126
 20
74.91603617936332
 30
0.0
 11
63.69811287501876
 21
74.91603617936332
 31
0.0
  0
LINE
  5
36B
  8
0
  6
DASHED2
 62
     7
 10
56.01268807033126
 20
85.91603617936332
 30
0.0
 11
63.18828621486251
 21
85.91603617936332
 31
0.0
  0
LINE
  5
36C
  8
0
  6
DASHED2
 62
     7
 10
56.01268807033126
 20
89.41604380875785
 30
0.0
 11
56.01268807033126
 21
71.41605143815238
 31
0.0
  0
LINE
  5
36D
  8
0
  6
DASHED2
 62
     7
 10
56.01268807033126
 20
83.41603617936332
 30
0.0
 11
60.50365486720626
 21
83.41603617936332
 31
0.0
  0
LINE
  5
36E
  8
0
  6
DASHED2
 62
     7
 10
56.01268807033126
 20
77.41603617936332
 30
0.0
 11
60.50365486720626
 21
77.41603617936332
 31
0.0
  0
LINE
  5
36F
  8
0
  6
DASHED2
 62
     7
 10
56.01268807033126
 20
82.91603617936332
 30
0.0
 11
60.50365486720626
 21
82.91603617936332
 31
0.0
  0
LINE
  5
370
  8
0
  6
DASHED2
 62
     7
 10
56.01268807033126
 20
77.91603617936332
 30
0.0
 11
60.50365486720626
 21
77.91603617936332
 31
0.0
  0
LINE
  5
371
  8
0
  6
DASHED2
 62
     7
 10
53.63579598048751
 20
76.46605448991019
 30
0.0
 11
55.32201424220626
 21
76.46605448991019
 31
0.0
  0
LINE
  5
372
  8
0
  6
DASHED2
 62
     7
 10
49.81267586330001
 20
83.02912669450004
 30
0.0
 11
49.81267586330001
 21
77.73708873063285
 31
0.0
  0
LINE
  5
373
  8
0
  6
DASHED2
 62
     7
 10
46.51265668587713
 20
82.81606817484405
 30
0.0
 11
48.81268550056394
 21
83.71607924853649
 31
0.0
  0
LINE
  5
374
  8
0
  6
DASHED2
 62
     7
 10
48.81267758897548
 20
77.11612225843376
 30
0.0
 11
46.51270561283992
 21
78.01611109095896
 31
0.0
  0
LINE
  5
375
  8
0
  6
DASHED2
 62
     7
 10
53.77660408595626
 20
78.41603617936332
 30
0.0
 11
55.24871101955001
 21
78.41603617936332
 31
0.0
  0
LINE
  5
376
  8
0
  6
DASHED2
 62
     7
 10
53.77660408595626
 20
82.41603617936332
 30
0.0
 11
55.24871101955001
 21
82.41603617936332
 31
0.0
  0
LINE
  5
377
  8
0
  6
DASHED2
 62
     7
 10
53.01268807033126
 20
83.80862956315238
 30
0.0
 11
53.01268807033126
 21
77.02343516617972
 31
0.0
  0
LINE
  5
378
  8
0
  6
DASHED2
 62
     7
 10
48.81267586330001
 20
83.71604686051566
 30
0.0
 11
48.81267586330001
 21
77.11604838639457
 31
0.0
  0
LINE
  5
379
  8
0
  6
DASHED2
 62
     7
 10
53.63579598048751
 20
84.36604838639457
 30
0.0
 11
55.32201424220626
 21
84.36604838639457
 31
0.0
  0
LINE
  5
37A
  8
0
  6
DASHED2
 62
     7
 10
46.51268807033126
 20
82.81604533463676
 30
0.0
 11
46.51268807033126
 21
78.01604228287894
 31
0.0
  0
ARC
  5
37B
  8
0
  6
DASHED2
 62
     7
 10
53.94799080470626
 20
77.41603617936332
 30
0.0
 40
1.0
 50
200.7154669700721
 51
251.8051248674166
  0
ARC
  5
37C
  8
0
  6
DASHED2
 62
     7
 10
46.99053230861251
 20
80.41603617936332
 30
0.0
 40
1.200000047683716
 50
113.46797241713
 51
246.5320171102151
  0
ARC
  5
37D
  8
0
  6
DASHED2
 62
     7
 10
55.00975838283126
 20
77.41603617936332
 30
0.0
 40
1.0
 50
288.194863293438
 51
360.0
  0
ARC
  5
37E
  8
0
  6
DASHED2
 62
     7
 10
55.00975838283126
 20
83.41603617936332
 30
0.0
 40
1.0
 50
270.0000179860894
 51
360.0
  0
ARC
  5
37F
  8
0
  6
DASHED2
 62
     7
 10
55.00975838283126
 20
77.41603617936332
 30
0.0
 40
1.0
 50
0.0
 51
89.99998201391065
  0
ARC
  5
380
  8
0
  6
DASHED2
 62
     7
 10
55.00975838283126
 20
83.41603617936332
 30
0.0
 40
1.0
 50
0.0
 51
71.80513670656207
  0
ARC
  5
381
  8
0
  6
DASHED2
 62
     7
 10
53.01268807033126
 20
80.41603617936332
 30
0.0
 40
3.0
 50
0.0
 51
41.81031315512688
  0
ARC
  5
382
  8
0
  6
DASHED2
 62
     7
 10
53.94799080470626
 20
77.41603617936332
 30
0.0
 40
1.0
 50
89.99998201391065
 51
159.2845330299279
  0
ARC
  5
383
  8
0
  6
DASHED2
 62
     7
 10
53.94799080470626
 20
83.41603617936332
 30
0.0
 40
1.0
 50
108.1948751325834
 51
159.2845330299279
  0
ARC
  5
384
  8
0
  6
DASHED2
 62
     7
 10
53.94799080470626
 20
83.41603617936332
 30
0.0
 40
1.0
 50
200.7154669700721
 51
270.0000179860894
  0
ARC
  5
385
  8
0
  6
DASHED2
 62
     7
 10
51.21721687892501
 20
74.62004618912894
 30
0.0
 40
3.0
 50
53.23800510831277
 51
117.8898300556071
  0
ARC
  5
386
  8
0
  6
DASHED2
 62
     7
 10
51.21721687892501
 20
86.21202616959769
 30
0.0
 40
3.0
 50
242.1068914535913
 51
306.7619948916872
  0
ARC
  5
387
  8
0
  6
DASHED2
 62
     7
 10
48.81267586330001
 20
80.41603617936332
 30
0.0
 40
3.299999952316284
 50
270.0000179860894
 51
287.6397055176993
  0
ARC
  5
388
  8
0
  6
DASHED2
 62
     7
 10
48.81267586330001
 20
80.41603617936332
 30
0.0
 40
3.299999952316284
 50
72.3602944823007
 51
89.99998201391065
  0
ARC
  5
389
  8
0
  6
DASHED2
 62
     7
 10
53.01268807033126
 20
80.41603617936332
 30
0.0
 40
3.0
 50
318.1896868448731
 51
360.0
  0
ARC
  5
38A
  8
0
  6
DASHED2
 62
     7
 10
56.01268807033126
 20
80.41603617936332
 30
0.0
 40
3.0
 50
138.1896986840186
 51
221.8102840131373
  0
TEXT
  5
38B
  8
0
 62
     5
 10
63.1562535715459
 20
77.13140562224507
 30
0.0
 40
2.5
  1
F MAX         6KN
 50
-120.0
 41
0.8002457370621974
  7
FDASTYLE1
 72
     5
 11
41.38621514562353
 21
39.42459298582072
 31
0.0
  0
TEXT
  5
38C
  8
0
 62
     5
 10
52.76391958717091
 20
83.13140562224507
 30
0.0
 40
2.5
  1
           AT ΣS MAX
 50
-120.0
 41
0.8037156284666041
  7
FDASTYLE1
 72
     5
 11
27.08643844250426
 21
38.65670366929056
 31
0.0
  0
TEXT
  5
38D
  8
0
 62
     5
 10
60.5841158924443
 20
-19.58396572798531
 30
0.0
 40
4.0
  1
NIKKO
 41
0.7674421177096605
  7
FDASTYLE1
 72
     5
 11
79.44126120189253
 21
-19.58396572798531
 31
0.0
  0
TEXT
  5
38E
  8
0
 62
     5
 10
91.94119790175978
 20
-19.08396572798531
 30
0.0
 40
3.0
  1
   MO3-5
 41
0.7714288207463406
  7
FDASTYLE1
 72
     5
 11
115.0840574202878
 21
-19.08396572798531
 31
0.0
  0
TEXT
  5
38F
  8
0
 62
     5
 10
93.59791895726744
 20
-24.20210308760445
 30
0.0
 40
2.5
  1
   0001
 41
0.7704919721900592
  7
FDASTYLE1
 72
     5
 11
110.383632868324
 21
-24.20210308760445
 31
0.0
  0
TEXT
  5
390
  8
0
 62
     5
 10
59.6921422434209
 20
79.13139036345601
 30
0.0
 40
2.5
  1
ΣS MAX       13KN
 50
-120.0
 41
0.8038547541358868
  7
FDASTYLE1
 72
     5
 11
37.92210381749853
 21
41.42457772703165
 31
0.0
  0
TEXT
  5
391
  8
0
 62
     5
 10
56.2280309152959
 20
81.13140562224507
 30
0.0
 40
2.5
  1
N MAX        4000
 50
-120.0
 41
0.8002457370621974
  7
FDASTYLE1
 72
     5
 11
34.45799248937353
 21
43.42459298582072
 31
0.0
  0
LINE
  5
392
  8
LAYER0014
  6
CONTINUOUS
 62
     7
 10
23.70948637728544
 20
-10.6375995040291
 30
0.0
 11
30.84973901870979
 21
-23.00488122421503
 31
0.0
  0
LINE
  5
393
  8
LAYER0014
  6
CONTINUOUS
 62
     7
 10
27.77130652604751
 20
4.409236500993987
 30
0.0
 11
17.34344504480311
 21
-1.611291467115017
 31
0.0
  0
LINE
  5
394
  8
LAYER0014
  6
CONTINUOUS
 62
     7
 10
33.27131110353326
 20
-5.117082439136763
 30
0.0
 11
22.8434628367885
 21
-11.13760277785169
 31
0.0
  0
LINE
  5
395
  8
LAYER0014
  6
CONTINUOUS
 62
     7
 10
18.20948694352955
 20
-1.111319990682169
 30
0.0
 11
23.70948637728544
 21
-10.6375995040291
 31
0.0
  0
INSERT
  5
396
  8
LAYER0014
 62
     7
  2
_OPEN30
 10
18.20948694352955
 20
-1.111319990682169
 30
0.0
 41
1.50000139391263
 42
1.499998500689492
 50
119.9999972589655
  0
INSERT
  5
397
  8
LAYER0014
 62
     7
  2
_OPEN30
 10
23.70948637728544
 20
-10.6375995040291
 30
0.0
 41
1.50000139391263
 42
1.499998500689492
 50
299.9999972589655
  0
TEXT
  5
398
  8
LAYER0014
 62
     7
 10
26.06395219050746
 20
-11.5156541279568
 30
0.0
 40
4.0
  1
11H8
 50
-59.99999999999999
 41
0.7999999999999998
  7
FDASTYLE1
 72
     5
 11
32.46395219050746
 21
-22.60077929639761
 31
0.0
  0
INSERT
  5
399
  8
0
  6
CONTINUOUS
  2
DC_GROUP_1
 10
0.0
 20
0.0
 30
0.0
  0
INSERT
  5
39A
  8
0
  6
CONTINUOUS
  2
DA_IMAGEDIMGROUP_14
 10
0.0
 20
0.0
 30
0.0
  0
INSERT
  5
39B
  8
0
  6
CONTINUOUS
  2
DA_IMAGEDIMGROUP_15
 10
0.0
 20
0.0
 30
0.0
  0
INSERT
  5
39C
  8
0
  6
CONTINUOUS
  2
DA_IMAGEDIMGROUP_25
 10
0.0
 20
0.0
 30
0.0
  0
INSERT
  5
39D
  8
0
  6
CONTINUOUS
  2
DC_GROUP_10
 10
0.0
 20
0.0
 30
0.0
  0
INSERT
  5
39E
  8
0
  6
CONTINUOUS
  2
DA_IMAGEDIMGROUP_26
 10
0.0
 20
0.0
 30
0.0
  0
INSERT
  5
39F
  8
LAYER0014
  6
CONTINUOUS
  2
DA_IMAGEDIMGROUP_1
 10
0.0
 20
0.0
 30
0.0
  0
INSERT
  5
3A0
  8
LAYER0014
  6
CONTINUOUS
  2
DA_IMAGEDIMGROUP_2
 10
0.0
 20
0.0
 30
0.0
  0
INSERT
  5
3A1
  8
LAYER0014
  6
CONTINUOUS
  2
DA_IMAGEDIMGROUP_3
 10
0.0
 20
0.0
 30
0.0
  0
INSERT
  5
3A2
  8
LAYER0014
  6
CONTINUOUS
  2
DC_GROUP_2
 10
0.0
 20
0.0
 30
0.0
  0
INSERT
  5
3A3
  8
LAYER0014
  6
CONTINUOUS
  2
DC_GROUP_3
 10
0.0
 20
0.0
 30
0.0
  0
INSERT
  5
3A4
  8
LAYER0014
  6
CONTINUOUS
  2
DA_IMAGEDIMGROUP_4
 10
0.0
 20
0.0
 30
0.0
  0
INSERT
  5
3A5
  8
LAYER0014
  6
CONTINUOUS
  2
DA_IMAGEDIMGROUP_5
 10
0.0
 20
0.0
 30
0.0
  0
INSERT
  5
3A6
  8
LAYER0014
  6
CONTINUOUS
  2
DA_IMAGEDIMGROUP_6
 10
0.0
 20
0.0
 30
0.0
  0
INSERT
  5
3A7
  8
LAYER0014
  6
CONTINUOUS
  2
DA_IMAGEDIMGROUP_7
 10
0.0
 20
0.0
 30
0.0
  0
INSERT
  5
3A8
  8
LAYER0014
  6
CONTINUOUS
  2
DA_IMAGEDIMGROUP_8
 10
0.0
 20
0.0
 30
0.0
  0
INSERT
  5
3A9
  8
LAYER0014
  6
CONTINUOUS
  2
DA_IMAGEDIMGROUP_9
 10
0.0
 20
0.0
 30
0.0
  0
INSERT
  5
3AA
  8
LAYER0014
  6
CONTINUOUS
  2
DA_IMAGEDIMGROUP_10
 10
0.0
 20
0.0
 30
0.0
  0
INSERT
  5
3AB
  8
LAYER0014
  6
CONTINUOUS
  2
DA_IMAGEDIMGROUP_11
 10
0.0
 20
0.0
 30
0.0
  0
INSERT
  5
3AC
  8
LAYER0014
  6
CONTINUOUS
  2
DA_IMAGEDIMGROUP_12
 10
0.0
 20
0.0
 30
0.0
  0
INSERT
  5
3AD
  8
LAYER0014
  6
CONTINUOUS
  2
DA_IMAGEDIMGROUP_13
 10
0.0
 20
0.0
 30
0.0
  0
INSERT
  5
3AE
  8
LAYER0014
  6
CONTINUOUS
  2
DA_IMAGEDIMGROUP_16
 10
0.0
 20
0.0
 30
0.0
  0
INSERT
  5
3AF
  8
LAYER0014
  6
CONTINUOUS
  2
DA_IMAGEDIMGROUP_17
 10
0.0
 20
0.0
 30
0.0
  0
INSERT
  5
3B0
  8
LAYER0014
  6
CONTINUOUS
  2
DC_GROUP_4
 10
0.0
 20
0.0
 30
0.0
  0
INSERT
  5
3B1
  8
LAYER0014
  6
CONTINUOUS
  2
DC_GROUP_5
 10
0.0
 20
0.0
 30
0.0
  0
INSERT
  5
3B2
  8
LAYER0014
  6
CONTINUOUS
  2
DA_IMAGEDIMGROUP_18
 10
0.0
 20
0.0
 30
0.0
  0
INSERT
  5
3B3
  8
LAYER0014
  6
CONTINUOUS
  2
DA_IMAGEDIMGROUP_19
 10
0.0
 20
0.0
 30
0.0
  0
INSERT
  5
3B4
  8
LAYER0014
  6
CONTINUOUS
  2
DC_GROUP_6
 10
0.0
 20
0.0
 30
0.0
  0
INSERT
  5
3B5
  8
LAYER0014
  6
CONTINUOUS
  2
DA_IMAGEDIMGROUP_20
 10
0.0
 20
0.0
 30
0.0
  0
INSERT
  5
3B6
  8
LAYER0014
  6
CONTINUOUS
  2
DA_IMAGEDIMGROUP_21
 10
0.0
 20
0.0
 30
0.0
  0
INSERT
  5
3B7
  8
LAYER0014
  6
CONTINUOUS
  2
DA_IMAGEDIMGROUP_22
 10
0.0
 20
0.0
 30
0.0
  0
INSERT
  5
3B8
  8
LAYER0014
  6
CONTINUOUS
  2
DA_IMAGEDIMGROUP_23
 10
0.0
 20
0.0
 30
0.0
  0
INSERT
  5
3B9
  8
LAYER0014
  6
CONTINUOUS
  2
DC_GROUP_7
 10
0.0
 20
0.0
 30
0.0
  0
INSERT
  5
3BA
  8
LAYER0014
  6
CONTINUOUS
  2
DA_IMAGEDIMGROUP_24
 10
0.0
 20
0.0
 30
0.0
  0
INSERT
  5
3BB
  8
LAYER0014
  6
CONTINUOUS
  2
DC_GROUP_8
 10
0.0
 20
0.0
 30
0.0
  0
INSERT
  5
3BC
  8
LAYER0014
  6
CONTINUOUS
  2
DC_GROUP_9
 10
0.0
 20
0.0
 30
0.0
  0
LINE
  5
3BD
  8
0
  6
CONTINUOUS
 62
     6
 10
-148.8646203283116
 20
-104.0177590705196
 30
0.0
 11
-30.64654934442483
 21
-104.0177590705196
 31
0.0
  0
LINE
  5
3BE
  8
0
  6
CONTINUOUS
 62
     6
 10
-148.8646203283116
 20
-98.31776212227742
 30
0.0
 11
-30.64654934442483
 21
-98.31776212227742
 31
0.0
  0
LINE
  5
3BF
  8
0
  6
CONTINUOUS
 62
     6
 10
-148.8646203283116
 20
-92.6177575446407
 30
0.0
 11
-30.64654934442483
 21
-92.6177575446407
 31
0.0
  0
LINE
  5
3C0
  8
0
  6
CONTINUOUS
 62
     6
 10
-148.8646203283116
 20
-86.91776059639851
 30
0.0
 11
-30.64654934442483
 21
-86.91776059639851
 31
0.0
  0
LINE
  5
3C1
  8
0
  6
CONTINUOUS
 62
     6
 10
-148.8646203283116
 20
-81.21775601876179
 30
0.0
 11
-130.8564416173741
 21
-81.21775601876179
 31
0.0
  0
LINE
  5
3C2
  8
0
  6
CONTINUOUS
 62
     6
 10
-148.8646203283116
 20
-109.7177560187618
 30
0.0
 11
-30.64654934442483
 21
-109.7177560187618
 31
0.0
  0
LINE
  5
3C3
  8
0
  6
CONTINUOUS
 62
     6
 10
-148.8646203283116
 20
-115.4177605963985
 30
0.0
 11
-30.64654934442483
 21
-115.4177605963985
 31
0.0
  0
LINE
  5
3C4
  8
0
  6
CONTINUOUS
 62
     6
 10
-148.8646203283116
 20
-121.1177575446407
 30
0.0
 11
-30.64654934442483
 21
-121.1177575446407
 31
0.0
  0
LINE
  5
3C5
  8
0
  6
CONTINUOUS
 62
     6
 10
-148.8646203283116
 20
-132.5177590705196
 30
0.0
 11
-30.64654934442483
 21
-132.5177590705196
 31
0.0
  0
LINE
  5
3C6
  8
0
  6
CONTINUOUS
 62
     6
 10
-148.8646203283116
 20
-126.8177621222774
 30
0.0
 11
-30.64654934442483
 21
-126.8177621222774
 31
0.0
  0
LINE
  5
3C7
  8
0
  6
DIVIDE
 62
     9
 10
-113.6231718022536
 20
55.91610625226561
 30
0.0
 11
-113.1231820610519
 21
56.41609599346733
 31
0.0
  0
LINE
  5
3C8
  8
0
  6
DIVIDE
 62
     9
 10
-113.1231761874813
 20
56.41610380077744
 30
0.0
 11
-112.1535106601375
 21
56.41610380077744
 31
0.0
  0
LINE
  5
3C9
  8
0
  6
DIVIDE
 62
     9
 10
-113.6231761874813
 20
55.91611143017197
 30
0.0
 11
-113.6231761874813
 21
35.23420377636338
 31
0.0
  0
LINE
  5
3CA
  8
0
  6
DIVIDE
 62
     9
 10
-93.62317618748125
 20
55.91611143017197
 30
0.0
 11
-93.62317618748125
 21
35.23420377636338
 31
0.0
  0
LINE
  5
3CB
  8
0
  6
DIVIDE
 62
     9
 10
-57.62317618748124
 20
55.91611143017197
 30
0.0
 11
-57.62317618748124
 21
35.23420377636338
 31
0.0
  0
LINE
  5
3CC
  8
0
  6
DIVIDE
 62
     9
 10
-93.62319372883576
 20
55.91610625226561
 30
0.0
 11
-93.12318240844797
 21
56.4161175726534
 31
0.0
  0
LINE
  5
3CD
  8
0
  6
DIVIDE
 62
     9
 10
-61.89783439060624
 20
56.41610380077744
 30
0.0
 11
-58.12317618748124
 21
56.41610380077744
 31
0.0
  0
LINE
  5
3CE
  8
0
  6
DIVIDE
 62
     9
 10
-58.12318773683801
 20
56.4160966678169
 30
0.0
 11
-57.6231979956363
 21
55.91610692661518
 31
0.0
  0
LINE
  5
3CF
  8
LAYER0014
  6
CONTINUOUS
 62
     7
 10
-52.48731192966874
 20
112.5323986616173
 30
0.0
 11
-59.34786567112382
 21
112.5323986616173
 31
0.0
  0
LINE
  5
3D0
  8
LAYER0014
  6
CONTINUOUS
 62
     7
 10
-114.4873119296688
 20
-59.68381075000381
 30
0.0
 11
-130.0294032992977
 21
-59.68381075000381
 31
0.0
  0
VIEWPORT
  5
48
 67
     1
  8
0
 10
0.0
 20
0.0
 30
0.0
 40
1152.0
 41
830.9999999999997
 68
     1
 69
     1
1001
ACAD
1000
MVIEW
1002
{
1070
    16
1010
0.0
1020
0.0
1030
0.0
1020
0.0
1030
0.0
1010
0.0
1020
0.0
1030
1.0
1020
0.0
1030
1.0
1040
0.0
1040
830.9999999999997
1040
0.0
1040
0.0
1040
50.0
1040
0.0
1040
0.0
1070
     0
1070
   100
1070
     0
1070
     1
1070
     0
1070
     0
1070
     0
1070
     0
1040
0.0
1040
0.0
1040
0.0
1040
0.5
1040
0.5
1040
0.0
1040
0.0
1070
     0
1002
{
1002
}
1002
}
  0
ENDSEC
  0
EOF
