  0
SECTION
  2
HEADER
  9
$ACADVER
  1
AC1009
  9
$DWGCODEPAGE
  3
ansi_932
  9
$INSBASE
 10
0.0
 20
0.0
 30
0.0
  9
$EXTMIN
 10
-474.4276062545233
 20
-570.0
 30
0.0
  9
$EXTMAX
 10
1187.572393745477
 20
570.0
 30
0.0
  9
$LIMMIN
 10
-660.5555555555555
 20
-467.2222222222222
  9
$LIMMAX
 10
660.5555555555555
 20
467.2222222222222
  9
$ORTHOMODE
 70
     0
  9
$REGENMODE
 70
     1
  9
$FILLMODE
 70
     1
  9
$QTEXTMODE
 70
     0
  9
$MIRRTEXT
 70
     1
  9
$DRAGMODE
 70
     2
  9
$LTSCALE
 40
1.111111111111111
  9
$OSMODE
 70
    37
  9
$ATTMODE
 70
     1
  9
$TEXTSIZE
 40
0.2
  9
$TRACEWID
 40
0.05
  9
$TEXTSTYLE
  7
STANDARD
  9
$CLAYER
  8
0
  9
$CELTYPE
  6
BYLAYER
  9
$CECOLOR
 62
   256
  9
$DIMSCALE
 40
1.0
  9
$DIMASZ
 40
2.777777777777778
  9
$DIMEXO
 40
0.0625
  9
$DIMDLI
 40
0.38
  9
$DIMRND
 40
0.0
  9
$DIMDLE
 40
0.0
  9
$DIMEXE
 40
0.18
  9
$DIMTP
 40
0.0
  9
$DIMTM
 40
0.0
  9
$DIMTXT
 40
0.18
  9
$DIMCEN
 40
0.09
  9
$DIMTSZ
 40
0.0
  9
$DIMTOL
 70
     0
  9
$DIMLIM
 70
     0
  9
$DIMTIH
 70
     1
  9
$DIMTOH
 70
     1
  9
$DIMSE1
 70
     0
  9
$DIMSE2
 70
     0
  9
$DIMTAD
 70
     3
  9
$DIMZIN
 70
     0
  9
$DIMBLK
  1

  9
$DIMASO
 70
     1
  9
$DIMSHO
 70
     1
  9
$DIMPOST
  1

  9
$DIMAPOST
  1

  9
$DIMALT
 70
     0
  9
$DIMALTD
 70
     2
  9
$DIMALTF
 40
25.4
  9
$DIMLFAC
 40
1.0
  9
$DIMTOFL
 70
     0
  9
$DIMTVP
 40
0.0
  9
$DIMTIX
 70
     0
  9
$DIMSOXD
 70
     0
  9
$DIMSAH
 70
     0
  9
$DIMBLK1
  1

  9
$DIMBLK2
  1

  9
$DIMSTYLE
  2
STANDARD
  9
$DIMCLRD
 70
     0
  9
$DIMCLRE
 70
     0
  9
$DIMCLRT
 70
     0
  9
$DIMTFAC
 40
1.0
  9
$DIMGAP
 40
0.09
  9
$LUNITS
 70
     2
  9
$LUPREC
 70
     4
  9
$SKETCHINC
 40
0.1
  9
$FILLETRAD
 40
0.5
  9
$AUNITS
 70
     0
  9
$AUPREC
 70
     0
  9
$MENU
  1
.
  9
$ELEVATION
 40
0.0
  9
$PELEVATION
 40
0.0
  9
$THICKNESS
 40
0.0
  9
$LIMCHECK
 70
     0
  9
$CHAMFERA
 40
0.5
  9
$CHAMFERB
 40
0.5
  9
$SKPOLY
 70
     0
  9
$TDCREATE
 40
2455483.589768681
  9
$TDUPDATE
 40
2455483.589768692
  9
$TDINDWG
 40
0.0000000116
  9
$TDUSRTIMER
 40
0.0000000116
  9
$USRTIMER
 70
     1
  9
$ANGBASE
 50
0.0
  9
$ANGDIR
 70
     0
  9
$PDMODE
 70
     0
  9
$PDSIZE
 40
1.0
  9
$PLINEWID
 40
0.0
  9
$COORDS
 70
     1
  9
$SPLFRAME
 70
     0
  9
$SPLINETYPE
 70
     6
  9
$SPLINESEGS
 70
     8
  9
$ATTDIA
 70
     0
  9
$ATTREQ
 70
     1
  9
$HANDLING
 70
     1
  9
$HANDSEED
  5
638
  9
$SURFTAB1
 70
     6
  9
$SURFTAB2
 70
     6
  9
$SURFTYPE
 70
     6
  9
$SURFU
 70
     6
  9
$SURFV
 70
     6
  9
$UCSNAME
  2

  9
$UCSORG
 10
0.0
 20
0.0
 30
0.0
  9
$UCSXDIR
 10
1.0
 20
0.0
 30
0.0
  9
$UCSYDIR
 10
0.0
 20
1.0
 30
0.0
  9
$PUCSNAME
  2

  9
$PUCSORG
 10
0.0
 20
0.0
 30
0.0
  9
$PUCSXDIR
 10
1.0
 20
0.0
 30
0.0
  9
$PUCSYDIR
 10
0.0
 20
1.0
 30
0.0
  9
$USERI1
 70
     0
  9
$USERI2
 70
     0
  9
$USERI3
 70
     0
  9
$USERI4
 70
     0
  9
$USERI5
 70
     0
  9
$USERR1
 40
0.0
  9
$USERR2
 40
0.0
  9
$USERR3
 40
0.0
  9
$USERR4
 40
0.0
  9
$USERR5
 40
0.0
  9
$WORLDVIEW
 70
     1
  9
$SHADEDGE
 70
     3
  9
$SHADEDIF
 70
    70
  9
$TILEMODE
 70
     1
  9
$MAXACTVP
 70
    64
  9
$PLIMCHECK
 70
     0
  9
$PEXTMIN
 10
1.000000000000000E+20
 20
1.000000000000000E+20
 30
1.000000000000000E+20
  9
$PEXTMAX
 10
-1.000000000000000E+20
 20
-1.000000000000000E+20
 30
-1.000000000000000E+20
  9
$PLIMMIN
 10
0.0
 20
0.0
  9
$PLIMMAX
 10
12.0
 20
9.0
  9
$UNITMODE
 70
     0
  9
$VISRETAIN
 70
     0
  9
$PLINEGEN
 70
     1
  9
$PSLTSCALE
 70
     0
  0
ENDSEC
  0
SECTION
  2
TABLES
  0
TABLE
  2
VPORT
 70
     1
  0
VPORT
  2
*ACTIVE
 70
     0
 10
0.0
 20
0.0
 11
1.0
 21
1.0
 12
0.0
 22
0.0
 13
0.0
 23
0.0
 14
0.5
 24
0.5
 15
0.5
 25
0.5
 16
0.0
 26
0.0
 36
1.0
 17
356.5723937454767
 27
0.0
 37
0.0
 40
387.6
 41
1.457894736842105
 42
50.0
 43
0.0
 44
0.0
 50
0.0
 51
0.0
 71
     0
 72
  1000
 73
     1
 74
     1
 75
     0
 76
     0
 77
     0
 78
     0
  0
ENDTAB
  0
TABLE
  2
LTYPE
 70
    28
  0
LTYPE
  2
CONTINUOUS
 70
     0
  3
Solid line
 72
    65
 73
     0
 40
0.0
  0
LTYPE
  2
HIDDENX2
 70
     0
  3
CADPAC LINETYPE
 72
    65
 73
     2
 40
18.58563535911603
 49
13.93922651933703
 49
-4.646408839779008
  0
LTYPE
  2
HIDDEN
 70
     0
  3
CADPAC LINETYPE
 72
    65
 73
     2
 40
13.93922651933703
 49
9.292817679558016
 49
-4.646408839779008
  0
LTYPE
  2
HIDDEN2
 70
     0
  3
CADPAC LINETYPE
 72
    65
 73
     2
 40
11.61602209944752
 49
6.969613259668512
 49
-4.646408839779008
  0
LTYPE
  2
DASHED
 70
     0
  3
CADPAC LINETYPE
 72
    65
 73
     2
 40
13.00994475138128
 49
9.292817679558016
 49
-3.717127071823268
  0
LTYPE
  2
DASHED2
 70
     0
  3
CADPAC LINETYPE
 72
    65
 73
     2
 40
8.363535911602174
 49
5.575690607734851
 49
-2.787845303867323
  0
LTYPE
  2
DASHEDX2
 70
     0
  3
CADPAC LINETYPE
 72
    65
 73
     2
 40
22.3027624309393
 49
18.58563535911603
 49
-3.717127071823268
  0
LTYPE
  2
DOTX2
 70
     0
  3
CADPAC LINETYPE
 72
    65
 73
     2
 40
8.131215469613366
 49
0.0
 49
-8.131215469613366
  0
LTYPE
  2
DOT
 70
     0
  3
CADPAC LINETYPE
 72
    65
 73
     2
 40
6.504972375690693
 49
0.0
 49
-6.504972375690693
  0
LTYPE
  2
DOT2
 70
     0
  3
CADPAC LINETYPE
 72
    65
 73
     2
 40
4.87872928176802
 49
0.0
 49
-4.87872928176802
  0
LTYPE
  2
CENTERX2
 70
     0
  3
CADPAC LINETYPE
 72
    65
 73
     4
 40
27.87845303867405
 49
11.61602209944752
 49
-5.80801104972376
 49
4.646408839779008
 49
-5.80801104972376
  0
LTYPE
  2
CENTER
 70
     0
  3
CADPAC LINETYPE
 72
    65
 73
     4
 40
21.37348066298344
 49
9.292817679558016
 49
-4.646408839779008
 49
2.787845303867405
 49
-4.646408839779008
  0
LTYPE
  2
CENTER2
 70
     0
  3
CADPAC LINETYPE
 72
    65
 73
     4
 40
14.86850828729283
 49
6.969613259668512
 49
-3.484806629834256
 49
0.9292817679558016
 49
-3.484806629834256
  0
LTYPE
  2
DASHDOTX2
 70
     0
  3
CADPAC LINETYPE
 72
    65
 73
     4
 40
44.6055248618785
 49
22.3027624309392
 49
-7.434254143646434
 49
7.434254143646434
 49
-7.434254143646434
  0
LTYPE
  2
DASHDOT
 70
     0
  3
CADPAC LINETYPE
 72
    65
 73
     4
 40
22.3027624309394
 49
11.1513812154696
 49
-3.717127071823268
 49
3.717127071823268
 49
-3.717127071823268
  0
LTYPE
  2
DASHDOT2
 70
     0
  3
CADPAC LINETYPE
 72
    65
 73
     4
 40
14.31093922651943
 49
8.363535911602199
 49
-2.787845303867451
 49
0.3717127071823268
 49
-2.787845303867451
  0
LTYPE
  2
DIVIDEX2
 70
     0
  3
CADPAC LINETYPE
 72
    65
 73
     6
 40
59.47403314917137
 49
22.3027624309392
 49
-7.434254143646434
 49
7.434254143646434
 49
-7.434254143646434
 49
7.434254143646434
 49
-7.434254143646434
  0
LTYPE
  2
DIVIDE
 70
     0
  3
CADPAC LINETYPE
 72
    65
 73
     6
 40
29.73701657458594
 49
11.1513812154696
 49
-3.717127071823268
 49
3.717127071823268
 49
-3.717127071823268
 49
3.717127071823268
 49
-3.717127071823268
  0
LTYPE
  2
DIVIDE2
 70
     0
  3
CADPAC LINETYPE
 72
    65
 73
     6
 40
22.30276243093946
 49
8.363535911602199
 49
-2.787845303867451
 49
2.787845303867451
 49
-2.787845303867451
 49
2.787845303867451
 49
-2.787845303867451
  0
LTYPE
  2
BORDERX2
 70
     0
  3
CADPAC LINETYPE
 72
    65
 73
     6
 40
40.65607734806632
 49
11.61602209944752
 49
-5.80801104972376
 49
11.61602209944752
 49
-5.80801104972376
 49
0.0
 49
-5.80801104972376
  0
LTYPE
  2
BORDER
 70
     0
  3
CADPAC LINETYPE
 72
    65
 73
     6
 40
32.52486187845306
 49
9.292817679558016
 49
-4.646408839779008
 49
9.292817679558016
 49
-4.646408839779008
 49
0.0
 49
-4.646408839779008
  0
LTYPE
  2
BORDER2
 70
     0
  3
CADPAC LINETYPE
 72
    65
 73
     6
 40
24.16132596685078
 49
7.434254143646434
 49
-4.646408839779008
 49
2.787845303867323
 49
-4.646408839779008
 49
0.0
 49
-4.646408839779008
  0
LTYPE
  2
PHANTOMX2
 70
     0
  3
CADPAC LINETYPE
 72
    65
 73
     6
 40
34.84806629834256
 49
11.61602209944752
 49
-4.646408839779008
 49
4.646408839779008
 49
-4.646408839779008
 49
4.646408839779008
 49
-4.646408839779008
  0
LTYPE
  2
PHANTOM
 70
     0
  3
CADPAC LINETYPE
 72
    65
 73
     6
 40
28.80773480662985
 49
9.292817679558016
 49
-4.646408839779008
 49
2.787845303867405
 49
-4.646408839779008
 49
2.787845303867405
 49
-4.646408839779008
  0
LTYPE
  2
PHANTOM2
 70
     0
  3
CADPAC LINETYPE
 72
    65
 73
     6
 40
24.62596685082875
 49
6.969613259668512
 49
-4.646408839779008
 49
1.858563535911603
 49
-4.646408839779008
 49
1.858563535911603
 49
-4.646408839779008
  0
LTYPE
  2
ACAD_ISO06W100
 70
     0
  3
CADPAC LINETYPE
 72
    65
 73
     8
 40
49.25193370165719
 49
22.3027624309392
 49
-4.646408839779008
 49
2.787845303867323
 49
-4.646408839779008
 49
2.787845303867323
 49
-4.646408839779008
 49
2.787845303867323
 49
-4.646408839779008
  0
LTYPE
  2
ACAD_ISO13W100
 70
     0
  3
CADPAC LINETYPE
 72
    65
 73
     8
 40
37.17127071823207
 49
9.292817679558016
 49
-4.646408839779008
 49
9.292817679558016
 49
-4.646408839779008
 49
0.0
 49
-4.646408839779008
 49
0.0
 49
-4.646408839779008
  0
LTYPE
  2
ACAD_ISO14W100
 70
     0
  3
CADPAC LINETYPE
 72
    65
 73
     8
 40
27.87845303867405
 49
9.292817679558016
 49
-4.646408839779008
 49
0.0
 49
-4.646408839779008
 49
0.0
 49
-4.646408839779008
 49
0.0
 49
-4.646408839779008
  0
ENDTAB
  0
TABLE
  2
LAYER
 70
     3
  0
LAYER
  2
0
 70
     0
 62
     7
  6
CONTINUOUS
  0
LAYER
  2
LAYER0001
 70
     0
 62
     7
  6
CONTINUOUS
  0
LAYER
  2
LAYER0002
 70
     0
 62
     7
  6
CONTINUOUS
  0
ENDTAB
  0
TABLE
  2
STYLE
 70
     5
  0
STYLE
  2
STANDARD
 70
     0
 40
0.0
 41
1.0
 50
0.0
 71
     0
 42
0.2
  3
txt
  4

  0
STYLE
  2
FDASTYLE1
 70
     0
 40
0.0
 41
0.5442179498218123
 50
0.0
 71
     0
 42
0.2
  3
txt.shx
  4
bigfont
  0
STYLE
  2
FDASTYLE0
 70
     4
 40
0.0
 41
0.8
 50
0.0
 71
     0
 42
0.2
  3
txt.shx
  4
bigfont
  0
STYLE
  2
FDASTYLE2
 70
     0
 40
0.0
 41
0.8123476848090979
 50
0.0
 71
     0
 42
0.2
  3
MSMINCHO.TTC
  4

  0
STYLE
  2
FDASTYLE3
 70
     0
 40
0.0
 41
0.6684336356141793
 50
0.0
 71
     0
 42
0.2
  3
MSGOTHIC.TTC
  4

  0
ENDTAB
  0
TABLE
  2
VIEW
 70
     0
  0
ENDTAB
  0
TABLE
  2
UCS
 70
     0
  0
ENDTAB
  0
TABLE
  2
APPID
 70
     2
  0
APPID
  2
ACAD
 70
     0
  0
APPID
  2
DAFUSIONOUT
 70
     0
  0
ENDTAB
  0
TABLE
  2
DIMSTYLE
 70
     1
  0
DIMSTYLE
  2
STANDARD
 70
     0
  3

  4

  5

  6

  7

 40
1.0
 41
0.18
 42
0.0625
 43
0.38
 44
0.18
 45
0.0
 46
0.0
 47
0.0
 48
0.0
140
0.18
141
0.09
142
0.0
143
25.4
144
1.0
145
0.0
146
1.0
147
0.09
 71
     0
 72
     0
 73
     1
 74
     1
 75
     0
 76
     0
 77
     0
 78
     0
170
     0
171
     2
172
     0
173
     0
174
     0
175
     0
176
     0
177
     0
178
     0
  0
ENDTAB
  0
ENDSEC
  0
SECTION
  2
BLOCKS
  0
BLOCK
  8
0
  2
$MODEL_SPACE
 70
     0
 10
0.0
 20
0.0
 30
0.0
  3
$MODEL_SPACE
  1

  0
ENDBLK
  5
21
  8
0
  0
BLOCK
 67
     1
  8
0
  2
$PAPER_SPACE
 70
     0
 10
0.0
 20
0.0
 30
0.0
  3
$PAPER_SPACE
  1

  0
ENDBLK
  5
1D
 67
     1
  8
0
  0
BLOCK
  8
0
  2
DC_GROUP_1
 70
     0
 10
0.0
 20
0.0
 30
0.0
  3
DC_GROUP_1
  1

  0
LINE
  5
19F
  8
LAYER0001
  6
CONTINUOUS
 62
     7
 10
396.4729120331614
 20
-5.057130387817484
 30
0.0
 11
395.937015639362
 21
-3.057131138532256
 31
0.0
  0
LINE
  5
1A0
  8
LAYER0001
  6
CONTINUOUS
 62
     7
 10
395.937015639362
 20
-3.057131138532256
 30
0.0
 11
397.4011173086567
 21
-4.52123094523844
 31
0.0
  0
LINE
  5
1A1
  8
LAYER0001
  6
CONTINUOUS
 62
     7
 10
395.937015639362
 20
-3.057131138532256
 30
0.0
 11
396.937014670909
 21
-4.789180666527962
 31
0.0
  0
ENDBLK
  5
4E
  8
0
  0
BLOCK
  8
0
  2
DC_GROUP_2
 70
     0
 10
0.0
 20
0.0
 30
0.0
  3
DC_GROUP_2
  1

  0
LINE
  5
1A2
  8
LAYER0001
  6
CONTINUOUS
 62
     7
 10
400.901118262086
 20
-10.58341181554708
 30
0.0
 11
401.4370146558854
 21
-12.58341106483231
 31
0.0
  0
LINE
  5
1A3
  8
LAYER0001
  6
CONTINUOUS
 62
     7
 10
401.4370146558854
 20
-12.58341106483231
 30
0.0
 11
399.9729129865906
 21
-11.11931125812612
 31
0.0
  0
LINE
  5
1A4
  8
LAYER0001
  6
CONTINUOUS
 62
     7
 10
401.4370146558854
 20
-12.58341106483231
 30
0.0
 11
400.4370156243383
 21
-10.8513615368366
 31
0.0
  0
ENDBLK
  5
51
  8
0
  0
BLOCK
  8
0
  2
DC_GROUP_3
 70
     0
 10
0.0
 20
0.0
 30
0.0
  3
DC_GROUP_3
  1

  0
LINE
  5
1A5
  8
LAYER0001
  6
CONTINUOUS
 62
     7
 10
229.3131360785868
 20
136.9432372485819
 30
0.0
 11
231.3131344862174
 21
136.4073377136843
 31
0.0
  0
LINE
  5
1A6
  8
LAYER0001
  6
CONTINUOUS
 62
     7
 10
231.3131344862174
 20
136.4073377136843
 30
0.0
 11
229.3131360785868
 21
135.8714381787867
 31
0.0
  0
LINE
  5
1A7
  8
LAYER0001
  6
CONTINUOUS
 62
     7
 10
231.3131344862174
 20
136.4073377136843
 30
0.0
 11
229.3131360785868
 21
136.4073377136843
 31
0.0
  0
ENDBLK
  5
54
  8
0
  0
BLOCK
  8
0
  2
DC_GROUP_4
 70
     0
 10
0.0
 20
0.0
 30
0.0
  3
DC_GROUP_4
  1

  0
LINE
  5
1A8
  8
LAYER0001
  6
CONTINUOUS
 62
     7
 10
221.0131145833013
 20
135.8714381787867
 30
0.0
 11
219.0131161756706
 21
136.4073377136843
 31
0.0
  0
LINE
  5
1A9
  8
LAYER0001
  6
CONTINUOUS
 62
     7
 10
219.0131161756706
 20
136.4073377136843
 30
0.0
 11
221.0131145833013
 21
136.9432372485819
 31
0.0
  0
LINE
  5
1AA
  8
LAYER0001
  6
CONTINUOUS
 62
     7
 10
219.0131161756706
 20
136.4073377136843
 30
0.0
 11
221.0131145833013
 21
136.4073377136843
 31
0.0
  0
ENDBLK
  5
57
  8
0
  0
BLOCK
  8
0
  2
DC_GROUP_5
 70
     0
 10
0.0
 20
0.0
 30
0.0
  3
DC_GROUP_5
  1

  0
LINE
  5
1AB
  8
0
  6
CONTINUOUS
 62
     5
 10
528.4681234794625
 20
82.78866608820324
 30
0.0
 11
530.7181254017112
 21
78.89154634924007
 31
0.0
  0
LINE
  5
1AC
  8
0
  6
CONTINUOUS
 62
     5
 10
529.4926145546009
 20
82.5141691177728
 30
0.0
 11
528.4681017843952
 21
82.7886866036452
 31
0.0
  0
LINE
  5
1AD
  8
0
  6
CONTINUOUS
 62
     5
 10
528.1936468922236
 20
81.76412650422792
 30
0.0
 11
528.4681681546405
 21
82.78865405957255
 31
0.0
  0
LINE
  5
1AE
  8
0
  6
CONTINUOUS
 62
     5
 10
530.7182032951857
 20
78.89151855236592
 30
0.0
 11
530.9927245576027
 21
79.91604610771056
 31
0.0
  0
LINE
  5
1AF
  8
0
  6
CONTINUOUS
 62
     5
 10
530.7181139063318
 20
78.8915759615553
 30
0.0
 11
529.6935863972681
 21
79.16609739669454
 31
0.0
  0
LINE
  5
1B0
  8
0
  6
CONTINUOUS
 62
     5
 10
521.597907102902
 20
79.68818625892352
 30
0.0
 11
534.5882897146536
 21
87.18818312967967
 31
0.0
  0
LINE
  5
1B1
  8
0
  6
CONTINUOUS
 62
     5
 10
526.9540472516567
 20
89.16264658516128
 30
0.0
 11
526.1873364680228
 21
88.54177668243939
 31
0.0
  0
LINE
  5
1B2
  8
0
  6
CONTINUOUS
 62
     5
 10
526.9540665712193
 20
89.16266497749538
 30
0.0
 11
526.3332061477883
 21
89.92936376369067
 31
0.0
  0
LINE
  5
1B3
  8
0
  6
CONTINUOUS
 62
     5
 10
534.5882957258576
 20
87.1881879767582
 30
0.0
 11
530.8382968136426
 21
93.68338010854026
 31
0.0
  0
LINE
  5
1B4
  8
0
  6
CONTINUOUS
 62
     5
 10
517.8479115371041
 20
86.18337068718864
 30
0.0
 11
530.8382941488555
 21
93.68336755794479
 31
0.0
  0
LINE
  5
1B5
  8
0
  6
CONTINUOUS
 62
     5
 10
521.5979068901587
 20
79.6881809053578
 30
0.0
 11
515.9729097139286
 21
89.43096703826518
 31
0.0
  0
LINE
  5
1B6
  8
0
  6
CONTINUOUS
 62
     5
 10
515.9729111912066
 20
89.43096734056748
 30
0.0
 11
517.9214685829692
 21
90.5559668711809
 31
0.0
  0
LINE
  5
1B7
  8
0
  6
CONTINUOUS
 62
     5
 10
518.483979660012
 20
89.58168479525713
 30
0.0
 11
517.921483709401
 21
90.55595688388823
 31
0.0
  0
LINE
  5
1B8
  8
0
  6
CONTINUOUS
 62
     5
 10
518.4839685866944
 20
89.58168776234639
 30
0.0
 11
519.7830068478695
 21
90.33168744942201
 31
0.0
  0
LINE
  5
1B9
  8
0
  6
CONTINUOUS
 62
     5
 10
520.3454984647643
 20
89.35740570086743
 30
0.0
 11
519.7829986994575
 21
90.3316843967488
 31
0.0
  0
LINE
  5
1BA
  8
0
  6
CONTINUOUS
 62
     5
 10
520.3455248344649
 20
89.35740771091601
 30
0.0
 11
521.64456309564
 21
90.10740739799162
 31
0.0
  0
LINE
  5
1BB
  8
0
  6
CONTINUOUS
 62
     5
 10
522.3945317513212
 20
88.80836471064119
 30
0.0
 11
521.6445321834549
 21
90.10740276533977
 31
0.0
  0
LINE
  5
1BC
  8
0
  6
CONTINUOUS
 62
     5
 10
522.5184934088958
 20
91.59376037689047
 30
0.0
 11
522.7930146713126
 21
92.61828793223509
 31
0.0
  0
LINE
  5
1BD
  8
0
  6
CONTINUOUS
 62
     5
 10
520.2298646143235
 20
91.13846395646893
 30
0.0
 11
522.7929755827604
 21
92.61827596949519
 31
0.0
  0
LINE
  5
1BE
  8
0
  6
CONTINUOUS
 62
     5
 10
522.7929713171582
 20
92.61830534313232
 30
0.0
 11
521.7684585469526
 21
92.89282282900473
 31
0.0
  0
ARC
  5
1BF
  8
0
  6
CONTINUOUS
 62
     5
 10
526.2746518202018
 20
86.62708056414569
 30
0.0
 40
2.625001907348633
 50
75.00008446424575
 51
369.9999367173826
  0
TEXT
  5
1C1
  8
0
 62
     5
 10
528.4420800178708
 20
79.0739705963496
 30
0.0
 40
2.5
  1
F
 50
119.9999866787419
 41
0.5442179498218123
  7
FDASTYLE1
 72
     5
 11
527.7618078545403
 21
80.25223717886571
 31
0.0
  0
TEXT
  5
1C2
  8
0
 62
     5
 10
531.0568297136381
 20
89.58330793290364
 30
0.0
 40
2.5
  1
N min
 50
119.9999866787419
 41
0.6995393319099847
  7
FDASTYLE1
 72
     5
 11
526.6847106498603
 21
97.1560443541762
 31
0.0
  0
TEXT
  5
1C3
  8
0
 62
     5
 10
523.0475564982589
 20
99.89808959533541
 30
0.0
 40
1.25
  1
-1
 50
119.9999866787419
 41
0.6149070012128706
  7
FDASTYLE1
 72
     5
 11
522.2789230562728
 21
101.2294024840807
 31
0.0
  0
TEXT
  5
1C4
  8
0
 62
     5
 10
521.787311188265
 20
94.00526851549371
 30
0.0
 40
2.5
  1
ΣS
 50
119.9999866787419
 41
0.7846700504791676
  7
FDASTYLE1
 72
     5
 11
519.6294694184138
 21
97.74276210236241
 31
0.0
  0
ENDBLK
  5
5A
  8
0
  0
BLOCK
  8
0
  2
DC_GROUP_6
 70
     0
 10
0.0
 20
0.0
 30
0.0
  3
DC_GROUP_6
  1

  0
CIRCLE
  5
1C5
  8
0
  6
CONTINUOUS
 62
     3
 10
483.3131344862174
 20
41.03871413115984
 30
0.0
 40
21.0
  0
ENDBLK
  5
5D
  8
0
  0
BLOCK
  8
0
  2
DC_GROUP_7
 70
     0
 10
0.0
 20
0.0
 30
0.0
  3
DC_GROUP_7
  1

  0
ARC
  5
1C6
  8
0
  6
CENTER
 62
     7
 10
483.3131344862174
 20
41.03871413115984
 30
0.0
 40
24.0
 50
80.04087635492591
 51
99.60576881731981
  0
ENDBLK
  5
60
  8
0
  0
BLOCK
  8
0
  2
DC_GROUP_8
 70
     0
 10
0.0
 20
0.0
 30
0.0
  3
DC_GROUP_8
  1

  0
ARC
  5
1C7
  8
0
  6
CENTER
 62
     7
 10
483.3131344862174
 20
41.03871413115984
 30
0.0
 40
24.0
 50
320.0408764307163
 51
339.6057688931102
  0
ENDBLK
  5
63
  8
0
  0
BLOCK
  8
0
  2
DC_GROUP_9
 70
     0
 10
0.0
 20
0.0
 30
0.0
  3
DC_GROUP_9
  1

  0
ARC
  5
1C8
  8
0
  6
CENTER
 62
     7
 10
483.3131344862174
 20
41.03871413115984
 30
0.0
 40
24.0
 50
200.0408765065066
 51
219.6057621387114
  0
ENDBLK
  5
66
  8
0
  0
BLOCK
  8
0
  2
DC_GROUP_10
 70
     0
 10
0.0
 20
0.0
 30
0.0
  3
DC_GROUP_10
  1

  0
LINE
  5
1C9
  8
0
  6
CONTINUOUS
 62
     9
 10
230.3131344862174
 20
20.038588095154
 30
0.0
 11
199.928795535323
 21
20.038588095154
 31
0.0
  0
LINE
  5
1CA
  8
0
  6
CONTINUOUS
 62
     9
 10
230.3131344862174
 20
62.03857474371357
 30
0.0
 11
199.928795535323
 21
62.03857474371357
 31
0.0
  0
LINE
  5
1CB
  8
0
  6
CONTINUOUS
 62
     9
 10
200.928795535323
 20
20.038588095154
 30
0.0
 11
200.928795535323
 21
62.03857474371357
 31
0.0
  0
INSERT
  5
1CC
  8
0
  6
CONTINUOUS
  2
DC_GROUP_11
 10
0.0
 20
0.0
 30
0.0
  0
INSERT
  5
1CD
  8
0
  6
CONTINUOUS
  2
DC_GROUP_12
 10
0.0
 20
0.0
 30
0.0
  0
TEXT
  5
1CE
  8
0
 62
     7
 10
199.928795535323
 20
31.57858141943378
 30
0.0
 40
4.0
  1
φ42
 50
90.0
 41
0.6093750000000009
  7
FDASTYLE1
 72
     5
 11
199.928795535323
 21
39.37858141943379
 31
0.0
  0
TEXT
  5
1CF
  8
0
 62
     7
 10
197.328795535323
 20
42.1785814194338
 30
0.0
 40
2.6
  1
+0.3
 50
90.0
 41
0.6571428571428556
  7
FDASTYLE1
 72
     5
 11
197.328795535323
 21
49.0128671337195
 31
0.0
  0
TEXT
  5
1D0
  8
0
 62
     7
 10
200.128795535323
 20
42.1785814194338
 30
0.0
 40
2.6
  1
 0
 50
90.0
 41
0.2666666666666646
  7
FDASTYLE1
 72
     5
 11
200.128795535323
 21
43.56524808610045
 31
0.0
  0
ENDBLK
  5
69
  8
0
  0
BLOCK
  8
0
  2
DC_GROUP_11
 70
     0
 10
0.0
 20
0.0
 30
0.0
  3
DC_GROUP_11
  1

  0
LINE
  5
1D1
  8
0
  6
CONTINUOUS
 62
     9
 10
201.4646950702206
 20
22.03858650278466
 30
0.0
 11
200.928795535323
 21
20.038588095154
 31
0.0
  0
LINE
  5
1D2
  8
0
  6
CONTINUOUS
 62
     9
 10
200.928795535323
 20
20.038588095154
 30
0.0
 11
200.3928960004254
 21
22.03858650278466
 31
0.0
  0
LINE
  5
1D3
  8
0
  6
CONTINUOUS
 62
     9
 10
200.928795535323
 20
20.038588095154
 30
0.0
 11
200.928795535323
 21
22.03858650278466
 31
0.0
  0
ENDBLK
  5
6C
  8
0
  0
BLOCK
  8
0
  2
DC_GROUP_12
 70
     0
 10
0.0
 20
0.0
 30
0.0
  3
DC_GROUP_12
  1

  0
LINE
  5
1D4
  8
0
  6
CONTINUOUS
 62
     9
 10
200.3928960004254
 20
60.03857633608291
 30
0.0
 11
200.928795535323
 21
62.03857474371357
 31
0.0
  0
LINE
  5
1D5
  8
0
  6
CONTINUOUS
 62
     9
 10
200.928795535323
 20
62.03857474371357
 30
0.0
 11
201.4646950702206
 21
60.03857633608291
 31
0.0
  0
LINE
  5
1D6
  8
0
  6
CONTINUOUS
 62
     9
 10
200.928795535323
 20
62.03857474371357
 30
0.0
 11
200.928795535323
 21
60.03857633608291
 31
0.0
  0
ENDBLK
  5
6F
  8
0
  0
BLOCK
  8
0
  2
DC_GROUP_13
 70
     0
 10
0.0
 20
0.0
 30
0.0
  3
DC_GROUP_13
  1

  0
LINE
  5
1D7
  8
0
  6
CONTINUOUS
 62
     9
 10
305.2222760267448
 20
85.0385709290163
 30
0.0
 11
312.2713211018519
 21
85.0385709290163
 31
0.0
  0
LINE
  5
1D8
  8
0
  6
CONTINUOUS
 62
     9
 10
284.3131344862175
 20
76.0385709290163
 30
0.0
 11
302.9969967230956
 21
76.0385709290163
 31
0.0
  0
LINE
  5
1D9
  8
0
  6
CONTINUOUS
 62
     9
 10
306.3235271168306
 20
76.0385709290163
 30
0.0
 11
312.2713211018519
 21
76.0385709290163
 31
0.0
  0
LINE
  5
1DA
  8
0
  6
CONTINUOUS
 62
     9
 10
311.2713211018519
 20
76.0385709290163
 30
0.0
 11
311.2713211018519
 21
85.0385709290163
 31
0.0
  0
INSERT
  5
1DB
  8
0
  6
CONTINUOUS
  2
DC_GROUP_14
 10
0.0
 20
0.0
 30
0.0
  0
INSERT
  5
1DC
  8
0
  6
CONTINUOUS
  2
DC_GROUP_15
 10
0.0
 20
0.0
 30
0.0
  0
TEXT
  5
1DD
  8
0
 62
     7
 10
310.2713211018519
 20
78.93857092901631
 30
0.0
 40
4.0
  1
8
 50
90.0
 41
0.5333333333333314
  7
FDASTYLE1
 72
     5
 11
310.2713211018519
 21
81.07190426234963
 31
0.0
  0
ENDBLK
  5
72
  8
0
  0
BLOCK
  8
0
  2
DC_GROUP_14
 70
     0
 10
0.0
 20
0.0
 30
0.0
  3
DC_GROUP_14
  1

  0
LINE
  5
1DE
  8
0
  6
CONTINUOUS
 62
     9
 10
311.8072206367496
 20
78.03856933664697
 30
0.0
 11
311.2713211018519
 21
76.0385709290163
 31
0.0
  0
LINE
  5
1DF
  8
0
  6
CONTINUOUS
 62
     9
 10
311.2713211018519
 20
76.0385709290163
 30
0.0
 11
310.7354215669543
 21
78.03856933664697
 31
0.0
  0
LINE
  5
1E0
  8
0
  6
CONTINUOUS
 62
     9
 10
311.2713211018519
 20
76.0385709290163
 30
0.0
 11
311.2713211018519
 21
78.03856933664697
 31
0.0
  0
ENDBLK
  5
75
  8
0
  0
BLOCK
  8
0
  2
DC_GROUP_15
 70
     0
 10
0.0
 20
0.0
 30
0.0
  3
DC_GROUP_15
  1

  0
LINE
  5
1E1
  8
0
  6
CONTINUOUS
 62
     9
 10
310.7354215669543
 20
83.03857252138565
 30
0.0
 11
311.2713211018519
 21
85.0385709290163
 31
0.0
  0
LINE
  5
1E2
  8
0
  6
CONTINUOUS
 62
     9
 10
311.2713211018519
 20
85.0385709290163
 30
0.0
 11
311.8072206367496
 21
83.03857252138565
 31
0.0
  0
LINE
  5
1E3
  8
0
  6
CONTINUOUS
 62
     9
 10
311.2713211018519
 20
85.0385709290163
 30
0.0
 11
311.2713211018519
 21
83.03857252138565
 31
0.0
  0
ENDBLK
  5
78
  8
0
  0
BLOCK
  8
0
  2
DC_GROUP_16
 70
     0
 10
0.0
 20
0.0
 30
0.0
  3
DC_GROUP_16
  1

  0
LINE
  5
1E4
  8
0
  6
CONTINUOUS
 62
     9
 10
253.3131344862174
 20
15.78858904882831
 30
0.0
 11
189.757824687673
 21
15.78858904882831
 31
0.0
  0
LINE
  5
1E5
  8
0
  6
CONTINUOUS
 62
     9
 10
253.3131344862174
 20
66.28857474371357
 30
0.0
 11
189.757824687673
 21
66.28857474371357
 31
0.0
  0
LINE
  5
1E6
  8
0
  6
CONTINUOUS
 62
     9
 10
190.757824687673
 20
15.78858904882831
 30
0.0
 11
190.757824687673
 21
66.28857474371357
 31
0.0
  0
INSERT
  5
1E7
  8
0
  6
CONTINUOUS
  2
DC_GROUP_17
 10
0.0
 20
0.0
 30
0.0
  0
INSERT
  5
1E8
  8
0
  6
CONTINUOUS
  2
DC_GROUP_18
 10
0.0
 20
0.0
 30
0.0
  0
TEXT
  5
1E9
  8
0
 62
     7
 10
189.757824687673
 20
29.83858189627095
 30
0.0
 40
4.0
  1
φ50.5Ｈ7
 50
90.0
 41
0.6135865595325046
  7
FDASTYLE1
 72
     5
 11
189.757824687673
 21
48.00074405843309
 31
0.0
  0
ENDBLK
  5
7B
  8
0
  0
BLOCK
  8
0
  2
DC_GROUP_17
 70
     0
 10
0.0
 20
0.0
 30
0.0
  3
DC_GROUP_17
  1

  0
LINE
  5
1EA
  8
0
  6
CONTINUOUS
 62
     9
 10
191.2937242225706
 20
17.78858745645898
 30
0.0
 11
190.757824687673
 21
15.78858904882831
 31
0.0
  0
LINE
  5
1EB
  8
0
  6
CONTINUOUS
 62
     9
 10
190.757824687673
 20
15.78858904882831
 30
0.0
 11
190.2219251527754
 21
17.78858745645898
 31
0.0
  0
LINE
  5
1EC
  8
0
  6
CONTINUOUS
 62
     9
 10
190.757824687673
 20
15.78858904882831
 30
0.0
 11
190.757824687673
 21
17.78858745645898
 31
0.0
  0
ENDBLK
  5
7E
  8
0
  0
BLOCK
  8
0
  2
DC_GROUP_18
 70
     0
 10
0.0
 20
0.0
 30
0.0
  3
DC_GROUP_18
  1

  0
LINE
  5
1ED
  8
0
  6
CONTINUOUS
 62
     9
 10
190.2219251527754
 20
64.2885763360829
 30
0.0
 11
190.757824687673
 21
66.28857474371357
 31
0.0
  0
LINE
  5
1EE
  8
0
  6
CONTINUOUS
 62
     9
 10
190.757824687673
 20
66.28857474371357
 30
0.0
 11
191.2937242225706
 21
64.2885763360829
 31
0.0
  0
LINE
  5
1EF
  8
0
  6
CONTINUOUS
 62
     9
 10
190.757824687673
 20
66.28857474371357
 30
0.0
 11
190.757824687673
 21
64.2885763360829
 31
0.0
  0
ENDBLK
  5
81
  8
0
  0
BLOCK
  8
0
  2
DC_GROUP_19
 70
     0
 10
0.0
 20
0.0
 30
0.0
  3
DC_GROUP_19
  1

  0
LINE
  5
1F0
  8
0
  6
CONTINUOUS
 62
     9
 10
203.3131192274284
 20
-59.99431526764464
 30
0.0
 11
219.0131161756706
 21
-59.99431526764464
 31
0.0
  0
LINE
  5
1F1
  8
0
  6
CONTINUOUS
 62
     9
 10
203.3131192274284
 20
-17.34641404107647
 30
0.0
 11
203.3131192274284
 21
-60.99431526764464
 31
0.0
  0
LINE
  5
1F2
  8
0
  6
CONTINUOUS
 62
     9
 10
219.0131161756706
 20
-29.96141381219464
 30
0.0
 11
219.0131161756706
 21
-60.99431526764464
 31
0.0
  0
LINE
  5
1F3
  8
0
  6
CONTINUOUS
 62
     9
 10
186.5812692274284
 20
-59.99431526764464
 30
0.0
 11
203.3131192274284
 21
-59.99431526764464
 31
0.0
  0
INSERT
  5
1F4
  8
0
  6
CONTINUOUS
  2
DC_GROUP_20
 10
0.0
 20
0.0
 30
0.0
  0
TEXT
  5
1F5
  8
0
 62
     7
 10
187.5812692274284
 20
-58.99431526764464
 30
0.0
 40
4.0
  1
15.7
 41
0.5809523809523807
  7
FDASTYLE1
 72
     5
 11
196.8765073226665
 21
-58.99431526764464
 31
0.0
  0
ENDBLK
  5
84
  8
0
  0
BLOCK
  8
0
  2
DC_GROUP_20
 70
     0
 10
0.0
 20
0.0
 30
0.0
  3
DC_GROUP_20
  1

  0
LINE
  5
1F6
  8
0
  6
CONTINUOUS
 62
     9
 10
201.3131208197977
 20
-59.45841573274703
 30
0.0
 11
203.3131192274284
 21
-59.99431526764464
 31
0.0
  0
LINE
  5
1F7
  8
0
  6
CONTINUOUS
 62
     9
 10
203.3131192274284
 20
-59.99431526764464
 30
0.0
 11
201.3131208197977
 21
-60.53021480254225
 31
0.0
  0
LINE
  5
1F8
  8
0
  6
CONTINUOUS
 62
     9
 10
203.3131192274284
 20
-59.99431526764464
 30
0.0
 11
201.3131208197977
 21
-59.99431526764464
 31
0.0
  0
ENDBLK
  5
87
  8
0
  0
BLOCK
  8
0
  2
DC_GROUP_21
 70
     0
 10
0.0
 20
0.0
 30
0.0
  3
DC_GROUP_21
  1

  0
LINE
  5
1F9
  8
0
  6
CONTINUOUS
 62
     9
 10
219.0131161756706
 20
-50.7418962371323
 30
0.0
 11
251.0131161756706
 21
-50.7418962371323
 31
0.0
  0
LINE
  5
1FA
  8
0
  6
CONTINUOUS
 62
     9
 10
219.0131161756706
 20
-33.02532051995831
 30
0.0
 11
219.0131161756706
 21
-51.7418962371323
 31
0.0
  0
LINE
  5
1FB
  8
0
  6
CONTINUOUS
 62
     9
 10
251.0131161756706
 20
-42.97922112413264
 30
0.0
 11
251.0131161756706
 21
-51.7418962371323
 31
0.0
  0
INSERT
  5
1FC
  8
0
  6
CONTINUOUS
  2
DC_GROUP_22
 10
0.0
 20
0.0
 30
0.0
  0
INSERT
  5
1FD
  8
0
  6
DIVIDE
  2
DC_GROUP_23
 10
0.0
 20
0.0
 30
0.0
  0
TEXT
  5
1FE
  8
0
 62
     7
 10
231.8131161756706
 20
-49.7418962371323
 30
0.0
 40
4.0
  1
32
 41
0.6476190476190489
  7
FDASTYLE1
 72
     5
 11
236.994068556623
 21
-49.7418962371323
 31
0.0
  0
ENDBLK
  5
8A
  8
0
  0
BLOCK
  8
0
  2
DC_GROUP_22
 70
     0
 10
0.0
 20
0.0
 30
0.0
  3
DC_GROUP_22
  1

  0
LINE
  5
1FF
  8
0
  6
CONTINUOUS
 62
     9
 10
221.0131145833013
 20
-51.27779577202991
 30
0.0
 11
219.0131161756706
 21
-50.7418962371323
 31
0.0
  0
LINE
  5
200
  8
0
  6
CONTINUOUS
 62
     9
 10
219.0131161756706
 20
-50.7418962371323
 30
0.0
 11
221.0131145833013
 21
-50.20599670223469
 31
0.0
  0
LINE
  5
201
  8
0
  6
CONTINUOUS
 62
     9
 10
219.0131161756706
 20
-50.7418962371323
 30
0.0
 11
221.0131145833013
 21
-50.7418962371323
 31
0.0
  0
ENDBLK
  5
8D
  8
0
  0
BLOCK
  8
0
  2
DC_GROUP_23
 70
     0
 10
0.0
 20
0.0
 30
0.0
  3
DC_GROUP_23
  1

  0
LINE
  5
202
  8
0
  6
CONTINUOUS
 62
     9
 10
249.0131177680399
 20
-50.20599670223469
 30
0.0
 11
251.0131161756706
 21
-50.7418962371323
 31
0.0
  0
LINE
  5
203
  8
0
  6
CONTINUOUS
 62
     9
 10
251.0131161756706
 20
-50.7418962371323
 30
0.0
 11
249.0131177680399
 21
-51.27779577202991
 31
0.0
  0
LINE
  5
204
  8
0
  6
CONTINUOUS
 62
     9
 10
251.0131161756706
 20
-50.7418962371323
 30
0.0
 11
249.0131177680399
 21
-50.7418962371323
 31
0.0
  0
ENDBLK
  5
90
  8
0
  0
BLOCK
  8
0
  2
DC_GROUP_24
 70
     0
 10
0.0
 20
0.0
 30
0.0
  3
DC_GROUP_24
  1

  0
LINE
  5
205
  8
0
  6
CONTINUOUS
 62
     7
 10
251.0131161756706
 20
-38.96142525628643
 30
0.0
 11
298.4571976923663
 21
-60.17855906809599
 31
0.0
  0
LINE
  5
206
  8
0
  6
CONTINUOUS
 62
     7
 10
298.4571976923663
 20
-60.17855906809599
 30
0.0
 11
314.4571976923663
 21
-60.17855906809599
 31
0.0
  0
INSERT
  5
207
  8
0
  6
DIVIDE
  2
DC_GROUP_25
 10
0.0
 20
0.0
 30
0.0
  0
TEXT
  5
208
  8
0
 62
     7
 10
298.4571976923663
 20
-60.17855906809599
 30
0.0
 40
4.0
  1
M8×12
 41
0.6213017751479282
  7
FDASTYLE1
 72
     5
 11
311.3802746154432
 21
-60.17855906809599
 31
0.0
  0
ENDBLK
  5
93
  8
0
  0
BLOCK
  8
0
  2
DC_GROUP_25
 70
     0
 10
0.0
 20
0.0
 30
0.0
  3
DC_GROUP_25
  1

  0
LINE
  5
209
  8
0
  6
CONTINUOUS
 62
     7
 10
252.6200880809087
 20
-40.267114054509
 30
0.0
 11
251.0131161756706
 21
-38.96142525628643
 31
0.0
  0
LINE
  5
20A
  8
0
  6
CONTINUOUS
 62
     7
 10
251.0131161756706
 20
-38.96142525628643
 30
0.0
 11
253.0576395493332
 21
-39.28869596468565
 31
0.0
  0
LINE
  5
20B
  8
0
  6
CONTINUOUS
 62
     7
 10
251.0131161756706
 20
-38.96142525628643
 30
0.0
 11
252.838863815121
 21
-39.77790500959733
 31
0.0
  0
ENDBLK
  5
96
  8
0
  0
BLOCK
  8
0
  2
DC_GROUP_26
 70
     0
 10
0.0
 20
0.0
 30
0.0
  3
DC_GROUP_26
  1

  0
LINE
  5
20C
  8
0
  6
CONTINUOUS
 62
     9
 10
506.3131344862174
 20
45.73934050445085
 30
0.0
 11
506.3131344862174
 21
50.69899227849751
 31
0.0
  0
LINE
  5
20D
  8
0
  6
CONTINUOUS
 62
     9
 10
460.3131344862174
 20
45.90600462798601
 30
0.0
 11
460.3131344862174
 21
50.69899227849751
 31
0.0
  0
LINE
  5
20E
  8
0
  6
CONTINUOUS
 62
     9
 10
460.3131344862174
 20
49.69899227849751
 30
0.0
 11
506.3131344862174
 21
49.69899227849751
 31
0.0
  0
INSERT
  5
20F
  8
0
  6
CONTINUOUS
  2
DC_GROUP_27
 10
0.0
 20
0.0
 30
0.0
  0
INSERT
  5
210
  8
0
  6
CONTINUOUS
  2
DC_GROUP_28
 10
0.0
 20
0.0
 30
0.0
  0
TEXT
  5
211
  8
0
 62
     7
 10
475.3131344862174
 20
50.69899227849751
 30
0.0
 40
4.0
  1
PCD46
 41
0.7314285714285717
  7
FDASTYLE1
 72
     5
 11
489.9417059147888
 21
50.69899227849751
 31
0.0
  0
ENDBLK
  5
99
  8
0
  0
BLOCK
  8
0
  2
DC_GROUP_27
 70
     0
 10
0.0
 20
0.0
 30
0.0
  3
DC_GROUP_27
  1

  0
LINE
  5
212
  8
0
  6
CONTINUOUS
 62
     9
 10
462.3131328938481
 20
49.1630927435999
 30
0.0
 11
460.3131344862174
 21
49.69899227849751
 31
0.0
  0
LINE
  5
213
  8
0
  6
CONTINUOUS
 62
     9
 10
460.3131344862174
 20
49.69899227849751
 30
0.0
 11
462.3131328938481
 21
50.23489181339512
 31
0.0
  0
LINE
  5
214
  8
0
  6
CONTINUOUS
 62
     9
 10
460.3131344862174
 20
49.69899227849751
 30
0.0
 11
462.3131328938481
 21
49.69899227849751
 31
0.0
  0
ENDBLK
  5
9C
  8
0
  0
BLOCK
  8
0
  2
DC_GROUP_28
 70
     0
 10
0.0
 20
0.0
 30
0.0
  3
DC_GROUP_28
  1

  0
LINE
  5
215
  8
0
  6
CONTINUOUS
 62
     9
 10
504.3131360785867
 20
50.23489181339512
 30
0.0
 11
506.3131344862174
 21
49.69899227849751
 31
0.0
  0
LINE
  5
216
  8
0
  6
CONTINUOUS
 62
     9
 10
506.3131344862174
 20
49.69899227849751
 30
0.0
 11
504.3131360785867
 21
49.1630927435999
 31
0.0
  0
LINE
  5
217
  8
0
  6
CONTINUOUS
 62
     9
 10
506.3131344862174
 20
49.69899227849751
 30
0.0
 11
504.3131360785867
 21
49.69899227849751
 31
0.0
  0
ENDBLK
  5
9F
  8
0
  0
BLOCK
  8
0
  2
DC_GROUP_29
 70
     0
 10
0.0
 20
0.0
 30
0.0
  3
DC_GROUP_29
  1

  0
LINE
  5
218
  8
0
  6
CONTINUOUS
 62
     7
 10
459.4852452381394
 20
42.40787426394588
 30
0.0
 11
437.5993099431821
 21
120.2028530297081
 31
0.0
  0
LINE
  5
219
  8
0
  6
CONTINUOUS
 62
     7
 10
437.5993099431821
 20
120.2028530297081
 30
0.0
 11
418.3993099431821
 21
120.2028530297081
 31
0.0
  0
INSERT
  5
21A
  8
0
  6
CONTINUOUS
  2
DC_GROUP_30
 10
0.0
 20
0.0
 30
0.0
  0
TEXT
  5
21B
  8
0
 62
     7
 10
418.3993099431821
 20
120.2028530297081
 30
0.0
 40
4.0
  1
2-φ3.2
 41
0.6243496357960464
  7
FDASTYLE1
 72
     5
 11
433.883180910924
 21
120.2028530297081
 31
0.0
  0
ENDBLK
  5
A2
  8
0
  0
BLOCK
  8
0
  2
DC_GROUP_30
 70
     0
 10
0.0
 20
0.0
 30
0.0
  3
DC_GROUP_30
  1

  0
LINE
  5
21C
  8
0
  6
CONTINUOUS
 62
     7
 10
459.4594883290432
 20
44.47826517477949
 30
0.0
 11
459.4852452381394
 21
42.40787426394588
 31
0.0
  0
LINE
  5
21D
  8
0
  6
CONTINUOUS
 62
     7
 10
459.4852452381394
 20
42.40787426394588
 30
0.0
 11
458.4277410263866
 21
44.1880053782613
 31
0.0
  0
LINE
  5
21E
  8
0
  6
CONTINUOUS
 62
     7
 10
459.4852452381394
 20
42.40787426394588
 30
0.0
 11
458.9436146777149
 21
44.3331352765204
 31
0.0
  0
ENDBLK
  5
A5
  8
0
  0
BLOCK
  8
0
  2
DC_GROUP_31
 70
     0
 10
0.0
 20
0.0
 30
0.0
  3
DC_GROUP_31
  1

  0
LINE
  5
21F
  8
LAYER0001
  6
CONTINUOUS
 62
     7
 10
484.9722800925485
 20
0.4210028521033706
 30
0.0
 11
514.005467986631
 21
-53.67467215431269
 31
0.0
  0
LINE
  5
220
  8
LAYER0001
  6
CONTINUOUS
 62
     7
 10
514.0054562635612
 20
-53.67467343365705
 30
0.0
 11
558.7110607132158
 21
-53.67467343365705
 31
0.0
  0
INSERT
  5
221
  8
LAYER0001
  6
CONTINUOUS
  2
DC_GROUP_32
 10
0.0
 20
0.0
 30
0.0
  0
TEXT
  5
222
  8
LAYER0001
 62
     7
 10
514.6975644178581
 20
-52.07467724835431
 30
0.0
 40
4.0
  1
3-M6×13 PCD76
 41
0.6326905417814503
  7
FDASTYLE1
 72
     5
 11
548.1036250239187
 21
-52.07467724835431
 31
0.0
  0
ENDBLK
  5
A8
  8
0
  0
BLOCK
  8
0
  2
DC_GROUP_32
 70
     0
 10
0.0
 20
0.0
 30
0.0
  3
DC_GROUP_32
  1

  0
LINE
  5
223
  8
LAYER0001
  6
CONTINUOUS
 62
     7
 10
485.4458819040654
 20
-1.59465665936095
 30
0.0
 11
484.9722800925485
 21
0.4210028521033706
 31
0.0
  0
LINE
  5
224
  8
LAYER0001
  6
CONTINUOUS
 62
     7
 10
484.9722800925485
 20
0.4210028521033706
 30
0.0
 11
486.3902632679297
 21
-1.087806498465625
 31
0.0
  0
LINE
  5
225
  8
LAYER0001
  6
CONTINUOUS
 62
     7
 10
484.9722800925485
 20
0.4210028521033706
 30
0.0
 11
485.9180725859976
 21
-1.341231578913288
 31
0.0
  0
ENDBLK
  5
AB
  8
0
  0
BLOCK
  8
0
  2
DC_GROUP_33
 70
     0
 10
0.0
 20
0.0
 30
0.0
  3
DC_GROUP_33
  1

  0
LINE
  5
226
  8
LAYER0001
  6
CONTINUOUS
 62
     7
 10
478.5411932744412
 20
-18.10591249740945
 30
0.0
 11
456.2461647172064
 21
-53.5925898163286
 31
0.0
  0
LINE
  5
227
  8
LAYER0001
  6
CONTINUOUS
 62
     7
 10
456.2461636610221
 20
-53.5925925925926
 30
0.0
 11
421.8296017700211
 21
-53.5925925925926
 31
0.0
  0
INSERT
  5
228
  8
LAYER0001
  6
CONTINUOUS
  2
DC_GROUP_34
 10
0.0
 20
0.0
 30
0.0
  0
TEXT
  5
229
  8
LAYER0001
 62
     7
 10
427.1001248426628
 20
-51.99258877789533
 30
0.0
 40
4.0
  1
PCD104.77
 41
0.7026455026455017
  7
FDASTYLE1
 72
     5
 11
452.3953629379008
 21
-51.99258877789533
 31
0.0
  0
ENDBLK
  5
AE
  8
0
  0
BLOCK
  8
0
  2
DC_GROUP_34
 70
     0
 10
0.0
 20
0.0
 30
0.0
  3
DC_GROUP_34
  1

  0
LINE
  5
22A
  8
LAYER0001
  6
CONTINUOUS
 62
     7
 10
477.023448506723
 20
-19.51432747961204
 30
0.0
 11
478.5411932744412
 21
-18.10591249740945
 31
0.0
  0
LINE
  5
22B
  8
LAYER0001
  6
CONTINUOUS
 62
     7
 10
478.5411932744412
 20
-18.10591249740945
 30
0.0
 11
477.9309981509321
 21
-20.08450893258117
 31
0.0
  0
LINE
  5
22C
  8
LAYER0001
  6
CONTINUOUS
 62
     7
 10
478.5411932744412
 20
-18.10591249740945
 30
0.0
 11
477.4772233288275
 21
-19.79941820609661
 31
0.0
  0
ENDBLK
  5
B1
  8
0
  0
BLOCK
  8
0
  2
DC_GROUP_35
 70
     0
 10
0.0
 20
0.0
 30
0.0
  3
DC_GROUP_35
  1

  0
LINE
  5
22D
  8
LAYER0001
  6
CONTINUOUS
 62
     7
 10
404.8313977301925
 20
11.89300092904963
 30
0.0
 11
382.0756998429401
 21
-1.245005137154621
 31
0.0
  0
LINE
  5
22E
  8
LAYER0001
  6
CONTINUOUS
 62
     7
 10
404.2123663694386
 20
-20.79601530773991
 30
0.0
 11
396.0757000813584
 21
-25.49372098045238
 31
0.0
  0
LINE
  5
22F
  8
LAYER0001
  6
CONTINUOUS
 62
     7
 10
382.9417224297629
 20
-0.7450002413219039
 30
0.0
 11
396.9417236218555
 21
-24.99371773643212
 31
0.0
  0
INSERT
  5
230
  8
LAYER0001
  6
CONTINUOUS
  2
DC_GROUP_36
 10
0.0
 20
0.0
 30
0.0
  0
INSERT
  5
231
  8
LAYER0001
  6
CONTINUOUS
  2
DC_GROUP_37
 10
0.0
 20
0.0
 30
0.0
  0
TEXT
  5
232
  8
LAYER0001
 62
     7
 10
389.7273609477022
 20
-9.298077123846642
 30
0.0
 40
4.0
  1
28
 50
-59.99999999999999
 41
0.647619047619046
  7
FDASTYLE1
 72
     5
 11
392.3178371381784
 21
-13.78491350154887
 31
0.0
  0
ENDBLK
  5
B4
  8
0
  0
BLOCK
  8
0
  2
DC_GROUP_36
 70
     0
 10
0.0
 20
0.0
 30
0.0
  3
DC_GROUP_36
  1

  0
LINE
  5
233
  8
LAYER0001
  6
CONTINUOUS
 62
     7
 10
383.4776188751815
 20
-2.744999476775876
 30
0.0
 11
382.9417224297629
 21
-0.7450002413219039
 31
0.0
  0
LINE
  5
234
  8
LAYER0001
  6
CONTINUOUS
 62
     7
 10
382.9417224297629
 20
-0.7450002413219039
 30
0.0
 11
384.4058241368455
 21
-2.209100010240256
 31
0.0
  0
LINE
  5
235
  8
LAYER0001
  6
CONTINUOUS
 62
     7
 10
382.9417224297629
 20
-0.7450002413219039
 30
0.0
 11
383.9417215060134
 21
-2.477049743508067
 31
0.0
  0
ENDBLK
  5
B7
  8
0
  0
BLOCK
  8
0
  2
DC_GROUP_37
 70
     0
 10
0.0
 20
0.0
 30
0.0
  3
DC_GROUP_37
  1

  0
LINE
  5
236
  8
LAYER0001
  6
CONTINUOUS
 62
     7
 10
396.405827176437
 20
-22.99371850097815
 30
0.0
 11
396.9417236218555
 21
-24.99371773643212
 31
0.0
  0
LINE
  5
237
  8
LAYER0001
  6
CONTINUOUS
 62
     7
 10
396.9417236218555
 20
-24.99371773643212
 30
0.0
 11
395.477621914773
 21
-23.52961796751377
 31
0.0
  0
LINE
  5
238
  8
LAYER0001
  6
CONTINUOUS
 62
     7
 10
396.9417236218555
 20
-24.99371773643212
 30
0.0
 11
395.941724545605
 21
-23.26166823424596
 31
0.0
  0
ENDBLK
  5
BA
  8
0
  0
BLOCK
  8
0
  2
DC_GROUP_38
 70
     0
 10
0.0
 20
0.0
 30
0.0
  3
DC_GROUP_38
  1

  0
LINE
  5
239
  8
LAYER0001
  6
CONTINUOUS
 62
     7
 10
563.2069430859112
 20
-5.088058048845126
 30
0.0
 11
565.7546412886566
 21
-6.558968601742421
 31
0.0
  0
LINE
  5
23A
  8
LAYER0001
  6
CONTINUOUS
 62
     7
 10
574.7336531160429
 20
41.03874206711461
 30
0.0
 11
578.5083961602436
 21
41.03858465719483
 31
0.0
  0
ARC
  5
23B
  8
LAYER0001
  6
CONTINUOUS
 62
     7
 10
483.3132107801628
 20
41.0386444374367
 30
0.0
 40
94.19518280029297
 50
329.9999855047956
 51
359.9999890456966
  0
INSERT
  5
23C
  8
LAYER0001
  6
CONTINUOUS
  2
DC_GROUP_39
 10
0.0
 20
0.0
 30
0.0
  0
INSERT
  5
23D
  8
LAYER0001
  6
CONTINUOUS
  2
DC_GROUP_40
 10
0.0
 20
0.0
 30
0.0
  0
TEXT
  5
23E
  8
LAYER0001
 62
     7
 10
571.5109479683659
 20
12.43678194408459
 30
0.0
 40
4.0
  1
30ﾟ
 50
75.0
 41
0.4499999999999962
  7
FDASTYLE1
 72
     5
 11
572.9085708119195
 21
17.65278140604553
 31
0.0
  0
ENDBLK
  5
BD
  8
0
  0
BLOCK
  8
0
  2
DC_GROUP_39
 70
     0
 10
0.0
 20
0.0
 30
0.0
  3
DC_GROUP_39
  1

  0
LINE
  5
23F
  8
LAYER0001
  6
CONTINUOUS
 62
     7
 10
566.3370968149908
 20
-4.57940783402443
 30
0.0
 11
564.8886200841582
 21
-6.058967600395995
 31
0.0
  0
LINE
  5
240
  8
LAYER0001
  6
CONTINUOUS
 62
     7
 10
564.8886200841582
 20
-6.058967600395995
 30
0.0
 11
565.4032548962809
 21
-4.053392133807883
 31
0.0
  0
LINE
  5
241
  8
LAYER0001
  6
CONTINUOUS
 62
     7
 10
564.8886200841582
 20
-6.058967600395995
 30
0.0
 11
565.8701758556358
 21
-4.316399983916163
 31
0.0
  0
ENDBLK
  5
C0
  8
0
  0
BLOCK
  8
0
  2
DC_GROUP_40
 70
     0
 10
0.0
 20
0.0
 30
0.0
  3
DC_GROUP_40
  1

  0
LINE
  5
242
  8
LAYER0001
  6
CONTINUOUS
 62
     7
 10
576.9512917823524
 20
39.0444299665043
 30
0.0
 11
577.508393580454
 21
41.03862642838578
 31
0.0
  0
LINE
  5
243
  8
LAYER0001
  6
CONTINUOUS
 62
     7
 10
577.508393580454
 20
41.03862642838578
 30
0.0
 11
578.0230304521282
 21
39.03305149028397
 31
0.0
  0
LINE
  5
244
  8
LAYER0001
  6
CONTINUOUS
 62
     7
 10
577.508393580454
 20
41.03862642838578
 30
0.0
 11
577.4871611172403
 21
39.03874072839414
 31
0.0
  0
ENDBLK
  5
C3
  8
0
  0
BLOCK
  8
0
  2
DC_GROUP_41
 70
     0
 10
0.0
 20
0.0
 30
0.0
  3
DC_GROUP_41
  1

  0
LINE
  5
245
  8
LAYER0001
  6
CONTINUOUS
 62
     7
 10
574.7336839651188
 20
41.03877694652144
 30
0.0
 11
578.5083964901914
 21
41.03869098892844
 31
0.0
  0
LINE
  5
246
  8
LAYER0001
  6
CONTINUOUS
 62
     7
 10
559.4726807930751
 20
85.00943705689785
 30
0.0
 11
565.754612083603
 21
88.63632571489758
 31
0.0
  0
ARC
  5
247
  8
LAYER0001
  6
CONTINUOUS
 62
     7
 10
483.3131497450065
 20
41.0386444374367
 30
0.0
 40
94.19524383544922
 50
0.0000440415349604
 51
30.00004181596108
  0
INSERT
  5
248
  8
LAYER0001
  6
CONTINUOUS
  2
DC_GROUP_42
 10
0.0
 20
0.0
 30
0.0
  0
INSERT
  5
249
  8
LAYER0001
  6
CONTINUOUS
  2
DC_GROUP_43
 10
0.0
 20
0.0
 30
0.0
  0
TEXT
  5
24A
  8
LAYER0001
 62
     7
 10
574.6018953537019
 20
70.46878795659882
 30
0.0
 40
4.0
  1
30ﾟ
 50
-75.00000000000003
 41
0.4499999999999961
  7
FDASTYLE1
 72
     5
 11
575.9995181972555
 21
65.25278849463788
 31
0.0
  0
ENDBLK
  5
C6
  8
0
  0
BLOCK
  8
0
  2
DC_GROUP_42
 70
     0
 10
0.0
 20
0.0
 30
0.0
  3
DC_GROUP_42
  1

  0
LINE
  5
24B
  8
LAYER0001
  6
CONTINUOUS
 62
     7
 10
578.0230293077166
 20
43.04429207422967
 30
0.0
 11
577.5083935804279
 21
41.03871684247525
 31
0.0
  0
LINE
  5
24C
  8
LAYER0001
  6
CONTINUOUS
 62
     7
 10
577.5083935804279
 20
41.03871684247525
 30
0.0
 11
576.9512906444335
 21
43.0329129864729
 31
0.0
  0
LINE
  5
24D
  8
LAYER0001
  6
CONTINUOUS
 62
     7
 10
577.5083935804279
 20
41.03871684247525
 30
0.0
 11
577.487159976075
 21
43.03860253035128
 31
0.0
  0
ENDBLK
  5
C9
  8
0
  0
BLOCK
  8
0
  2
DC_GROUP_43
 70
     0
 10
0.0
 20
0.0
 30
0.0
  3
DC_GROUP_43
  1

  0
LINE
  5
24E
  8
LAYER0001
  6
CONTINUOUS
 62
     7
 10
565.4032252313266
 20
86.13075067341637
 30
0.0
 11
564.8885894490749
 21
88.13632589106709
 31
0.0
  0
LINE
  5
24F
  8
LAYER0001
  6
CONTINUOUS
 62
     7
 10
564.8885894490749
 20
88.13632589106709
 30
0.0
 11
566.337066895594
 21
86.65676682534722
 31
0.0
  0
LINE
  5
250
  8
LAYER0001
  6
CONTINUOUS
 62
     7
 10
564.8885894490749
 20
88.13632589106709
 30
0.0
 11
565.8701460634604
 21
86.39375874938179
 31
0.0
  0
ENDBLK
  5
CC
  8
0
  0
BLOCK
  8
0
  2
DC_GROUP_44
 70
     0
 10
0.0
 20
0.0
 30
0.0
  3
DC_GROUP_44
  1

  0
LINE
  5
251
  8
LAYER0001
  6
CONTINUOUS
 62
     7
 10
388.8193536167767
 20
-38.92079625371432
 30
0.0
 11
399.0472937590034
 21
-33.0156929117516
 31
0.0
  0
LINE
  5
252
  8
LAYER0001
  6
CONTINUOUS
 62
     7
 10
396.819365724771
 20
-52.77721377271852
 30
0.0
 11
407.0473009115603
 21
-46.87211329177858
 31
0.0
  0
LINE
  5
253
  8
LAYER0001
  6
CONTINUOUS
 62
     7
 10
398.181268311158
 20
-33.51569288194928
 30
0.0
 11
406.1812754637149
 21
-47.37211326197625
 31
0.0
  0
INSERT
  5
254
  8
LAYER0001
  6
CONTINUOUS
  2
DC_GROUP_45
 10
0.0
 20
0.0
 30
0.0
  0
INSERT
  5
255
  8
LAYER0001
  6
CONTINUOUS
  2
DC_GROUP_46
 10
0.0
 20
0.0
 30
0.0
  0
TEXT
  5
256
  8
LAYER0001
 62
     7
 10
401.1669086771944
 20
-35.4869775697105
 30
0.0
 40
4.0
  1
φ16
 50
-59.99999999999999
 41
0.609374999999999
  7
FDASTYLE1
 72
     5
 11
405.0669086771944
 21
-42.24197571922912
 31
0.0
  0
ENDBLK
  5
CF
  8
0
  0
BLOCK
  8
0
  2
DC_GROUP_45
 70
     0
 10
0.0
 20
0.0
 30
0.0
  3
DC_GROUP_45
  1

  0
LINE
  5
257
  8
LAYER0001
  6
CONTINUOUS
 62
     7
 10
398.7171648081956
 20
-35.51569210357199
 30
0.0
 11
398.181268311158
 21
-33.51569288194928
 31
0.0
  0
LINE
  5
258
  8
LAYER0001
  6
CONTINUOUS
 62
     7
 10
398.181268311158
 20
-33.51569288194928
 30
0.0
 11
399.6453700560282
 21
-34.9797926130798
 31
0.0
  0
LINE
  5
259
  8
LAYER0001
  6
CONTINUOUS
 62
     7
 10
398.181268311158
 20
-33.51569288194928
 30
0.0
 11
399.1812674321119
 21
-35.24774235832589
 31
0.0
  0
ENDBLK
  5
D2
  8
0
  0
BLOCK
  8
0
  2
DC_GROUP_46
 70
     0
 10
0.0
 20
0.0
 30
0.0
  3
DC_GROUP_46
  1

  0
LINE
  5
25A
  8
LAYER0001
  6
CONTINUOUS
 62
     7
 10
405.6453789666772
 20
-45.37211404035354
 30
0.0
 11
406.1812754637149
 21
-47.37211326197625
 31
0.0
  0
LINE
  5
25B
  8
LAYER0001
  6
CONTINUOUS
 62
     7
 10
406.1812754637149
 20
-47.37211326197625
 30
0.0
 11
404.7171737188446
 21
-45.90801353084574
 31
0.0
  0
LINE
  5
25C
  8
LAYER0001
  6
CONTINUOUS
 62
     7
 10
406.1812754637149
 20
-47.37211326197625
 30
0.0
 11
405.1812763427609
 21
-45.64006378559964
 31
0.0
  0
ENDBLK
  5
D5
  8
0
  0
BLOCK
  8
0
  2
DC_GROUP_47
 70
     0
 10
0.0
 20
0.0
 30
0.0
  3
DC_GROUP_47
  1

  0
LINE
  5
25D
  8
LAYER0001
  6
CONTINUOUS
 62
     7
 10
453.3131344862175
 20
113.4159285255715
 30
0.0
 11
453.3131344862175
 21
137.4074074074074
 31
0.0
  0
LINE
  5
25E
  8
LAYER0001
  6
CONTINUOUS
 62
     7
 10
483.3131344862174
 20
133.1951719948098
 30
0.0
 11
483.3131344862174
 21
137.4074074074074
 31
0.0
  0
LINE
  5
25F
  8
LAYER0001
  6
CONTINUOUS
 62
     7
 10
453.3131344862175
 20
136.4074074074074
 30
0.0
 11
483.3131344862174
 21
136.4074074074074
 31
0.0
  0
INSERT
  5
260
  8
LAYER0001
  6
CENTER
  2
DC_GROUP_48
 10
0.0
 20
0.0
 30
0.0
  0
INSERT
  5
261
  8
LAYER0001
  6
CONTINUOUS
  2
DC_GROUP_49
 10
0.0
 20
0.0
 30
0.0
  0
TEXT
  5
262
  8
LAYER0001
 62
     7
 10
465.1131344862174
 20
138.0074074074074
 30
0.0
 40
4.0
  1
30
 41
0.6476190476190453
  7
FDASTYLE1
 72
     5
 11
470.2940868671698
 21
138.0074074074074
 31
0.0
  0
ENDBLK
  5
D8
  8
0
  0
BLOCK
  8
0
  2
DC_GROUP_48
 70
     0
 10
0.0
 20
0.0
 30
0.0
  3
DC_GROUP_48
  1

  0
LINE
  5
263
  8
LAYER0001
  6
CONTINUOUS
 62
     7
 10
455.3131328938481
 20
135.8715078725098
 30
0.0
 11
453.3131344862175
 21
136.4074074074074
 31
0.0
  0
LINE
  5
264
  8
LAYER0001
  6
CONTINUOUS
 62
     7
 10
453.3131344862175
 20
136.4074074074074
 30
0.0
 11
455.3131328938481
 21
136.943306942305
 31
0.0
  0
LINE
  5
265
  8
LAYER0001
  6
CONTINUOUS
 62
     7
 10
453.3131344862175
 20
136.4074074074074
 30
0.0
 11
455.3131328938481
 21
136.4074074074074
 31
0.0
  0
ENDBLK
  5
DB
  8
0
  0
BLOCK
  8
0
  2
DC_GROUP_49
 70
     0
 10
0.0
 20
0.0
 30
0.0
  3
DC_GROUP_49
  1

  0
LINE
  5
266
  8
LAYER0001
  6
CONTINUOUS
 62
     7
 10
481.3131360785867
 20
136.943306942305
 30
0.0
 11
483.3131344862174
 21
136.4074074074074
 31
0.0
  0
LINE
  5
267
  8
LAYER0001
  6
CONTINUOUS
 62
     7
 10
483.3131344862174
 20
136.4074074074074
 30
0.0
 11
481.3131360785867
 21
135.8715078725098
 31
0.0
  0
LINE
  5
268
  8
LAYER0001
  6
CONTINUOUS
 62
     7
 10
483.3131344862174
 20
136.4074074074074
 30
0.0
 11
481.3131360785867
 21
136.4074074074074
 31
0.0
  0
ENDBLK
  5
DE
  8
0
  0
BLOCK
  8
0
  2
DC_GROUP_50
 70
     0
 10
0.0
 20
0.0
 30
0.0
  3
DC_GROUP_50
  1

  0
LINE
  5
269
  8
LAYER0001
  6
CONTINUOUS
 62
     7
 10
423.6549246473502
 20
99.03864062273944
 30
0.0
 11
389.9251111097526
 21
99.03864062273944
 31
0.0
  0
LINE
  5
26A
  8
LAYER0001
  6
CONTINUOUS
 62
     7
 10
391.7008612318229
 20
41.0386444374367
 30
0.0
 11
389.9251111097526
 21
41.0386444374367
 31
0.0
  0
LINE
  5
26B
  8
LAYER0001
  6
CONTINUOUS
 62
     7
 10
390.9251111097526
 20
99.03864062273944
 30
0.0
 11
390.9251111097526
 21
41.0386444374367
 31
0.0
  0
INSERT
  5
26C
  8
LAYER0001
  6
CONTINUOUS
  2
DC_GROUP_51
 10
0.0
 20
0.0
 30
0.0
  0
INSERT
  5
26D
  8
LAYER0001
  6
CONTINUOUS
  2
DC_GROUP_52
 10
0.0
 20
0.0
 30
0.0
  0
TEXT
  5
26E
  8
LAYER0001
 62
     7
 10
389.3251111097526
 20
66.83864062273943
 30
0.0
 40
4.0
  1
58
 50
90.0
 41
0.6476190476190453
  7
FDASTYLE1
 72
     5
 11
389.3251111097526
 21
72.0195930036918
 31
0.0
  0
ENDBLK
  5
E1
  8
0
  0
BLOCK
  8
0
  2
DC_GROUP_51
 70
     0
 10
0.0
 20
0.0
 30
0.0
  3
DC_GROUP_51
  1

  0
LINE
  5
26F
  8
LAYER0001
  6
CONTINUOUS
 62
     7
 10
390.389211574855
 20
97.03864221510878
 30
0.0
 11
390.9251111097526
 21
99.03864062273944
 31
0.0
  0
LINE
  5
270
  8
LAYER0001
  6
CONTINUOUS
 62
     7
 10
390.9251111097526
 20
99.03864062273944
 30
0.0
 11
391.4610106446502
 21
97.03864221510878
 31
0.0
  0
LINE
  5
271
  8
LAYER0001
  6
CONTINUOUS
 62
     7
 10
390.9251111097526
 20
99.03864062273944
 30
0.0
 11
390.9251111097526
 21
97.03864221510878
 31
0.0
  0
ENDBLK
  5
E4
  8
0
  0
BLOCK
  8
0
  2
DC_GROUP_52
 70
     0
 10
0.0
 20
0.0
 30
0.0
  3
DC_GROUP_52
  1

  0
LINE
  5
272
  8
LAYER0001
  6
CONTINUOUS
 62
     7
 10
391.4610106446502
 20
43.03864284506737
 30
0.0
 11
390.9251111097526
 21
41.0386444374367
 31
0.0
  0
LINE
  5
273
  8
LAYER0001
  6
CONTINUOUS
 62
     7
 10
390.9251111097526
 20
41.0386444374367
 30
0.0
 11
390.389211574855
 21
43.03864284506737
 31
0.0
  0
LINE
  5
274
  8
LAYER0001
  6
CONTINUOUS
 62
     7
 10
390.9251111097526
 20
41.0386444374367
 30
0.0
 11
390.9251111097526
 21
43.03864284506737
 31
0.0
  0
ENDBLK
  5
E7
  8
0
  0
BLOCK
  8
0
  2
DC_GROUP_53
 70
     0
 10
0.0
 20
0.0
 30
0.0
  3
DC_GROUP_53
  1

  0
LINE
  5
275
  8
LAYER0001
  6
CONTINUOUS
 62
     7
 10
216.4731161756706
 20
71.5385709290163
 30
0.0
 11
180.2461636610221
 21
71.5385709290163
 31
0.0
  0
LINE
  5
276
  8
LAYER0001
  6
CONTINUOUS
 62
     7
 10
216.4731161756706
 20
10.53858952566547
 30
0.0
 11
180.2461636610221
 21
10.53858952566547
 31
0.0
  0
LINE
  5
277
  8
LAYER0001
  6
CONTINUOUS
 62
     7
 10
181.2461636610221
 20
71.53858618780537
 30
0.0
 11
181.2461636610221
 21
10.53858571096821
 31
0.0
  0
INSERT
  5
278
  8
LAYER0001
  6
DASHDOT2
  2
DC_GROUP_54
 10
0.0
 20
0.0
 30
0.0
  0
INSERT
  5
279
  8
LAYER0001
  6
DASHDOT2
  2
DC_GROUP_55
 10
0.0
 20
0.0
 30
0.0
  0
TEXT
  5
27A
  8
LAYER0001
 62
     7
 10
179.6461636610221
 20
33.03858618780537
 30
0.0
 40
4.0
  1
φ61H7
 50
90.0
 41
0.6213017751479295
  7
FDASTYLE1
 72
     5
 11
179.6461636610221
 21
45.96166311088231
 31
0.0
  0
ENDBLK
  5
EA
  8
0
  0
BLOCK
  8
0
  2
DC_GROUP_54
 70
     0
 10
0.0
 20
0.0
 30
0.0
  3
DC_GROUP_54
  1

  0
LINE
  5
27B
  8
LAYER0001
  6
CONTINUOUS
 62
     7
 10
180.7102641261245
 20
69.53858778017471
 30
0.0
 11
181.2461636610221
 21
71.53858618780537
 31
0.0
  0
LINE
  5
27C
  8
LAYER0001
  6
CONTINUOUS
 62
     7
 10
181.2461636610221
 20
71.53858618780537
 30
0.0
 11
181.7820631959197
 21
69.53858778017471
 31
0.0
  0
LINE
  5
27D
  8
LAYER0001
  6
CONTINUOUS
 62
     7
 10
181.2461636610221
 20
71.53858618780537
 30
0.0
 11
181.2461636610221
 21
69.53858778017471
 31
0.0
  0
ENDBLK
  5
ED
  8
0
  0
BLOCK
  8
0
  2
DC_GROUP_55
 70
     0
 10
0.0
 20
0.0
 30
0.0
  3
DC_GROUP_55
  1

  0
LINE
  5
27E
  8
LAYER0001
  6
CONTINUOUS
 62
     7
 10
181.7820631959197
 20
12.53858411859887
 30
0.0
 11
181.2461636610221
 21
10.53858571096821
 31
0.0
  0
LINE
  5
27F
  8
LAYER0001
  6
CONTINUOUS
 62
     7
 10
181.2461636610221
 20
10.53858571096821
 30
0.0
 11
180.7102641261245
 21
12.53858411859887
 31
0.0
  0
LINE
  5
280
  8
LAYER0001
  6
CONTINUOUS
 62
     7
 10
181.2461636610221
 20
10.53858571096821
 30
0.0
 11
181.2461636610221
 21
12.53858411859887
 31
0.0
  0
ENDBLK
  5
F0
  8
0
  0
BLOCK
  8
0
  2
DC_GROUP_56
 70
     0
 10
0.0
 20
0.0
 30
0.0
  3
DC_GROUP_56
  1

  0
LINE
  5
281
  8
LAYER0001
  6
CONTINUOUS
 62
     7
 10
212.2731192274284
 20
111.0385709290163
 30
0.0
 11
170.2461636610221
 21
111.0385709290163
 31
0.0
  0
LINE
  5
282
  8
LAYER0001
  6
CONTINUOUS
 62
     7
 10
212.4303457899284
 20
-28.96140999749737
 30
0.0
 11
170.2461636610221
 21
-28.96140999749737
 31
0.0
  0
LINE
  5
283
  8
LAYER0001
  6
CONTINUOUS
 62
     7
 10
171.2461636610221
 20
111.0385785584108
 30
0.0
 11
171.2461636610221
 21
-28.96141381219464
 31
0.0
  0
INSERT
  5
284
  8
LAYER0001
  6
DASHDOT2
  2
DC_GROUP_57
 10
0.0
 20
0.0
 30
0.0
  0
INSERT
  5
285
  8
LAYER0001
  6
DASHDOT2
  2
DC_GROUP_58
 10
0.0
 20
0.0
 30
0.0
  0
TEXT
  5
286
  8
LAYER0001
 62
     7
 10
169.6461636610221
 20
31.43858237310811
 30
0.0
 40
4.0
  1
φ140H7
 50
90.0
 41
0.6243496357960452
  7
FDASTYLE1
 72
     5
 11
169.6461636610221
 21
46.92245334085003
 31
0.0
  0
ENDBLK
  5
F3
  8
0
  0
BLOCK
  8
0
  2
DC_GROUP_57
 70
     0
 10
0.0
 20
0.0
 30
0.0
  3
DC_GROUP_57
  1

  0
LINE
  5
287
  8
LAYER0001
  6
CONTINUOUS
 62
     7
 10
170.7102641261245
 20
109.0385801507801
 30
0.0
 11
171.2461636610221
 21
111.0385785584108
 31
0.0
  0
LINE
  5
288
  8
LAYER0001
  6
CONTINUOUS
 62
     7
 10
171.2461636610221
 20
111.0385785584108
 30
0.0
 11
171.7820631959197
 21
109.0385801507801
 31
0.0
  0
LINE
  5
289
  8
LAYER0001
  6
CONTINUOUS
 62
     7
 10
171.2461636610221
 20
111.0385785584108
 30
0.0
 11
171.2461636610221
 21
109.0385801507801
 31
0.0
  0
ENDBLK
  5
F6
  8
0
  0
BLOCK
  8
0
  2
DC_GROUP_58
 70
     0
 10
0.0
 20
0.0
 30
0.0
  3
DC_GROUP_58
  1

  0
LINE
  5
28A
  8
LAYER0001
  6
CONTINUOUS
 62
     7
 10
171.7820631959197
 20
-26.96141540456398
 30
0.0
 11
171.2461636610221
 21
-28.96141381219464
 31
0.0
  0
LINE
  5
28B
  8
LAYER0001
  6
CONTINUOUS
 62
     7
 10
171.2461636610221
 20
-28.96141381219464
 30
0.0
 11
170.7102641261245
 21
-26.96141540456398
 31
0.0
  0
LINE
  5
28C
  8
LAYER0001
  6
CONTINUOUS
 62
     7
 10
171.2461636610221
 20
-28.96141381219464
 30
0.0
 11
171.2461636610221
 21
-26.96141540456398
 31
0.0
  0
ENDBLK
  5
F9
  8
0
  0
BLOCK
  8
0
  2
DC_GROUP_59
 70
     0
 10
0.0
 20
0.0
 30
0.0
  3
DC_GROUP_59
  1

  0
LINE
  5
28D
  8
LAYER0001
  6
CONTINUOUS
 62
     7
 10
212.2731192274284
 20
121.0385709290163
 30
0.0
 11
160.2461636610221
 21
121.0385709290163
 31
0.0
  0
LINE
  5
28E
  8
LAYER0001
  6
CONTINUOUS
 62
     7
 10
212.4303457899284
 20
-38.96142525628643
 30
0.0
 11
160.2461636610221
 21
-38.96142525628643
 31
0.0
  0
LINE
  5
28F
  8
LAYER0001
  6
CONTINUOUS
 62
     7
 10
161.2461636610221
 20
121.0385785584108
 30
0.0
 11
161.2461636610221
 21
-38.9614176268919
 31
0.0
  0
INSERT
  5
290
  8
LAYER0001
  6
DASHDOT2
  2
DC_GROUP_60
 10
0.0
 20
0.0
 30
0.0
  0
INSERT
  5
291
  8
LAYER0001
  6
DASHDOT2
  2
DC_GROUP_61
 10
0.0
 20
0.0
 30
0.0
  0
TEXT
  5
292
  8
LAYER0001
 62
     7
 10
159.6461636610221
 20
34.63858237310809
 30
0.0
 40
4.0
  1
φ160
 50
90.0
 41
0.6167800453514751
  7
FDASTYLE1
 72
     5
 11
159.6461636610221
 21
45.00048713501288
 31
0.0
  0
ENDBLK
  5
FC
  8
0
  0
BLOCK
  8
0
  2
DC_GROUP_60
 70
     0
 10
0.0
 20
0.0
 30
0.0
  3
DC_GROUP_60
  1

  0
LINE
  5
293
  8
LAYER0001
  6
CONTINUOUS
 62
     7
 10
160.7102641261245
 20
119.0385801507801
 30
0.0
 11
161.2461636610221
 21
121.0385785584108
 31
0.0
  0
LINE
  5
294
  8
LAYER0001
  6
CONTINUOUS
 62
     7
 10
161.2461636610221
 20
121.0385785584108
 30
0.0
 11
161.7820631959197
 21
119.0385801507801
 31
0.0
  0
LINE
  5
295
  8
LAYER0001
  6
CONTINUOUS
 62
     7
 10
161.2461636610221
 20
121.0385785584108
 30
0.0
 11
161.2461636610221
 21
119.0385801507801
 31
0.0
  0
ENDBLK
  5
FF
  8
0
  0
BLOCK
  8
0
  2
DC_GROUP_61
 70
     0
 10
0.0
 20
0.0
 30
0.0
  3
DC_GROUP_61
  1

  0
LINE
  5
296
  8
LAYER0001
  6
CONTINUOUS
 62
     7
 10
161.7820631959197
 20
-36.96141921926125
 30
0.0
 11
161.2461636610221
 21
-38.9614176268919
 31
0.0
  0
LINE
  5
297
  8
LAYER0001
  6
CONTINUOUS
 62
     7
 10
161.2461636610221
 20
-38.9614176268919
 30
0.0
 11
160.7102641261245
 21
-36.96141921926125
 31
0.0
  0
LINE
  5
298
  8
LAYER0001
  6
CONTINUOUS
 62
     7
 10
161.2461636610221
 20
-38.9614176268919
 30
0.0
 11
161.2461636610221
 21
-36.96141921926125
 31
0.0
  0
ENDBLK
  5
102
  8
0
  0
BLOCK
  8
0
  2
DC_GROUP_62
 70
     0
 10
0.0
 20
0.0
 30
0.0
  3
DC_GROUP_62
  1

  0
LINE
  5
299
  8
LAYER0001
  6
CONTINUOUS
 62
     7
 10
286.4504855604362
 20
8.038589168037603
 30
0.0
 11
322.2461636610221
 21
8.038589168037603
 31
0.0
  0
LINE
  5
29A
  8
LAYER0001
  6
CONTINUOUS
 62
     7
 10
321.2461636610221
 20
8.038585353340338
 30
0.0
 11
321.2461636610221
 21
64.23858695074482
 31
0.0
  0
INSERT
  5
29B
  8
LAYER0001
  6
CONTINUOUS
  2
DC_GROUP_63
 10
0.0
 20
0.0
 30
0.0
  0
TEXT
  5
29C
  8
LAYER0001
 62
     7
 10
319.6461636610221
 20
33.00433020636005
 30
0.0
 40
4.0
  1
φ66H7
 50
90.0
 41
0.6213017751479282
  7
FDASTYLE1
 72
     5
 11
319.6461636610221
 21
45.92740712943696
 31
0.0
  0
ENDBLK
  5
105
  8
0
  0
BLOCK
  8
0
  2
DC_GROUP_63
 70
     0
 10
0.0
 20
0.0
 30
0.0
  3
DC_GROUP_63
  1

  0
LINE
  5
29D
  8
LAYER0001
  6
CONTINUOUS
 62
     7
 10
321.7820631959197
 20
10.038583760971
 30
0.0
 11
321.2461636610221
 21
8.038585353340338
 31
0.0
  0
LINE
  5
29E
  8
LAYER0001
  6
CONTINUOUS
 62
     7
 10
321.2461636610221
 20
8.038585353340338
 30
0.0
 11
320.7102641261245
 21
10.038583760971
 31
0.0
  0
LINE
  5
29F
  8
LAYER0001
  6
CONTINUOUS
 62
     7
 10
321.2461636610221
 20
8.038585353340338
 30
0.0
 11
321.2461636610221
 21
10.038583760971
 31
0.0
  0
ENDBLK
  5
108
  8
0
  0
BLOCK
  8
0
  2
DC_GROUP_64
 70
     0
 10
0.0
 20
0.0
 30
0.0
  3
DC_GROUP_64
  1

  0
LINE
  5
2A0
  8
LAYER0001
  6
CONTINUOUS
 62
     7
 10
214.8131192274284
 20
-76.29338813254194
 30
0.0
 11
219.0131161756706
 21
-76.29338813254194
 31
0.0
  0
LINE
  5
2A1
  8
LAYER0001
  6
CONTINUOUS
 62
     7
 10
214.8131192274284
 20
-43.0014176268919
 30
0.0
 11
214.8131192274284
 21
-77.29338813254194
 31
0.0
  0
LINE
  5
2A2
  8
LAYER0001
  6
CONTINUOUS
 62
     7
 10
219.0131161756706
 20
-32.02532051995831
 30
0.0
 11
219.0131161756706
 21
-77.29338813254194
 31
0.0
  0
LINE
  5
2A3
  8
LAYER0001
  6
CONTINUOUS
 62
     7
 10
214.8131192274284
 20
-76.29338813254194
 30
0.0
 11
199.7498508855916
 21
-76.29338813254194
 31
0.0
  0
INSERT
  5
2A4
  8
LAYER0001
  6
CONTINUOUS
  2
DC_GROUP_65
 10
0.0
 20
0.0
 30
0.0
  0
TEXT
  5
2A5
  8
LAYER0001
 62
     7
 10
200.7679867811393
 20
-74.69338813254194
 30
0.0
 40
4.0
  1
4.2
 41
0.5587301587301591
  7
FDASTYLE1
 72
     5
 11
207.4727486859012
 21
-74.69338813254194
 31
0.0
  0
ENDBLK
  5
10B
  8
0
  0
BLOCK
  8
0
  2
DC_GROUP_65
 70
     0
 10
0.0
 20
0.0
 30
0.0
  3
DC_GROUP_65
  1

  0
LINE
  5
2A6
  8
LAYER0001
  6
CONTINUOUS
 62
     7
 10
212.8131208197978
 20
-75.75748859764433
 30
0.0
 11
214.8131192274284
 21
-76.29338813254194
 31
0.0
  0
LINE
  5
2A7
  8
LAYER0001
  6
CONTINUOUS
 62
     7
 10
214.8131192274284
 20
-76.29338813254194
 30
0.0
 11
212.8131208197978
 21
-76.82928766743954
 31
0.0
  0
LINE
  5
2A8
  8
LAYER0001
  6
CONTINUOUS
 62
     7
 10
214.8131192274284
 20
-76.29338813254194
 30
0.0
 11
212.8131208197978
 21
-76.29338813254194
 31
0.0
  0
ENDBLK
  5
10E
  8
0
  0
BLOCK
  8
0
  2
DC_GROUP_66
 70
     0
 10
0.0
 20
0.0
 30
0.0
  3
DC_GROUP_66
  1

  0
LINE
  5
2A9
  8
LAYER0001
  6
CONTINUOUS
 62
     7
 10
219.0131161756706
 20
-76.27454795189262
 30
0.0
 11
284.3131344862175
 21
-76.27454795189262
 31
0.0
  0
LINE
  5
2AA
  8
LAYER0001
  6
CONTINUOUS
 62
     7
 10
219.0131161756706
 20
-33.00141381219464
 30
0.0
 11
219.0131161756706
 21
-77.27454795189262
 31
0.0
  0
LINE
  5
2AB
  8
LAYER0001
  6
CONTINUOUS
 62
     7
 10
284.3131344862175
 20
-41.00142144158917
 30
0.0
 11
284.3131344862175
 21
-77.27454795189262
 31
0.0
  0
INSERT
  5
2AC
  8
LAYER0001
  6
CONTINUOUS
  2
DC_GROUP_67
 10
0.0
 20
0.0
 30
0.0
  0
INSERT
  5
2AD
  8
LAYER0001
  6
CENTER2
  2
DC_GROUP_68
 10
0.0
 20
0.0
 30
0.0
  0
TEXT
  5
2AE
  8
LAYER0001
 62
     7
 10
245.263125330944
 20
-74.67454795189262
 30
0.0
 40
4.0
  1
65.3
 41
0.6000000000000014
  7
FDASTYLE1
 72
     5
 11
254.863125330944
 21
-74.67454795189262
 31
0.0
  0
ENDBLK
  5
111
  8
0
  0
BLOCK
  8
0
  2
DC_GROUP_67
 70
     0
 10
0.0
 20
0.0
 30
0.0
  3
DC_GROUP_67
  1

  0
LINE
  5
2AF
  8
LAYER0001
  6
CONTINUOUS
 62
     7
 10
221.0131145833013
 20
-76.81044748679022
 30
0.0
 11
219.0131161756706
 21
-76.27454795189262
 31
0.0
  0
LINE
  5
2B0
  8
LAYER0001
  6
CONTINUOUS
 62
     7
 10
219.0131161756706
 20
-76.27454795189262
 30
0.0
 11
221.0131145833013
 21
-75.73864841699501
 31
0.0
  0
LINE
  5
2B1
  8
LAYER0001
  6
CONTINUOUS
 62
     7
 10
219.0131161756706
 20
-76.27454795189262
 30
0.0
 11
221.0131145833013
 21
-76.27454795189262
 31
0.0
  0
ENDBLK
  5
114
  8
0
  0
BLOCK
  8
0
  2
DC_GROUP_68
 70
     0
 10
0.0
 20
0.0
 30
0.0
  3
DC_GROUP_68
  1

  0
LINE
  5
2B2
  8
LAYER0001
  6
CONTINUOUS
 62
     7
 10
282.3131360785868
 20
-75.73864841699501
 30
0.0
 11
284.3131344862175
 21
-76.27454795189262
 31
0.0
  0
LINE
  5
2B3
  8
LAYER0001
  6
CONTINUOUS
 62
     7
 10
284.3131344862175
 20
-76.27454795189262
 30
0.0
 11
282.3131360785868
 21
-76.81044748679022
 31
0.0
  0
LINE
  5
2B4
  8
LAYER0001
  6
CONTINUOUS
 62
     7
 10
284.3131344862175
 20
-76.27454795189262
 30
0.0
 11
282.3131360785868
 21
-76.27454795189262
 31
0.0
  0
ENDBLK
  5
117
  8
0
  0
BLOCK
  8
0
  2
DC_GROUP_69
 70
     0
 10
0.0
 20
0.0
 30
0.0
  3
DC_GROUP_69
  1

  0
LINE
  5
2B5
  8
LAYER0001
  6
CONTINUOUS
 62
     7
 10
219.0131161756706
 20
-59.90633106150315
 30
0.0
 11
254.3131344862174
 21
-59.90633106150315
 31
0.0
  0
LINE
  5
2B6
  8
LAYER0001
  6
CONTINUOUS
 62
     7
 10
219.0131161756706
 20
-31.50141381219464
 30
0.0
 11
219.0131161756706
 21
-60.90633106150315
 31
0.0
  0
LINE
  5
2B7
  8
LAYER0001
  6
CONTINUOUS
 62
     7
 10
254.3131344862174
 20
13.49858523413105
 30
0.0
 11
254.3131344862174
 21
-60.90633106150315
 31
0.0
  0
INSERT
  5
2B8
  8
LAYER0001
  6
CONTINUOUS
  2
DC_GROUP_70
 10
0.0
 20
0.0
 30
0.0
  0
INSERT
  5
2B9
  8
LAYER0001
  6
PHANTOM2
  2
DC_GROUP_71
 10
0.0
 20
0.0
 30
0.0
  0
TEXT
  5
2BA
  8
LAYER0001
 62
     7
 10
225.463125330944
 20
-58.90633106150315
 30
0.0
 40
4.0
  1
MAX44.3
 41
0.6802721088435371
  7
FDASTYLE1
 72
     5
 11
244.510744378563
 21
-58.90633106150315
 31
0.0
  0
ENDBLK
  5
11A
  8
0
  0
BLOCK
  8
0
  2
DC_GROUP_70
 70
     0
 10
0.0
 20
0.0
 30
0.0
  3
DC_GROUP_70
  1

  0
LINE
  5
2BB
  8
LAYER0001
  6
CONTINUOUS
 62
     7
 10
221.0131145833013
 20
-60.44223059640076
 30
0.0
 11
219.0131161756706
 21
-59.90633106150315
 31
0.0
  0
LINE
  5
2BC
  8
LAYER0001
  6
CONTINUOUS
 62
     7
 10
219.0131161756706
 20
-59.90633106150315
 30
0.0
 11
221.0131145833013
 21
-59.37043152660554
 31
0.0
  0
LINE
  5
2BD
  8
LAYER0001
  6
CONTINUOUS
 62
     7
 10
219.0131161756706
 20
-59.90633106150315
 30
0.0
 11
221.0131145833013
 21
-59.90633106150315
 31
0.0
  0
ENDBLK
  5
11D
  8
0
  0
BLOCK
  8
0
  2
DC_GROUP_71
 70
     0
 10
0.0
 20
0.0
 30
0.0
  3
DC_GROUP_71
  1

  0
LINE
  5
2BE
  8
LAYER0001
  6
CONTINUOUS
 62
     7
 10
252.3131360785867
 20
-59.37043152660554
 30
0.0
 11
254.3131344862174
 21
-59.90633106150315
 31
0.0
  0
LINE
  5
2BF
  8
LAYER0001
  6
CONTINUOUS
 62
     7
 10
254.3131344862174
 20
-59.90633106150315
 30
0.0
 11
252.3131360785867
 21
-60.44223059640076
 31
0.0
  0
LINE
  5
2C0
  8
LAYER0001
  6
CONTINUOUS
 62
     7
 10
254.3131344862174
 20
-59.90633106150315
 30
0.0
 11
252.3131360785867
 21
-59.90633106150315
 31
0.0
  0
ENDBLK
  5
120
  8
0
  0
BLOCK
  8
0
  2
DC_GROUP_72
 70
     0
 10
0.0
 20
0.0
 30
0.0
  3
DC_GROUP_72
  1

  0
LINE
  5
2C1
  8
LAYER0001
  6
CONTINUOUS
 62
     7
 10
214.8131192274284
 20
-86.69066563946284
 30
0.0
 11
284.3131344862175
 21
-86.69066563946284
 31
0.0
  0
LINE
  5
2C2
  8
LAYER0001
  6
CONTINUOUS
 62
     7
 10
214.8131192274284
 20
-57.39181374505596
 30
0.0
 11
214.8131192274284
 21
-87.69066563946284
 31
0.0
  0
LINE
  5
2C3
  8
LAYER0001
  6
CONTINUOUS
 62
     7
 10
284.3131344862175
 20
-41.50142525628643
 30
0.0
 11
284.3131344862175
 21
-87.69066563946284
 31
0.0
  0
INSERT
  5
2C4
  8
LAYER0001
  6
CONTINUOUS
  2
DC_GROUP_73
 10
0.0
 20
0.0
 30
0.0
  0
INSERT
  5
2C5
  8
LAYER0001
  6
CENTER2
  2
DC_GROUP_74
 10
0.0
 20
0.0
 30
0.0
  0
TEXT
  5
2C6
  8
LAYER0001
 62
     7
 10
243.1631268568229
 20
-85.09066563946284
 30
0.0
 40
4.0
  1
69.5
 41
0.6000000000000014
  7
FDASTYLE1
 72
     5
 11
252.7631268568229
 21
-85.09066563946284
 31
0.0
  0
ENDBLK
  5
123
  8
0
  0
BLOCK
  8
0
  2
DC_GROUP_73
 70
     0
 10
0.0
 20
0.0
 30
0.0
  3
DC_GROUP_73
  1

  0
LINE
  5
2C7
  8
LAYER0001
  6
CONTINUOUS
 62
     7
 10
216.8131176350591
 20
-87.22656517436045
 30
0.0
 11
214.8131192274284
 21
-86.69066563946284
 31
0.0
  0
LINE
  5
2C8
  8
LAYER0001
  6
CONTINUOUS
 62
     7
 10
214.8131192274284
 20
-86.69066563946284
 30
0.0
 11
216.8131176350591
 21
-86.15476610456523
 31
0.0
  0
LINE
  5
2C9
  8
LAYER0001
  6
CONTINUOUS
 62
     7
 10
214.8131192274284
 20
-86.69066563946284
 30
0.0
 11
216.8131176350591
 21
-86.69066563946284
 31
0.0
  0
ENDBLK
  5
126
  8
0
  0
BLOCK
  8
0
  2
DC_GROUP_74
 70
     0
 10
0.0
 20
0.0
 30
0.0
  3
DC_GROUP_74
  1

  0
LINE
  5
2CA
  8
LAYER0001
  6
CONTINUOUS
 62
     7
 10
282.3131360785868
 20
-86.15476610456523
 30
0.0
 11
284.3131344862175
 21
-86.69066563946284
 31
0.0
  0
LINE
  5
2CB
  8
LAYER0001
  6
CONTINUOUS
 62
     7
 10
284.3131344862175
 20
-86.69066563946284
 30
0.0
 11
282.3131360785868
 21
-87.22656517436045
 31
0.0
  0
LINE
  5
2CC
  8
LAYER0001
  6
CONTINUOUS
 62
     7
 10
284.3131344862175
 20
-86.69066563946284
 30
0.0
 11
282.3131360785868
 21
-86.69066563946284
 31
0.0
  0
ENDBLK
  5
129
  8
0
  0
BLOCK
  8
0
  2
DC_GROUP_75
 70
     0
 10
0.0
 20
0.0
 30
0.0
  3
DC_GROUP_75
  1

  0
LINE
  5
2CD
  8
LAYER0001
  6
CONTINUOUS
 62
     7
 10
231.3131344862174
 20
27.76658682867451
 30
0.0
 11
254.3131344862174
 21
27.76658682867451
 31
0.0
  0
INSERT
  5
2CE
  8
LAYER0001
  6
PHANTOM2
  2
DC_GROUP_76
 10
0.0
 20
0.0
 30
0.0
  0
INSERT
  5
2CF
  8
LAYER0001
  6
PHANTOM2
  2
DC_GROUP_77
 10
0.0
 20
0.0
 30
0.0
  0
TEXT
  5
2D0
  8
LAYER0001
 62
     7
 10
239.6131344862174
 20
29.36658682867451
 30
0.0
 40
4.0
  1
23
 41
0.6476190476190489
  7
FDASTYLE1
 72
     5
 11
244.7940868671698
 21
29.36658682867451
 31
0.0
  0
ENDBLK
  5
12C
  8
0
  0
BLOCK
  8
0
  2
DC_GROUP_76
 70
     0
 10
0.0
 20
0.0
 30
0.0
  3
DC_GROUP_76
  1

  0
LINE
  5
2D1
  8
LAYER0001
  6
CONTINUOUS
 62
     7
 10
233.3131328938481
 20
27.2306872937769
 30
0.0
 11
231.3131344862174
 21
27.76658682867451
 31
0.0
  0
LINE
  5
2D2
  8
LAYER0001
  6
CONTINUOUS
 62
     7
 10
231.3131344862174
 20
27.76658682867451
 30
0.0
 11
233.3131328938481
 21
28.30248636357212
 31
0.0
  0
LINE
  5
2D3
  8
LAYER0001
  6
CONTINUOUS
 62
     7
 10
231.3131344862174
 20
27.76658682867451
 30
0.0
 11
233.3131328938481
 21
27.76658682867451
 31
0.0
  0
ENDBLK
  5
12F
  8
0
  0
BLOCK
  8
0
  2
DC_GROUP_77
 70
     0
 10
0.0
 20
0.0
 30
0.0
  3
DC_GROUP_77
  1

  0
LINE
  5
2D4
  8
LAYER0001
  6
CONTINUOUS
 62
     7
 10
252.3131360785867
 20
28.30248636357212
 30
0.0
 11
254.3131344862174
 21
27.76658682867451
 31
0.0
  0
LINE
  5
2D5
  8
LAYER0001
  6
CONTINUOUS
 62
     7
 10
254.3131344862174
 20
27.76658682867451
 30
0.0
 11
252.3131360785867
 21
27.2306872937769
 31
0.0
  0
LINE
  5
2D6
  8
LAYER0001
  6
CONTINUOUS
 62
     7
 10
254.3131344862174
 20
27.76658682867451
 30
0.0
 11
252.3131360785867
 21
27.76658682867451
 31
0.0
  0
ENDBLK
  5
132
  8
0
  0
BLOCK
  8
0
  2
DC_GROUP_78
 70
     0
 10
0.0
 20
0.0
 30
0.0
  3
DC_GROUP_78
  1

  0
LINE
  5
2D7
  8
LAYER0001
  6
CONTINUOUS
 62
     7
 10
254.3131344862174
 20
27.76658682867451
 30
0.0
 11
262.3131344862175
 21
27.76658682867451
 31
0.0
  0
LINE
  5
2D8
  8
LAYER0001
  6
CONTINUOUS
 62
     7
 10
254.3131344862174
 20
27.76658682867451
 30
0.0
 11
247.9631344862174
 21
27.76658682867451
 31
0.0
  0
LINE
  5
2D9
  8
LAYER0001
  6
CONTINUOUS
 62
     7
 10
268.6631344862174
 20
27.76658682867451
 30
0.0
 11
262.3131344862175
 21
27.76658682867451
 31
0.0
  0
INSERT
  5
2DA
  8
LAYER0001
  6
PHANTOM2
  2
DC_GROUP_79
 10
0.0
 20
0.0
 30
0.0
  0
INSERT
  5
2DB
  8
LAYER0001
  6
CENTER2
  2
DC_GROUP_80
 10
0.0
 20
0.0
 30
0.0
  0
TEXT
  5
2DC
  8
LAYER0001
 62
     7
 10
256.7131344862174
 20
29.36658682867451
 30
0.0
 40
4.0
  1
8
 41
0.5333333333333314
  7
FDASTYLE1
 72
     5
 11
258.8464678195508
 21
29.36658682867451
 31
0.0
  0
ENDBLK
  5
135
  8
0
  0
BLOCK
  8
0
  2
DC_GROUP_79
 70
     0
 10
0.0
 20
0.0
 30
0.0
  3
DC_GROUP_79
  1

  0
LINE
  5
2DD
  8
LAYER0001
  6
CONTINUOUS
 62
     7
 10
252.3131360785867
 20
28.30248636357212
 30
0.0
 11
254.3131344862174
 21
27.76658682867451
 31
0.0
  0
LINE
  5
2DE
  8
LAYER0001
  6
CONTINUOUS
 62
     7
 10
254.3131344862174
 20
27.76658682867451
 30
0.0
 11
252.3131360785867
 21
27.2306872937769
 31
0.0
  0
LINE
  5
2DF
  8
LAYER0001
  6
CONTINUOUS
 62
     7
 10
254.3131344862174
 20
27.76658682867451
 30
0.0
 11
252.3131360785867
 21
27.76658682867451
 31
0.0
  0
ENDBLK
  5
138
  8
0
  0
BLOCK
  8
0
  2
DC_GROUP_80
 70
     0
 10
0.0
 20
0.0
 30
0.0
  3
DC_GROUP_80
  1

  0
LINE
  5
2E0
  8
LAYER0001
  6
CONTINUOUS
 62
     7
 10
264.3131328938481
 20
27.2306872937769
 30
0.0
 11
262.3131344862175
 21
27.76658682867451
 31
0.0
  0
LINE
  5
2E1
  8
LAYER0001
  6
CONTINUOUS
 62
     7
 10
262.3131344862175
 20
27.76658682867451
 30
0.0
 11
264.3131328938481
 21
28.30248636357212
 31
0.0
  0
LINE
  5
2E2
  8
LAYER0001
  6
CONTINUOUS
 62
     7
 10
262.3131344862175
 20
27.76658682867451
 30
0.0
 11
264.3131328938481
 21
27.76658682867451
 31
0.0
  0
ENDBLK
  5
13B
  8
0
  0
BLOCK
  8
0
  2
DC_GROUP_81
 70
     0
 10
0.0
 20
0.0
 30
0.0
  3
DC_GROUP_81
  1

  0
LINE
  5
2E3
  8
LAYER0001
  6
CONTINUOUS
 62
     7
 10
262.3131344862175
 20
27.76658682867451
 30
0.0
 11
271.3131344862175
 21
27.76658682867451
 31
0.0
  0
INSERT
  5
2E4
  8
LAYER0001
  6
CENTER2
  2
DC_GROUP_82
 10
0.0
 20
0.0
 30
0.0
  0
INSERT
  5
2E5
  8
LAYER0001
  6
CENTER2
  2
DC_GROUP_83
 10
0.0
 20
0.0
 30
0.0
  0
TEXT
  5
2E6
  8
LAYER0001
 62
     7
 10
265.2131344862174
 20
29.36658682867451
 30
0.0
 40
4.0
  1
9
 41
0.4952380952380935
  7
FDASTYLE1
 72
     5
 11
267.1940868671698
 21
29.36658682867451
 31
0.0
  0
ENDBLK
  5
13E
  8
0
  0
BLOCK
  8
0
  2
DC_GROUP_82
 70
     0
 10
0.0
 20
0.0
 30
0.0
  3
DC_GROUP_82
  1

  0
LINE
  5
2E7
  8
LAYER0001
  6
CONTINUOUS
 62
     7
 10
264.3131328938481
 20
27.2306872937769
 30
0.0
 11
262.3131344862175
 21
27.76658682867451
 31
0.0
  0
LINE
  5
2E8
  8
LAYER0001
  6
CONTINUOUS
 62
     7
 10
262.3131344862175
 20
27.76658682867451
 30
0.0
 11
264.3131328938481
 21
28.30248636357212
 31
0.0
  0
LINE
  5
2E9
  8
LAYER0001
  6
CONTINUOUS
 62
     7
 10
262.3131344862175
 20
27.76658682867451
 30
0.0
 11
264.3131328938481
 21
27.76658682867451
 31
0.0
  0
ENDBLK
  5
141
  8
0
  0
BLOCK
  8
0
  2
DC_GROUP_83
 70
     0
 10
0.0
 20
0.0
 30
0.0
  3
DC_GROUP_83
  1

  0
LINE
  5
2EA
  8
LAYER0001
  6
CONTINUOUS
 62
     7
 10
269.3131360785868
 20
28.30248636357212
 30
0.0
 11
271.3131344862175
 21
27.76658682867451
 31
0.0
  0
LINE
  5
2EB
  8
LAYER0001
  6
CONTINUOUS
 62
     7
 10
271.3131344862175
 20
27.76658682867451
 30
0.0
 11
269.3131360785868
 21
27.2306872937769
 31
0.0
  0
LINE
  5
2EC
  8
LAYER0001
  6
CONTINUOUS
 62
     7
 10
271.3131344862175
 20
27.76658682867451
 30
0.0
 11
269.3131360785868
 21
27.76658682867451
 31
0.0
  0
ENDBLK
  5
144
  8
0
  0
BLOCK
  8
0
  2
DC_GROUP_84
 70
     0
 10
0.0
 20
0.0
 30
0.0
  3
DC_GROUP_84
  1

  0
LINE
  5
2ED
  8
LAYER0001
  6
CONTINUOUS
 62
     7
 10
283.3131344862175
 20
123.5785785584108
 30
0.0
 11
283.3131344862175
 21
137.4073377136843
 31
0.0
  0
LINE
  5
2EE
  8
LAYER0001
  6
CONTINUOUS
 62
     7
 10
284.3131344862175
 20
121.5785785584108
 30
0.0
 11
284.3131344862175
 21
137.4073377136843
 31
0.0
  0
LINE
  5
2EF
  8
LAYER0001
  6
CONTINUOUS
 62
     7
 10
283.3131344862175
 20
136.4073377136843
 30
0.0
 11
284.3131344862175
 21
136.4073377136843
 31
0.0
  0
LINE
  5
2F0
  8
LAYER0001
  6
CONTINUOUS
 62
     7
 10
283.3131344862175
 20
136.4073377136843
 30
0.0
 11
276.9631344862174
 21
136.4073377136843
 31
0.0
  0
LINE
  5
2F1
  8
LAYER0001
  6
CONTINUOUS
 62
     7
 10
290.6631344862174
 20
136.4073377136843
 30
0.0
 11
284.3131344862175
 21
136.4073377136843
 31
0.0
  0
INSERT
  5
2F2
  8
LAYER0001
  6
CENTER2
  2
DC_GROUP_85
 10
0.0
 20
0.0
 30
0.0
  0
INSERT
  5
2F3
  8
LAYER0001
  6
CENTER2
  2
DC_GROUP_86
 10
0.0
 20
0.0
 30
0.0
  0
TEXT
  5
2F4
  8
LAYER0001
 62
     7
 10
275.3622204847526
 20
138.0073377136843
 30
0.0
 40
4.0
  1
1
 41
0.1904761904761898
  7
FDASTYLE1
 72
     5
 11
276.1241252466573
 21
138.0073377136843
 31
0.0
  0
ENDBLK
  5
147
  8
0
  0
BLOCK
  8
0
  2
DC_GROUP_85
 70
     0
 10
0.0
 20
0.0
 30
0.0
  3
DC_GROUP_85
  1

  0
LINE
  5
2F5
  8
LAYER0001
  6
CONTINUOUS
 62
     7
 10
281.3131360785868
 20
136.9432372485819
 30
0.0
 11
283.3131344862175
 21
136.4073377136843
 31
0.0
  0
LINE
  5
2F6
  8
LAYER0001
  6
CONTINUOUS
 62
     7
 10
283.3131344862175
 20
136.4073377136843
 30
0.0
 11
281.3131360785868
 21
135.8714381787867
 31
0.0
  0
LINE
  5
2F7
  8
LAYER0001
  6
CONTINUOUS
 62
     7
 10
283.3131344862175
 20
136.4073377136843
 30
0.0
 11
281.3131360785868
 21
136.4073377136843
 31
0.0
  0
ENDBLK
  5
14A
  8
0
  0
BLOCK
  8
0
  2
DC_GROUP_86
 70
     0
 10
0.0
 20
0.0
 30
0.0
  3
DC_GROUP_86
  1

  0
LINE
  5
2F8
  8
LAYER0001
  6
CONTINUOUS
 62
     7
 10
286.3131328938481
 20
135.8714381787867
 30
0.0
 11
284.3131344862175
 21
136.4073377136843
 31
0.0
  0
LINE
  5
2F9
  8
LAYER0001
  6
CONTINUOUS
 62
     7
 10
284.3131344862175
 20
136.4073377136843
 30
0.0
 11
286.3131328938481
 21
136.9432372485819
 31
0.0
  0
LINE
  5
2FA
  8
LAYER0001
  6
CONTINUOUS
 62
     7
 10
284.3131344862175
 20
136.4073377136843
 30
0.0
 11
286.3131328938481
 21
136.4073377136843
 31
0.0
  0
ENDBLK
  5
14D
  8
0
  0
BLOCK
  8
0
  2
DC_GROUP_87
 70
     0
 10
0.0
 20
0.0
 30
0.0
  3
DC_GROUP_87
  1

  0
LINE
  5
2FB
  8
LAYER0001
  6
CONTINUOUS
 62
     7
 10
200.7731192274284
 20
-6.346405458007624
 30
0.0
 11
190.2461636610221
 21
-6.346405458007624
 31
0.0
  0
LINE
  5
2FC
  8
LAYER0001
  6
CONTINUOUS
 62
     7
 10
200.7731192274284
 20
-16.34640641168194
 30
0.0
 11
190.2461636610221
 21
-16.34640641168194
 31
0.0
  0
LINE
  5
2FD
  8
LAYER0001
  6
CONTINUOUS
 62
     7
 10
191.2461636610221
 20
-6.346413087402155
 30
0.0
 11
191.2461636610221
 21
-16.34641404107647
 31
0.0
  0
LINE
  5
2FE
  8
LAYER0001
  6
CONTINUOUS
 62
     7
 10
191.2461636610221
 20
-6.346413087402155
 30
0.0
 11
191.2461636610221
 21
0.0035869125978447
 31
0.0
  0
LINE
  5
2FF
  8
LAYER0001
  6
CONTINUOUS
 62
     7
 10
191.2461636610221
 20
-22.69641404107647
 30
0.0
 11
191.2461636610221
 21
-16.34641404107647
 31
0.0
  0
INSERT
  5
300
  8
LAYER0001
  6
DASHDOT2
  2
DC_GROUP_88
 10
0.0
 20
0.0
 30
0.0
  0
INSERT
  5
301
  8
LAYER0001
  6
DASHDOT2
  2
DC_GROUP_89
 10
0.0
 20
0.0
 30
0.0
  0
TEXT
  5
302
  8
LAYER0001
 62
     7
 10
189.6461636610221
 20
-16.14641404107648
 30
0.0
 40
4.0
  1
M10
 50
90.0
 41
0.723809523809526
  7
FDASTYLE1
 72
     5
 11
189.6461636610221
 21
-7.460699755362168
 31
0.0
  0
ENDBLK
  5
150
  8
0
  0
BLOCK
  8
0
  2
DC_GROUP_88
 70
     0
 10
0.0
 20
0.0
 30
0.0
  3
DC_GROUP_88
  1

  0
LINE
  5
303
  8
LAYER0001
  6
CONTINUOUS
 62
     7
 10
191.7820631959197
 20
-4.346414679771494
 30
0.0
 11
191.2461636610221
 21
-6.346413087402155
 31
0.0
  0
LINE
  5
304
  8
LAYER0001
  6
CONTINUOUS
 62
     7
 10
191.2461636610221
 20
-6.346413087402155
 30
0.0
 11
190.7102641261245
 21
-4.346414679771494
 31
0.0
  0
LINE
  5
305
  8
LAYER0001
  6
CONTINUOUS
 62
     7
 10
191.2461636610221
 20
-6.346413087402155
 30
0.0
 11
191.2461636610221
 21
-4.346414679771494
 31
0.0
  0
ENDBLK
  5
153
  8
0
  0
BLOCK
  8
0
  2
DC_GROUP_89
 70
     0
 10
0.0
 20
0.0
 30
0.0
  3
DC_GROUP_89
  1

  0
LINE
  5
306
  8
LAYER0001
  6
CONTINUOUS
 62
     7
 10
190.7102641261245
 20
-18.34641244870713
 30
0.0
 11
191.2461636610221
 21
-16.34641404107647
 31
0.0
  0
LINE
  5
307
  8
LAYER0001
  6
CONTINUOUS
 62
     7
 10
191.2461636610221
 20
-16.34641404107647
 30
0.0
 11
191.7820631959197
 21
-18.34641244870713
 31
0.0
  0
LINE
  5
308
  8
LAYER0001
  6
CONTINUOUS
 62
     7
 10
191.2461636610221
 20
-16.34641404107647
 30
0.0
 11
191.2461636610221
 21
-18.34641244870713
 31
0.0
  0
ENDBLK
  5
156
  8
0
  0
BLOCK
  8
0
  2
DC_GROUP_90
 70
     0
 10
0.0
 20
0.0
 30
0.0
  3
DC_GROUP_90
  1

  0
LINE
  5
309
  8
LAYER0001
  6
CONTINUOUS
 62
     7
 10
279.4746806572183
 20
110.7372860484923
 30
0.0
 11
261.246164430292
 21
136.4073367743779
 31
0.0
  0
LINE
  5
30A
  8
LAYER0001
  6
CONTINUOUS
 62
     7
 10
261.2461636610221
 20
136.4073377136843
 30
0.0
 11
247.4037411756706
 21
136.4073377136843
 31
0.0
  0
INSERT
  5
30B
  8
LAYER0001
  6
CONTINUOUS
  2
DC_GROUP_91
 10
0.0
 20
0.0
 30
0.0
  0
TEXT
  5
30C
  8
LAYER0001
 62
     7
 10
249.2323102064323
 20
138.0073377136843
 30
0.0
 40
4.0
  1
M8
 41
0.7047619047619058
  7
FDASTYLE1
 72
     5
 11
254.8704054445275
 21
138.0073377136843
 31
0.0
  0
ENDBLK
  5
159
  8
0
  0
BLOCK
  8
0
  2
DC_GROUP_91
 70
     0
 10
0.0
 20
0.0
 30
0.0
  3
DC_GROUP_91
  1

  0
LINE
  5
30D
  8
LAYER0001
  6
CONTINUOUS
 62
     7
 10
278.7536613460409
 20
112.6782427958048
 30
0.0
 11
279.4746806572183
 21
110.7372860484923
 31
0.0
  0
LINE
  5
30E
  8
LAYER0001
  6
CONTINUOUS
 62
     7
 10
279.4746806572183
 20
110.7372860484923
 30
0.0
 11
277.8797793010247
 21
112.0576918974797
 31
0.0
  0
LINE
  5
30F
  8
LAYER0001
  6
CONTINUOUS
 62
     7
 10
279.4746806572183
 20
110.7372860484923
 30
0.0
 11
278.3167203235328
 21
112.3679673466423
 31
0.0
  0
ENDBLK
  5
15C
  8
0
  0
BLOCK
  8
0
  2
DC_GROUP_92
 70
     0
 10
0.0
 20
0.0
 30
0.0
  3
DC_GROUP_92
  1

  0
LINE
  5
310
  8
LAYER0001
  6
CONTINUOUS
 62
     7
 10
273.8531344862174
 20
14.03858952566547
 30
0.0
 11
312.2461636610221
 21
14.03858952566547
 31
0.0
  0
LINE
  5
311
  8
LAYER0001
  6
CONTINUOUS
 62
     7
 10
311.2461636610221
 20
14.03858952566547
 30
0.0
 11
311.2461636610221
 21
64.23858695074482
 31
0.0
  0
INSERT
  5
312
  8
LAYER0001
  6
CONTINUOUS
  2
DC_GROUP_93
 10
0.0
 20
0.0
 30
0.0
  0
TEXT
  5
313
  8
LAYER0001
 62
     7
 10
309.6461636610221
 20
26.60433020636005
 30
0.0
 40
4.0
  1
M54×Ｐ1.25
 50
90.0
 41
0.6192847442281571
  7
FDASTYLE1
 72
     5
 11
309.6461636610221
 21
49.88943658933876
 31
0.0
  0
ENDBLK
  5
15F
  8
0
  0
BLOCK
  8
0
  2
DC_GROUP_93
 70
     0
 10
0.0
 20
0.0
 30
0.0
  3
DC_GROUP_93
  1

  0
LINE
  5
314
  8
LAYER0001
  6
CONTINUOUS
 62
     7
 10
311.7820631959197
 20
16.03858793329613
 30
0.0
 11
311.2461636610221
 21
14.03858952566547
 31
0.0
  0
LINE
  5
315
  8
LAYER0001
  6
CONTINUOUS
 62
     7
 10
311.2461636610221
 20
14.03858952566547
 30
0.0
 11
310.7102641261245
 21
16.03858793329613
 31
0.0
  0
LINE
  5
316
  8
LAYER0001
  6
CONTINUOUS
 62
     7
 10
311.2461636610221
 20
14.03858952566547
 30
0.0
 11
311.2461636610221
 21
16.03858793329613
 31
0.0
  0
ENDBLK
  5
162
  8
0
  0
BLOCK
  8
0
  2
DC_GROUP_94
 70
     0
 10
0.0
 20
0.0
 30
0.0
  3
DC_GROUP_94
  1

  0
LINE
  5
317
  8
LAYER0001
  6
CONTINUOUS
 62
     7
 10
306.7622760267448
 20
85.0385709290163
 30
0.0
 11
312.2461636610221
 21
85.0385709290163
 31
0.0
  0
LINE
  5
318
  8
LAYER0001
  6
CONTINUOUS
 62
     7
 10
306.569351527233
 20
110.0385709290163
 30
0.0
 11
312.2461636610221
 21
110.0385709290163
 31
0.0
  0
LINE
  5
319
  8
LAYER0001
  6
CONTINUOUS
 62
     7
 10
311.2461636610221
 20
85.0385709290163
 30
0.0
 11
311.2461636610221
 21
110.0385709290163
 31
0.0
  0
INSERT
  5
31A
  8
LAYER0001
  6
CONTINUOUS
  2
DC_GROUP_95
 10
0.0
 20
0.0
 30
0.0
  0
INSERT
  5
31B
  8
LAYER0001
  6
CONTINUOUS
  2
DC_GROUP_96
 10
0.0
 20
0.0
 30
0.0
  0
TEXT
  5
31C
  8
LAYER0001
 62
     7
 10
309.6461636610221
 20
94.3385709290163
 30
0.0
 40
4.0
  1
25
 50
90.0
 41
0.6476190476190453
  7
FDASTYLE1
 72
     5
 11
309.6461636610221
 21
99.51952330996866
 31
0.0
  0
ENDBLK
  5
165
  8
0
  0
BLOCK
  8
0
  2
DC_GROUP_95
 70
     0
 10
0.0
 20
0.0
 30
0.0
  3
DC_GROUP_95
  1

  0
LINE
  5
31D
  8
LAYER0001
  6
CONTINUOUS
 62
     7
 10
311.7820631959197
 20
87.03856933664697
 30
0.0
 11
311.2461636610221
 21
85.0385709290163
 31
0.0
  0
LINE
  5
31E
  8
LAYER0001
  6
CONTINUOUS
 62
     7
 10
311.2461636610221
 20
85.0385709290163
 30
0.0
 11
310.7102641261245
 21
87.03856933664697
 31
0.0
  0
LINE
  5
31F
  8
LAYER0001
  6
CONTINUOUS
 62
     7
 10
311.2461636610221
 20
85.0385709290163
 30
0.0
 11
311.2461636610221
 21
87.03856933664697
 31
0.0
  0
ENDBLK
  5
168
  8
0
  0
BLOCK
  8
0
  2
DC_GROUP_96
 70
     0
 10
0.0
 20
0.0
 30
0.0
  3
DC_GROUP_96
  1

  0
LINE
  5
320
  8
LAYER0001
  6
CONTINUOUS
 62
     7
 10
310.7102641261245
 20
108.0385725213856
 30
0.0
 11
311.2461636610221
 21
110.0385709290163
 31
0.0
  0
LINE
  5
321
  8
LAYER0001
  6
CONTINUOUS
 62
     7
 10
311.2461636610221
 20
110.0385709290163
 30
0.0
 11
311.7820631959197
 21
108.0385725213856
 31
0.0
  0
LINE
  5
322
  8
LAYER0001
  6
CONTINUOUS
 62
     7
 10
311.2461636610221
 20
110.0385709290163
 30
0.0
 11
311.2461636610221
 21
108.0385725213856
 31
0.0
  0
ENDBLK
  5
16B
  8
0
  0
BLOCK
  8
0
  2
DC_GROUP_97
 70
     0
 10
0.0
 20
0.0
 30
0.0
  3
DC_GROUP_97
  1

  0
LINE
  5
323
  8
LAYER0001
  6
CONTINUOUS
 62
     7
 10
281.8131344862175
 20
27.76658682867451
 30
0.0
 11
284.3131344862175
 21
27.76658682867451
 31
0.0
  0
LINE
  5
324
  8
LAYER0001
  6
CONTINUOUS
 62
     7
 10
281.8131344862175
 20
27.76658682867451
 30
0.0
 11
275.4631344862174
 21
27.76658682867451
 31
0.0
  0
LINE
  5
325
  8
LAYER0001
  6
CONTINUOUS
 62
     7
 10
290.6631344862174
 20
27.76658682867451
 30
0.0
 11
284.3131344862175
 21
27.76658682867451
 31
0.0
  0
INSERT
  5
326
  8
LAYER0001
  6
CENTER2
  2
DC_GROUP_98
 10
0.0
 20
0.0
 30
0.0
  0
INSERT
  5
327
  8
LAYER0001
  6
CENTER2
  2
DC_GROUP_99
 10
0.0
 20
0.0
 30
0.0
  0
TEXT
  5
328
  8
LAYER0001
 62
     7
 10
288.5207791395378
 20
29.36658682867451
 30
0.0
 40
4.0
  1
2.5
 41
0.5587301587301568
  7
FDASTYLE1
 72
     5
 11
295.2255410442996
 21
29.36658682867451
 31
0.0
  0
ENDBLK
  5
16E
  8
0
  0
BLOCK
  8
0
  2
DC_GROUP_98
 70
     0
 10
0.0
 20
0.0
 30
0.0
  3
DC_GROUP_98
  1

  0
LINE
  5
329
  8
LAYER0001
  6
CONTINUOUS
 62
     7
 10
279.8131360785868
 20
28.30248636357212
 30
0.0
 11
281.8131344862175
 21
27.76658682867451
 31
0.0
  0
LINE
  5
32A
  8
LAYER0001
  6
CONTINUOUS
 62
     7
 10
281.8131344862175
 20
27.76658682867451
 30
0.0
 11
279.8131360785868
 21
27.2306872937769
 31
0.0
  0
LINE
  5
32B
  8
LAYER0001
  6
CONTINUOUS
 62
     7
 10
281.8131344862175
 20
27.76658682867451
 30
0.0
 11
279.8131360785868
 21
27.76658682867451
 31
0.0
  0
ENDBLK
  5
171
  8
0
  0
BLOCK
  8
0
  2
DC_GROUP_99
 70
     0
 10
0.0
 20
0.0
 30
0.0
  3
DC_GROUP_99
  1

  0
LINE
  5
32C
  8
LAYER0001
  6
CONTINUOUS
 62
     7
 10
286.3131328938481
 20
27.2306872937769
 30
0.0
 11
284.3131344862175
 21
27.76658682867451
 31
0.0
  0
LINE
  5
32D
  8
LAYER0001
  6
CONTINUOUS
 62
     7
 10
284.3131344862175
 20
27.76658682867451
 30
0.0
 11
286.3131328938481
 21
28.30248636357212
 31
0.0
  0
LINE
  5
32E
  8
LAYER0001
  6
CONTINUOUS
 62
     7
 10
284.3131344862175
 20
27.76658682867451
 30
0.0
 11
286.3131328938481
 21
27.76658682867451
 31
0.0
  0
ENDBLK
  5
174
  8
0
  0
BLOCK
  8
0
  2
DC_GROUP_100
 70
     0
 10
0.0
 20
0.0
 30
0.0
  3
DC_GROUP_100
  1

  0
LINE
  5
32F
  8
LAYER0001
  6
CONTINUOUS
 62
     7
 10
334.6326368949702
 20
76.03857855841083
 30
0.0
 11
334.6326368949702
 21
121.0385785584108
 31
0.0
  0
LINE
  5
330
  8
LAYER0001
  6
CONTINUOUS
 62
     7
 10
285.8531344862174
 20
121.0385709290163
 30
0.0
 11
335.6326368949702
 21
121.0385787148166
 31
0.0
  0
INSERT
  5
331
  8
LAYER0001
  6
CONTINUOUS
  2
DC_GROUP_101
 10
0.0
 20
0.0
 30
0.0
  0
INSERT
  5
332
  8
LAYER0001
  6
CONTINUOUS
  2
DC_GROUP_102
 10
0.0
 20
0.0
 30
0.0
  0
TEXT
  5
333
  8
LAYER0001
 62
     7
 10
333.0326368949702
 20
94.47796759649677
 30
0.0
 40
4.0
  1
45
 50
90.0
 41
0.6476190476190453
  7
FDASTYLE1
 72
     5
 11
333.0326368949702
 21
99.65891997744913
 31
0.0
  0
ENDBLK
  5
177
  8
0
  0
BLOCK
  8
0
  2
DC_GROUP_101
 70
     0
 10
0.0
 20
0.0
 30
0.0
  3
DC_GROUP_101
  1

  0
LINE
  5
334
  8
LAYER0001
  6
CONTINUOUS
 62
     7
 10
335.1685364298678
 20
78.03857696604149
 30
0.0
 11
334.6326368949702
 21
76.03857855841083
 31
0.0
  0
LINE
  5
335
  8
LAYER0001
  6
CONTINUOUS
 62
     7
 10
334.6326368949702
 20
76.03857855841083
 30
0.0
 11
334.0967373600726
 21
78.03857696604149
 31
0.0
  0
LINE
  5
336
  8
LAYER0001
  6
CONTINUOUS
 62
     7
 10
334.6326368949702
 20
76.03857855841083
 30
0.0
 11
334.6326368949702
 21
78.03857696604149
 31
0.0
  0
ENDBLK
  5
17A
  8
0
  0
BLOCK
  8
0
  2
DC_GROUP_102
 70
     0
 10
0.0
 20
0.0
 30
0.0
  3
DC_GROUP_102
  1

  0
LINE
  5
337
  8
LAYER0001
  6
CONTINUOUS
 62
     7
 10
334.0967373600726
 20
119.0385801507801
 30
0.0
 11
334.6326368949702
 21
121.0385785584108
 31
0.0
  0
LINE
  5
338
  8
LAYER0001
  6
CONTINUOUS
 62
     7
 10
334.6326368949702
 20
121.0385785584108
 30
0.0
 11
335.1685364298678
 21
119.0385801507801
 31
0.0
  0
LINE
  5
339
  8
LAYER0001
  6
CONTINUOUS
 62
     7
 10
334.6326368949702
 20
121.0385785584108
 30
0.0
 11
334.6326368949702
 21
119.0385801507801
 31
0.0
  0
ENDBLK
  5
17D
  8
0
  0
BLOCK
  8
0
  2
DC_GROUP_103
 70
     0
 10
0.0
 20
0.0
 30
0.0
  3
DC_GROUP_103
  1

  0
LINE
  5
33A
  8
LAYER0001
  6
CONTINUOUS
 62
     7
 10
286.8531344862174
 20
118.0385709290163
 30
0.0
 11
322.2461636610221
 21
118.0385709290163
 31
0.0
  0
LINE
  5
33B
  8
LAYER0001
  6
CONTINUOUS
 62
     7
 10
286.8531344862174
 20
77.03856329962177
 30
0.0
 11
303.0305980550884
 21
77.03856329962177
 31
0.0
  0
LINE
  5
33C
  8
LAYER0001
  6
CONTINUOUS
 62
     7
 10
306.2563245076441
 20
77.03856329962177
 30
0.0
 11
322.2461636610221
 21
77.03856329962177
 31
0.0
  0
LINE
  5
33D
  8
LAYER0001
  6
CONTINUOUS
 62
     7
 10
321.2461636610221
 20
77.03856329962177
 30
0.0
 11
321.2461636610221
 21
118.0385709290163
 31
0.0
  0
INSERT
  5
33E
  8
LAYER0001
  6
CONTINUOUS
  2
DC_GROUP_104
 10
0.0
 20
0.0
 30
0.0
  0
INSERT
  5
33F
  8
LAYER0001
  6
CONTINUOUS
  2
DC_GROUP_105
 10
0.0
 20
0.0
 30
0.0
  0
TEXT
  5
340
  8
LAYER0001
 62
     7
 10
319.6461636610221
 20
94.57302222296161
 30
0.0
 40
4.0
  1
41
 50
90.0
 41
0.5333333333333314
  7
FDASTYLE1
 72
     5
 11
319.6461636610221
 21
98.83968888962826
 31
0.0
  0
ENDBLK
  5
180
  8
0
  0
BLOCK
  8
0
  2
DC_GROUP_104
 70
     0
 10
0.0
 20
0.0
 30
0.0
  3
DC_GROUP_104
  1

  0
LINE
  5
341
  8
LAYER0001
  6
CONTINUOUS
 62
     7
 10
321.7820631959197
 20
79.03856170725243
 30
0.0
 11
321.2461636610221
 21
77.03856329962177
 31
0.0
  0
LINE
  5
342
  8
LAYER0001
  6
CONTINUOUS
 62
     7
 10
321.2461636610221
 20
77.03856329962177
 30
0.0
 11
320.7102641261245
 21
79.03856170725243
 31
0.0
  0
LINE
  5
343
  8
LAYER0001
  6
CONTINUOUS
 62
     7
 10
321.2461636610221
 20
77.03856329962177
 30
0.0
 11
321.2461636610221
 21
79.03856170725243
 31
0.0
  0
ENDBLK
  5
183
  8
0
  0
BLOCK
  8
0
  2
DC_GROUP_105
 70
     0
 10
0.0
 20
0.0
 30
0.0
  3
DC_GROUP_105
  1

  0
LINE
  5
344
  8
LAYER0001
  6
CONTINUOUS
 62
     7
 10
320.7102641261245
 20
116.0385725213856
 30
0.0
 11
321.2461636610221
 21
118.0385709290163
 31
0.0
  0
LINE
  5
345
  8
LAYER0001
  6
CONTINUOUS
 62
     7
 10
321.2461636610221
 20
118.0385709290163
 30
0.0
 11
321.7820631959197
 21
116.0385725213856
 31
0.0
  0
LINE
  5
346
  8
LAYER0001
  6
CONTINUOUS
 62
     7
 10
321.2461636610221
 20
118.0385709290163
 30
0.0
 11
321.2461636610221
 21
116.0385725213856
 31
0.0
  0
ENDBLK
  5
186
  8
0
  0
BLOCK
  8
0
  2
DC_GROUP_106
 70
     0
 10
0.0
 20
0.0
 30
0.0
  3
DC_GROUP_106
  1

  0
LINE
  5
347
  8
LAYER0001
  6
CONTINUOUS
 62
     7
 10
334.6461344893103
 20
41.03858618780537
 30
0.0
 11
334.6461344893103
 21
76.03857855841083
 31
0.0
  0
LINE
  5
348
  8
LAYER0001
  6
CONTINUOUS
 62
     7
 10
285.6436999769401
 20
76.0385709290163
 30
0.0
 11
302.9969967230956
 21
76.03857363082385
 31
0.0
  0
LINE
  5
349
  8
LAYER0001
  6
CONTINUOUS
 62
     7
 10
306.3235271168306
 20
76.03857414874531
 30
0.0
 11
335.6461344893103
 21
76.03857871410503
 31
0.0
  0
LINE
  5
34A
  8
LAYER0001
  6
CONTINUOUS
 62
     7
 10
288.8380983104628
 20
41.03853397418865
 30
0.0
 11
304.0937349303701
 21
41.03855136310181
 31
0.0
  0
LINE
  5
34B
  8
LAYER0001
  6
CONTINUOUS
 62
     7
 10
322.9127315182237
 20
41.03857281365846
 30
0.0
 11
335.6461344893097
 21
41.03858732764066
 31
0.0
  0
INSERT
  5
34C
  8
LAYER0001
  6
CONTINUOUS
  2
DC_GROUP_107
 10
0.0
 20
0.0
 30
0.0
  0
INSERT
  5
34D
  8
LAYER0001
  6
CONTINUOUS
  2
DC_GROUP_108
 10
0.0
 20
0.0
 30
0.0
  0
ENDBLK
  5
189
  8
0
  0
BLOCK
  8
0
  2
DC_GROUP_107
 70
     0
 10
0.0
 20
0.0
 30
0.0
  3
DC_GROUP_107
  1

  0
LINE
  5
34E
  8
LAYER0001
  6
CONTINUOUS
 62
     7
 10
335.182034024208
 20
43.03858459543604
 30
0.0
 11
334.6461344893103
 21
41.03858618780537
 31
0.0
  0
LINE
  5
34F
  8
LAYER0001
  6
CONTINUOUS
 62
     7
 10
334.6461344893103
 20
41.03858618780537
 30
0.0
 11
334.1102349544127
 21
43.03858459543604
 31
0.0
  0
LINE
  5
350
  8
LAYER0001
  6
CONTINUOUS
 62
     7
 10
334.6461344893103
 20
41.03858618780537
 30
0.0
 11
334.6461344893103
 21
43.03858459543604
 31
0.0
  0
ENDBLK
  5
18C
  8
0
  0
BLOCK
  8
0
  2
DC_GROUP_108
 70
     0
 10
0.0
 20
0.0
 30
0.0
  3
DC_GROUP_108
  1

  0
LINE
  5
351
  8
LAYER0001
  6
CONTINUOUS
 62
     7
 10
334.1102349544127
 20
74.03858015078018
 30
0.0
 11
334.6461344893103
 21
76.03857855841083
 31
0.0
  0
LINE
  5
352
  8
LAYER0001
  6
CONTINUOUS
 62
     7
 10
334.6461344893103
 20
76.03857855841083
 30
0.0
 11
335.182034024208
 21
74.03858015078018
 31
0.0
  0
LINE
  5
353
  8
LAYER0001
  6
CONTINUOUS
 62
     7
 10
334.6461344893103
 20
76.03857855841083
 30
0.0
 11
334.6461344893103
 21
74.03858015078018
 31
0.0
  0
ENDBLK
  5
18F
  8
0
  0
BLOCK
  8
0
  2
DC_GROUP_109
 70
     0
 10
0.0
 20
0.0
 30
0.0
  3
DC_GROUP_109
  1

  0
LINE
  5
354
  8
LAYER0001
  6
CONTINUOUS
 62
     7
 10
282.3129909255902
 20
119.6398075139955
 30
0.0
 11
298.2816599394334
 21
136.3275312414003
 31
0.0
  0
LINE
  5
355
  8
LAYER0001
  6
CONTINUOUS
 62
     7
 10
298.2816594190788
 20
136.3275342468874
 30
0.0
 11
348.11133127882
 21
136.3275342468874
 31
0.0
  0
INSERT
  5
356
  8
LAYER0001
  6
DOT2
  2
DC_GROUP_110
 10
0.0
 20
0.0
 30
0.0
  0
TEXT
  5
357
  8
LAYER0001
 62
     7
 10
298.6276867933464
 20
137.9275342468874
 30
0.0
 40
4.0
  1
ｾﾚｰｼｮﾝP1.5 山60ﾟ
 41
0.6336565096952911
  7
FDASTYLE1
 72
     5
 11
337.1540025828201
 21
137.9275342468874
 31
0.0
  0
ENDBLK
  5
192
  8
0
  0
BLOCK
  8
0
  2
DC_GROUP_110
 70
     0
 10
0.0
 20
0.0
 30
0.0
  3
DC_GROUP_110
  1

  0
LINE
  5
358
  8
LAYER0001
  6
CONTINUOUS
 62
     7
 10
284.0829170538231
 20
120.7143043462975
 30
0.0
 11
282.3129909255902
 21
119.6398075139955
 31
0.0
  0
LINE
  5
359
  8
LAYER0001
  6
CONTINUOUS
 62
     7
 10
282.3129909255902
 20
119.6398075139955
 30
0.0
 11
283.3085408285374
 21
121.4553135957177
 31
0.0
  0
LINE
  5
35A
  8
LAYER0001
  6
CONTINUOUS
 62
     7
 10
282.3129909255902
 20
119.6398075139955
 30
0.0
 11
283.6957289411803
 21
121.0848089710076
 31
0.0
  0
ENDBLK
  5
195
  8
0
  0
BLOCK
  8
0
  2
DC_GROUP_111
 70
     0
 10
0.0
 20
0.0
 30
0.0
  3
DC_GROUP_111
  1

  0
TEXT
  5
35B
  8
LAYER0001
 62
     7
 10
339.3933701104858
 20
47.00451734041465
 30
0.0
 40
4.0
  1
ＭＩＮ31.7
 50
90.0
 41
0.6011080332409972
  7
FDASTYLE1
 72
     5
 11
339.3933701104858
 21
65.27820155094096
 31
0.0
  0
ENDBLK
  5
198
  8
0
  0
BLOCK
  8
0
  2
DC_GROUP_112
 70
     0
 10
0.0
 20
0.0
 30
0.0
  3
DC_GROUP_112
  1

  0
TEXT
  5
35C
  8
LAYER0001
 62
     7
 10
333.7025298325684
 20
47.22722736221028
 30
0.0
 40
4.0
  1
MAX37.7
 50
90.0
 41
0.6802721088435367
  7
FDASTYLE1
 72
     5
 11
333.7025298325684
 21
66.27484640982931
 31
0.0
  0
ENDBLK
  5
19B
  8
0
  0
BLOCK
  8
0
  2
DC_GROUP_113
 70
     0
 10
0.0
 20
0.0
 30
0.0
  3
DC_GROUP_113
  1

  0
TEXT
  5
35D
  8
LAYER0001
 62
     7
 10
225.1991727125196
 20
-64.45708006909001
 30
0.0
 40
4.0
  1
ＭＩＮ24.3
 41
0.6011080332409972
  7
FDASTYLE1
 72
     5
 11
243.4728569230459
 21
-64.45708006909001
 31
0.0
  0
ENDBLK
  5
19E
  8
0
  0
ENDSEC
  0
SECTION
  2
ENTITIES
  0
LINE
  5
35E
  8
LAYER0002
  6
CONTINUOUS
 62
     3
 10
79.57239374547669
 20
-190.0
 30
0.0
 11
79.57239374547669
 21
190.0
 31
0.0
  0
LINE
  5
35F
  8
LAYER0002
  6
CONTINUOUS
 62
     3
 10
633.5723937454767
 20
-190.0
 30
0.0
 11
633.5723937454767
 21
190.0
 31
0.0
  0
LINE
  5
360
  8
LAYER0002
  6
CONTINUOUS
 62
     3
 10
79.57239374547669
 20
-190.0
 30
0.0
 11
633.5723937454767
 21
-190.0
 31
0.0
  0
LINE
  5
361
  8
LAYER0002
  6
CONTINUOUS
 62
     3
 10
79.57239374547669
 20
189.9999999999999
 30
0.0
 11
633.5723937454767
 21
189.9999999999999
 31
0.0
  0
LINE
  5
362
  8
LAYER0002
  6
CONTINUOUS
 62
     3
 10
453.5723937454767
 20
-190.0
 30
0.0
 11
453.5723937454767
 21
-130.0
 31
0.0
  0
LINE
  5
363
  8
LAYER0002
  6
CONTINUOUS
 62
     3
 10
453.5723937454767
 20
-176.0
 30
0.0
 11
633.5723937454767
 21
-176.0
 31
0.0
  0
LINE
  5
364
  8
LAYER0002
  6
CONTINUOUS
 62
     3
 10
502.5723937454767
 20
-162.0
 30
0.0
 11
633.5723937454767
 21
-162.0
 31
0.0
  0
LINE
  5
365
  8
LAYER0002
  6
CONTINUOUS
 62
     3
 10
502.5723937454767
 20
-148.0
 30
0.0
 11
633.5723937454767
 21
-148.0
 31
0.0
  0
LINE
  5
366
  8
LAYER0002
  6
CONTINUOUS
 62
     3
 10
502.5723937454767
 20
-138.0
 30
0.0
 11
633.5723937454767
 21
-138.0
 31
0.0
  0
LINE
  5
367
  8
LAYER0002
  6
CONTINUOUS
 62
     3
 10
502.5723937454767
 20
-176.0
 30
0.0
 11
502.5723937454767
 21
-130.0
 31
0.0
  0
LINE
  5
368
  8
LAYER0002
  6
CONTINUOUS
 62
     3
 10
611.5723937454767
 20
-176.0
 30
0.0
 11
611.5723937454767
 21
-130.0
 31
0.0
  0
LINE
  5
369
  8
LAYER0002
  6
CONTINUOUS
 62
     3
 10
527.5723937454767
 20
-190.0
 30
0.0
 11
527.5723937454767
 21
-176.0
 31
0.0
  0
LINE
  5
36A
  8
LAYER0002
  6
CONTINUOUS
 62
     3
 10
618.5723937454767
 20
-188.0
 30
0.0
 11
628.5723937454767
 21
-188.0
 31
0.0
  0
LINE
  5
36B
  8
LAYER0002
  6
CONTINUOUS
 62
     3
 10
623.5723937454767
 20
-178.0
 30
0.0
 11
618.5723937454767
 21
-188.0
 31
0.0
  0
LINE
  5
36C
  8
LAYER0002
  6
CONTINUOUS
 62
     3
 10
623.5723937454767
 20
-178.0
 30
0.0
 11
628.5723937454767
 21
-188.0
 31
0.0
  0
LINE
  5
36D
  8
LAYER0002
  6
CONTINUOUS
 62
     3
 10
453.5723937454767
 20
-130.0
 30
0.0
 11
633.5723937454767
 21
-130.0
 31
0.0
  0
LINE
  5
36E
  8
LAYER0002
  6
CONTINUOUS
 62
     3
 10
582.5723937454767
 20
-176.0
 30
0.0
 11
582.5723937454767
 21
-148.0
 31
0.0
  0
LINE
  5
36F
  8
LAYER0002
  6
CONTINUOUS
 62
     4
 10
461.5723937454767
 20
-172.0
 30
0.0
 11
461.5723937454767
 21
-130.0
 31
0.0
  0
LINE
  5
370
  8
LAYER0002
  6
CONTINUOUS
 62
     4
 10
465.5723937454767
 20
-172.0
 30
0.0
 11
465.5723937454767
 21
-130.0
 31
0.0
  0
LINE
  5
371
  8
LAYER0002
  6
CONTINUOUS
 62
     4
 10
478.0723937454767
 20
-176.0
 30
0.0
 11
478.0723937454767
 21
-130.0
 31
0.0
  0
LINE
  5
372
  8
LAYER0002
  6
CONTINUOUS
 62
     4
 10
453.5723937454767
 20
-137.0
 30
0.0
 11
502.5723937454767
 21
-137.0
 31
0.0
  0
LINE
  5
373
  8
LAYER0002
  6
CONTINUOUS
 62
     4
 10
453.5723937454767
 20
-144.0
 30
0.0
 11
502.5723937454767
 21
-144.0
 31
0.0
  0
LINE
  5
374
  8
LAYER0002
  6
CONTINUOUS
 62
     4
 10
453.5723937454767
 20
-165.0
 30
0.0
 11
502.5723937454767
 21
-165.0
 31
0.0
  0
LINE
  5
375
  8
LAYER0002
  6
CONTINUOUS
 62
     4
 10
453.5723937454767
 20
-172.0
 30
0.0
 11
502.5723937454767
 21
-172.0
 31
0.0
  0
LINE
  5
376
  8
LAYER0002
  6
CONTINUOUS
 62
     4
 10
611.5723937454767
 20
-166.0
 30
0.0
 11
633.5723937454767
 21
-166.0
 31
0.0
  0
LINE
  5
377
  8
LAYER0002
  6
CONTINUOUS
 62
     4
 10
558.5723937454767
 20
-148.0
 30
0.0
 11
558.5723937454767
 21
-146.5
 31
0.0
  0
LINE
  5
378
  8
LAYER0002
  6
CONTINUOUS
 62
     4
 10
582.5723937454767
 20
-148.0
 30
0.0
 11
582.5723937454767
 21
-146.5
 31
0.0
  0
LINE
  5
379
  8
LAYER0002
  6
CONTINUOUS
 62
     4
 10
599.5723937454767
 20
-148.0
 30
0.0
 11
599.5723937454767
 21
-146.5
 31
0.0
  0
LINE
  5
37A
  8
LAYER0002
  6
CONTINUOUS
 62
     4
 10
453.5723937454767
 20
-151.0
 30
0.0
 11
502.5723937454767
 21
-151.0
 31
0.0
  0
LINE
  5
37B
  8
LAYER0002
  6
CONTINUOUS
 62
     4
 10
453.5723937454767
 20
-158.0
 30
0.0
 11
502.5723937454767
 21
-158.0
 31
0.0
  0
LINE
  5
37C
  8
LAYER0002
  6
CONTINUOUS
 62
     4
 10
457.5723937454767
 20
-130.5
 30
0.0
 11
454.5723937454767
 21
-136.5
 31
0.0
  0
LINE
  5
37D
  8
LAYER0002
  6
CONTINUOUS
 62
     4
 10
457.5723937454767
 20
-130.5
 30
0.0
 11
460.5723937454767
 21
-136.5
 31
0.0
  0
LINE
  5
37E
  8
LAYER0002
  6
CONTINUOUS
 62
     4
 10
454.5723937454767
 20
-136.5
 30
0.0
 11
460.5723937454767
 21
-136.5
 31
0.0
  0
LINE
  5
37F
  8
LAYER0002
  6
CONTINUOUS
 62
     4
 10
457.5723937454767
 20
-158.5
 30
0.0
 11
454.5723937454767
 21
-164.5
 31
0.0
  0
LINE
  5
380
  8
LAYER0002
  6
CONTINUOUS
 62
     4
 10
457.5723937454767
 20
-158.5
 30
0.0
 11
460.5723937454767
 21
-164.5
 31
0.0
  0
LINE
  5
381
  8
LAYER0002
  6
CONTINUOUS
 62
     4
 10
454.5723937454767
 20
-164.5
 30
0.0
 11
460.5723937454767
 21
-164.5
 31
0.0
  0
LINE
  5
382
  8
LAYER0002
  6
CONTINUOUS
 62
     4
 10
457.5723937454767
 20
-151.5
 30
0.0
 11
454.5723937454767
 21
-157.5
 31
0.0
  0
LINE
  5
383
  8
LAYER0002
  6
CONTINUOUS
 62
     4
 10
457.5723937454767
 20
-151.5
 30
0.0
 11
460.5723937454767
 21
-157.5
 31
0.0
  0
LINE
  5
384
  8
LAYER0002
  6
CONTINUOUS
 62
     4
 10
454.5723937454767
 20
-157.5
 30
0.0
 11
460.5723937454767
 21
-157.5
 31
0.0
  0
LINE
  5
385
  8
LAYER0002
  6
CONTINUOUS
 62
     4
 10
457.5723937454767
 20
-144.5
 30
0.0
 11
454.5723937454767
 21
-150.5
 31
0.0
  0
LINE
  5
386
  8
LAYER0002
  6
CONTINUOUS
 62
     4
 10
457.5723937454767
 20
-144.5
 30
0.0
 11
460.5723937454767
 21
-150.5
 31
0.0
  0
LINE
  5
387
  8
LAYER0002
  6
CONTINUOUS
 62
     4
 10
454.5723937454767
 20
-150.5
 30
0.0
 11
460.5723937454767
 21
-150.5
 31
0.0
  0
LINE
  5
388
  8
LAYER0002
  6
CONTINUOUS
 62
     4
 10
457.5723937454767
 20
-137.5
 30
0.0
 11
454.5723937454767
 21
-143.5
 31
0.0
  0
LINE
  5
389
  8
LAYER0002
  6
CONTINUOUS
 62
     4
 10
457.5723937454767
 20
-137.5
 30
0.0
 11
460.5723937454767
 21
-143.5
 31
0.0
  0
LINE
  5
38A
  8
LAYER0002
  6
CONTINUOUS
 62
     4
 10
454.5723937454767
 20
-143.5
 30
0.0
 11
460.5723937454767
 21
-143.5
 31
0.0
  0
LINE
  5
38B
  8
LAYER0002
  6
CONTINUOUS
 62
     4
 10
529.2390604121433
 20
-176.0
 30
0.0
 11
529.2390604121433
 21
-162.0
 31
0.0
  0
LINE
  5
38C
  8
LAYER0002
  6
CONTINUOUS
 62
     4
 10
555.90572707881
 20
-176.0
 30
0.0
 11
555.90572707881
 21
-161.9509415757253
 31
0.0
  0
LINE
  5
38D
  8
LAYER0002
  6
CONTINUOUS
 62
     4
 10
569.2390604121433
 20
-167.5
 30
0.0
 11
569.2390604121433
 21
-161.9509415757253
 31
0.0
  0
LINE
  5
38E
  8
LAYER0002
  6
CONTINUOUS
 62
     4
 10
582.5723937454767
 20
-155.0
 30
0.0
 11
611.5723937454767
 21
-155.0
 31
0.0
  0
LINE
  5
38F
  8
LAYER0002
  6
CONTINUOUS
 62
     4
 10
502.5723937454767
 20
-166.0
 30
0.0
 11
582.5723937454767
 21
-166.0
 31
0.0
  0
LINE
  5
390
  8
LAYER0002
  6
CONTINUOUS
 62
     7
 10
509.5723937454767
 20
-139.5
 30
0.0
 11
509.5723937454767
 21
-130.0
 31
0.0
  0
LINE
  5
391
  8
LAYER0002
  6
CONTINUOUS
 62
     7
 10
558.5723937454767
 20
-139.5
 30
0.0
 11
558.5723937454767
 21
-130.0
 31
0.0
  0
LINE
  5
392
  8
LAYER0002
  6
CONTINUOUS
 62
     7
 10
582.5723937454767
 20
-139.5
 30
0.0
 11
582.5723937454767
 21
-130.0
 31
0.0
  0
LINE
  5
393
  8
LAYER0002
  6
CONTINUOUS
 62
     7
 10
599.5723937454767
 20
-139.5
 30
0.0
 11
599.5723937454767
 21
-130.0
 31
0.0
  0
TEXT
  5
395
  8
LAYER0002
 62
     7
 10
503.5661518929514
 20
-130.821188728956
 30
0.0
 40
2.44248928
  1
符号
 41
0.8
  7
FDASTYLE0
  0
TEXT
  5
396
  8
LAYER0002
 62
     7
 10
518.9865248673825
 20
-135.8245525019963
 30
0.0
 40
4.0
  1
品       名
 41
0.6192847442281572
  7
FDASTYLE1
 72
     5
 11
542.2716312503612
 21
-135.8245525019963
 31
0.0
  0
TEXT
  5
397
  8
LAYER0002
 62
     7
 10
563.8055501867863
 20
-135.8245525019963
 30
0.0
 40
4.0
  1
材  料
 41
0.5950413223140509
  7
FDASTYLE1
 72
     5
 11
574.2782774595136
 21
-135.8245525019963
 31
0.0
  0
TEXT
  5
398
  8
LAYER0002
 62
     7
 10
586.0884554303317
 20
-135.8245525019963
 30
0.0
 40
4.0
  1
個 数
 41
0.5813148788927315
  7
FDASTYLE1
 72
     5
 11
593.9943377832728
 21
-135.8245525019963
 31
0.0
  0
TEXT
  5
399
  8
LAYER0002
 62
     7
 10
602.2942046983646
 20
-133.5649080050572
 30
0.0
 40
2.5
  1
単重量
 41
0.6666666666666666
  7
FDASTYLE1
 72
     5
 11
608.2942046983646
 21
-133.5649080050572
 31
0.0
  0
TEXT
  5
39A
  8
LAYER0002
 62
     7
 10
601.2813453691126
 20
-137.3631304897525
 30
0.0
 40
2.5
  1
(kg)
 41
0.5333333333333371
  7
FDASTYLE1
 72
     5
 11
606.614678702446
 21
-137.3631304897525
 31
0.0
  0
TEXT
  5
39B
  8
LAYER0002
 62
     7
 10
615.7145908109544
 20
-135.8245525019963
 30
0.0
 40
4.0
  1
記  事
 41
0.5950413223140509
  7
FDASTYLE1
 72
     5
 11
626.1873180836817
 21
-135.8245525019963
 31
0.0
  0
TEXT
  5
39C
  8
LAYER0002
 62
     7
 10
615.4174732006412
 20
-165.4873041997729
 30
0.0
 40
3.0
  1
コード番号
 41
0.6666666666666666
  7
FDASTYLE1
 72
     5
 11
627.4174732006412
 21
-165.4873041997729
 31
0.0
  0
TEXT
  5
39D
  8
LAYER0002
 62
     7
 10
458.4843857613084
 20
-175.1879010540338
 30
0.0
 40
2.5
  1
訂 正 来 歴
 41
0.5890861275476669
  7
FDASTYLE1
 72
     5
 11
469.9715652484879
 21
-175.1879010540338
 31
0.0
  0
TEXT
  5
39E
  8
LAYER0002
 62
     7
 10
482.4627285922417
 20
-175.2166697391651
 30
0.0
 40
2.5
  1
工 事 番 号
 41
0.5890861275476669
  7
FDASTYLE1
 72
     5
 11
493.9499080794212
 21
-175.2166697391651
 31
0.0
  0
TEXT
  5
39F
  8
LAYER0002
 62
     7
 10
455.5063940920796
 20
-165.9634530565915
 30
0.0
 40
1.90819475
  1
記号
 41
0.8
  7
FDASTYLE0
  0
TEXT
  5
3A0
  8
LAYER0002
 62
     7
 10
461.4457811522385
 20
-165.9634530565915
 30
0.0
 40
1.90819475
  1
理由
 41
0.8
  7
FDASTYLE0
  0
TEXT
  5
3A1
  8
LAYER0002
 62
     7
 10
468.191760536461
 20
-169.8786046700178
 30
0.0
 40
3.0
  1
日 付
 41
0.5813148788927344
  7
FDASTYLE1
 72
     5
 11
474.1211723011669
 21
-169.8786046700178
 31
0.0
  0
TEXT
  5
3A2
  8
LAYER0002
 62
     7
 10
510.0205627274419
 20
-165.7187911464244
 30
0.0
 40
3.0
  1
承   認
 41
0.6035665294924586
  7
FDASTYLE1
 72
     5
 11
519.7983405052197
 21
-165.7187911464244
 31
0.0
  0
TEXT
  5
3A3
  8
LAYER0002
 62
     7
 10
536.4356217787107
 20
-165.4873041997729
 30
0.0
 40
3.0
  1
検   図
 41
0.6035665294924586
  7
FDASTYLE1
 72
     5
 11
546.2133995564885
 21
-165.4873041997729
 31
0.0
  0
TEXT
  5
3A4
  8
LAYER0002
 62
     7
 10
558.0495858438518
 20
-165.4873041997729
 30
0.0
 40
3.0
  1
担  当
 41
0.5950413223140511
  7
FDASTYLE1
 72
     5
 11
565.9041312983973
 21
-165.4873041997729
 31
0.0
  0
TEXT
  5
3A5
  8
LAYER0002
 62
     7
 10
571.2494512295879
 20
-165.4873041997729
 30
0.0
 40
3.0
  1
製  図
 41
0.5950413223140511
  7
FDASTYLE1
 72
     5
 11
579.1039966841333
 21
-165.4873041997729
 31
0.0
  0
TEXT
  5
3A6
  8
LAYER0002
 62
     7
 10
583.5186309758966
 20
-153.2184960272417
 30
0.0
 40
3.0
  1
作図
 41
0.6666666666666762
  7
FDASTYLE1
 72
     5
 11
588.3186309758967
 21
-153.2184960272417
 31
0.0
  0
TEXT
  5
3A7
  8
LAYER0002
 62
     7
 10
584.6760657091543
 20
-160.2371566401815
 30
0.0
 40
4.0
  1
第 三 角 法
 41
0.5890861275476675
  7
FDASTYLE1
 72
     5
 11
603.0555528886415
 21
-160.2371566401815
 31
0.0
  0
TEXT
  5
3A8
  8
LAYER0002
 62
     7
 10
583.9816048691997
 20
-166.413251986379
 30
0.0
 40
3.0
  1
尺度
 41
0.6666666666666762
  7
FDASTYLE1
 72
     5
 11
588.7816048691998
 21
-166.413251986379
 31
0.0
  0
TEXT
  5
3AA
  8
LAYER0002
 62
     3
 10
461.9515481155107
 20
-185.9272077185017
 30
0.0
 40
7.0
  1
株式会社 野村製作所
 41
0.5976394989045255
  7
FDASTYLE2
 72
     5
 11
517.8344271000773
 21
-185.9272077185017
 31
0.0
  0
TEXT
  5
3AC
  8
LAYER0002
 62
     3
 10
533.6311292844923
 20
-187.1216685584563
 30
0.0
 40
8.0
  1
２－
 41
0.7699296059137625
  7
FDASTYLE3
 72
     5
 11
547.5206593751766
 21
-187.1216685584563
 31
0.0
  0
TEXT
  5
3AD
  8
LAYER0002
 62
     3
 10
550.5430869088992
 20
-187.1216685584563
 30
0.0
 40
8.0
  1
9306073
 41
1.375217071789327
  7
FDASTYLE3
 72
     5
 11
605.716795829087
 21
-187.1216685584563
 31
0.0
  0
TEXT
  5
3AE
  8
LAYER0002
 62
     4
 10
590.1032971299989
 20
-145.0216474852281
 30
0.0
 40
3.0
  1
1式
 41
0.520661157024785
  7
FDASTYLE1
 72
     5
 11
593.5396607663624
 21
-145.0216474852281
 31
0.0
  0
TEXT
  5
3AF
  8
LAYER0002
 62
     4
 10
595.8735726361166
 20
-172.297487439201
 30
0.0
 40
3.0
  1
1/1
 41
0.5222222222222273
  7
FDASTYLE1
 72
     5
 11
600.5735726361166
 21
-172.297487439201
 31
0.0
  0
TEXT
  5
3B0
  8
LAYER0002
 62
     6
 10
521.6085333514537
 20
-145.7243747487088
 30
0.0
 40
5.0
  1
外　形　図
 41
0.5833333333333334
  7
FDASTYLE1
 72
     5
 11
539.1085333514537
 21
-145.7243747487088
 31
0.0
  0
TEXT
  5
3B1
  8
LAYER0002
 62
     6
 10
508.9768756015056
 20
-154.3920863201719
 30
0.0
 40
5.0
  1
日鋼プレシジォン
 41
0.5833333333333322
  7
FDASTYLE1
 72
     5
 11
536.9768756015055
 21
-154.3920863201719
 31
0.0
  0
TEXT
  5
3B2
  8
LAYER0002
 62
     6
 10
517.4424132567851
 20
-160.8053724226564
 30
0.0
 40
5.0
  1
  ＭＯ3-6型 ﾁｬｯｸ
 41
0.5411980968858124
  7
FDASTYLE1
 72
     5
 11
554.2438838450204
 21
-160.8053724226564
 31
0.0
  0
LINE
  5
3B3
  8
0
  6
CONTINUOUS
 62
     3
 10
421.0311097266646
 20
-11.08572357572676
 30
0.0
 11
466.8464175484429
 21
15.36575380577212
 31
0.0
  0
LINE
  5
3B4
  8
0
  6
CONTINUOUS
 62
     3
 10
407.0310916245844
 20
13.16299124542674
 30
0.0
 11
452.8463994463627
 21
39.61446862692561
 31
0.0
  0
LINE
  5
3B5
  8
0
  6
CONTINUOUS
 62
     3
 10
513.7798796118925
 20
39.61450480299824
 30
0.0
 11
559.5951775227961
 21
13.16303314354492
 31
0.0
  0
LINE
  5
3B6
  8
0
  6
CONTINUOUS
 62
     3
 10
499.7798710465549
 20
15.36580649996928
 30
0.0
 11
545.5951689574586
 21
-11.08566515948404
 31
0.0
  0
LINE
  5
3B7
  8
0
  6
CONTINUOUS
 62
     3
 10
560.9239965584716
 20
21.63346989607636
 30
0.0
 11
561.7388158202452
 21
21.16303382792513
 31
0.0
  0
LINE
  5
3B8
  8
0
  6
CONTINUOUS
 62
     3
 10
538.9239620409719
 20
-16.47162031369179
 30
0.0
 11
539.7387680882459
 21
-16.94204875244894
 31
0.0
  0
LINE
  5
3B9
  8
0
  6
CONTINUOUS
 62
     3
 10
404.8875086377894
 20
21.16300294046791
 30
0.0
 11
405.7023345068129
 21
21.63344282331617
 31
0.0
  0
LINE
  5
3BA
  8
0
  6
CONTINUOUS
 62
     3
 10
426.8875178511391
 20
-16.94214262336139
 30
0.0
 11
427.702330505663
 21
-16.4717103699072
 31
0.0
  0
LINE
  5
3BB
  8
0
  6
CONTINUOUS
 62
     3
 10
461.3131344862174
 20
118.8950554176613
 30
0.0
 11
461.3131344862174
 21
117.954175595884
 31
0.0
  0
LINE
  5
3BC
  8
0
  6
CONTINUOUS
 62
     3
 10
505.3131344862174
 20
118.8950554176613
 30
0.0
 11
505.3131344862174
 21
117.954175595884
 31
0.0
  0
LINE
  5
3BD
  8
0
  6
CONTINUOUS
 62
     3
 10
469.3131344862174
 20
121.0386406227394
 30
0.0
 11
497.3131192274284
 21
121.0386406227394
 31
0.0
  0
LINE
  5
3BE
  8
0
  6
CONTINUOUS
 62
     3
 10
407.0311193963844
 20
13.16300008499526
 30
0.0
 11
421.0311210653144
 21
-11.08571078574754
 31
0.0
  0
LINE
  5
3BF
  8
0
  6
CONTINUOUS
 62
     3
 10
545.5952300742736
 20
-11.08569603842942
 30
0.0
 11
559.5952317432036
 21
13.16301483231338
 31
0.0
  0
LINE
  5
3C0
  8
0
  6
CONTINUOUS
 62
     3
 10
461.3131540102336
 20
118.8950356698411
 30
0.0
 11
469.3131409560415
 21
121.0386254825676
 31
0.0
  0
LINE
  5
3C1
  8
0
  6
CONTINUOUS
 62
     3
 10
497.3131157501532
 20
121.0385944852803
 30
0.0
 11
505.3131174348193
 21
118.8950007232891
 31
0.0
  0
LINE
  5
3C2
  8
0
  6
CONTINUOUS
 62
     3
 10
559.5951193274317
 20
13.16302801965732
 30
0.0
 11
561.7387125957648
 21
21.16302601960889
 31
0.0
  0
LINE
  5
3C3
  8
0
  6
CONTINUOUS
 62
     3
 10
404.8874941663228
 20
21.16303685194691
 30
0.0
 11
407.031088020875
 21
13.16303666419607
 31
0.0
  0
LINE
  5
3C4
  8
0
  6
CONTINUOUS
 62
     3
 10
539.7388017075052
 20
-16.94214380364473
 30
0.0
 11
545.5952098770092
 21
-11.085736127799
 31
0.0
  0
LINE
  5
3C5
  8
0
  6
CONTINUOUS
 62
     3
 10
421.0310997391932
 20
-11.08567956108048
 30
0.0
 11
426.8875106060957
 21
-16.94208993432447
 31
0.0
  0
LINE
  5
3C6
  8
0
  6
CONTINUOUS
 62
     3
 10
506.6240789518954
 20
11.41427640008443
 30
0.0
 11
510.8740718291394
 21
18.77547898563263
 31
0.0
  0
LINE
  5
3C7
  8
0
  6
CONTINUOUS
 62
     3
 10
446.0022615933344
 20
35.66306427674068
 30
0.0
 11
450.2522630536483
 21
28.30184682488142
 31
0.0
  0
LINE
  5
3C8
  8
0
  6
CONTINUOUS
 62
     3
 10
416.7811184945826
 20
-3.724506757968229
 30
0.0
 11
423.3073964638065
 21
0.0434411680793261
 31
0.0
  0
LINE
  5
3C9
  8
0
  6
CONTINUOUS
 62
     3
 10
411.281107446787
 20
5.801777612697052
 30
0.0
 11
417.8073854160109
 21
9.569725538744606
 31
0.0
  0
LINE
  5
3CA
  8
0
  6
CONTINUOUS
 62
     3
 10
510.8740659871448
 20
18.77551649596877
 30
0.0
 11
515.6682930606778
 21
16.00756851031657
 31
0.0
  0
LINE
  5
3CB
  8
0
  6
CONTINUOUS
 62
     3
 10
516.3740562595167
 20
28.30181065891271
 30
0.0
 11
521.1682965475493
 21
25.53385504386644
 31
0.0
  0
LINE
  5
3CC
  8
0
  6
CONTINUOUS
 62
     3
 10
515.6272272272588
 20
30.46505216376433
 30
0.0
 11
517.1240600295103
 21
29.60085543793072
 31
0.0
  0
LINE
  5
3CD
  8
0
  6
CONTINUOUS
 62
     3
 10
508.6272200150972
 20
18.34068267942827
 30
0.0
 11
510.1240528173487
 21
17.47648595359466
 31
0.0
  0
LINE
  5
3CE
  8
0
  6
CONTINUOUS
 62
     3
 10
449.5022606480624
 20
29.6008234690312
 30
0.0
 11
450.999086843064
 21
30.46501638016777
 31
0.0
  0
LINE
  5
3CF
  8
0
  6
CONTINUOUS
 62
     3
 10
456.5022630918527
 20
17.47646224375741
 30
0.0
 11
457.9990892868543
 21
18.34065515489398
 31
0.0
  0
LINE
  5
3D0
  8
0
  6
CONTINUOUS
 62
     3
 10
455.7522646629739
 20
18.77556590242013
 30
0.0
 11
460.0022632622645
 21
11.41435340599789
 31
0.0
  0
LINE
  5
3D1
  8
0
  6
CONTINUOUS
 62
     3
 10
516.3740724847905
 20
28.30175825628159
 30
0.0
 11
520.62407299143
 21
35.66297405632851
 31
0.0
  0
LINE
  5
3D2
  8
0
  6
CONTINUOUS
 62
     3
 10
429.307393770709
 20
3.507540845636086
 30
0.0
 11
444.9580227490683
 21
12.54343470097571
 31
0.0
  0
LINE
  5
3D3
  8
0
  6
CONTINUOUS
 62
     3
 10
423.8073827229134
 20
13.03382521630137
 30
0.0
 11
439.4580183085225
 21
22.06972288633803
 31
0.0
  0
LINE
  5
3D4
  8
0
  6
CONTINUOUS
 62
     3
 10
445.4580288299246
 20
25.53383019328886
 30
0.0
 11
450.2522492962078
 21
28.30177436424403
 31
0.0
  0
LINE
  5
3D5
  8
0
  6
CONTINUOUS
 62
     3
 10
450.9580266632206
 20
16.00753819322951
 30
0.0
 11
455.7522603440034
 21
18.77548999357875
 31
0.0
  0
LINE
  5
3D6
  8
0
  6
CONTINUOUS
 62
     3
 10
527.168287247202
 20
22.06975918100672
 30
0.0
 11
542.8189327436858
 21
13.0338557889245
 31
0.0
  0
LINE
  5
3D7
  8
0
  6
CONTINUOUS
 62
     3
 10
521.6683101893298
 20
12.5434573886687
 30
0.0
 11
536.4529302379681
 21
4.007553966784158
 31
0.0
  0
LINE
  5
3D8
  8
0
  6
CONTINUOUS
 62
     3
 10
548.8189366578381
 20
9.5697522966707
 30
0.0
 11
555.3452080198122
 21
5.801808185320184
 31
0.0
  0
LINE
  5
3D9
  8
0
  6
CONTINUOUS
 62
     3
 10
543.3189463854662
 20
0.0434581337267588
 30
0.0
 11
549.8452177474403
 21
-3.724485977623758
 31
0.0
  0
LINE
  5
3DA
  8
0
  6
CONTINUOUS
 62
     3
 10
413.8791841810518
 20
7.301797422724476
 30
0.0
 11
419.3791876977261
 21
-2.224486803361501
 31
0.0
  0
LINE
  5
3DB
  8
0
  6
CONTINUOUS
 62
     3
 10
449.3862433189825
 20
27.80185223178684
 30
0.0
 11
454.8862439746335
 21
18.27557296113788
 31
0.0
  0
LINE
  5
3DC
  8
0
  6
CONTINUOUS
 62
     3
 10
511.7400773956322
 20
18.27549037012115
 30
0.0
 11
517.240081865981
 21
27.80177624801947
 31
0.0
  0
LINE
  5
3DD
  8
0
  6
CONTINUOUS
 62
     3
 10
547.2471297575987
 20
-2.224492251921205
 30
0.0
 11
552.7471265985521
 21
7.30178041147839
 31
0.0
  0
LINE
  5
3DE
  8
0
  6
CONTINUOUS
 62
     3
 10
469.3131344862174
 20
121.0386406227394
 30
0.0
 11
469.3131344862174
 21
68.1356903358742
 31
0.0
  0
LINE
  5
3DF
  8
0
  6
CONTINUOUS
 62
     3
 10
497.3131192274284
 20
121.0386406227394
 30
0.0
 11
497.3131192274284
 21
68.1356903358742
 31
0.0
  0
LINE
  5
3E0
  8
0
  6
CONTINUOUS
 62
     3
 10
469.3131344862174
 20
76.03864062273944
 30
0.0
 11
477.8131344862174
 21
76.03864062273944
 31
0.0
  0
LINE
  5
3E1
  8
0
  6
CONTINUOUS
 62
     3
 10
488.8131344862174
 20
76.03864062273944
 30
0.0
 11
497.3131192274284
 21
76.03864062273944
 31
0.0
  0
LINE
  5
3E2
  8
0
  6
CONTINUOUS
 62
     3
 10
477.8131344862174
 20
121.0386406227394
 30
0.0
 11
477.8131344862174
 21
113.5027443214699
 31
0.0
  0
LINE
  5
3E3
  8
0
  6
CONTINUOUS
 62
     3
 10
488.8131344862174
 20
121.0386406227394
 30
0.0
 11
488.8131344862174
 21
113.5027443214699
 31
0.0
  0
LINE
  5
3E4
  8
0
  6
CONTINUOUS
 62
     3
 10
477.8131344862174
 20
77.03864062273944
 30
0.0
 11
488.8131344862174
 21
77.03864062273944
 31
0.0
  0
LINE
  5
3E5
  8
0
  6
CONTINUOUS
 62
     3
 10
477.8131344862174
 20
118.0386406227394
 30
0.0
 11
488.8131344862174
 21
118.0386406227394
 31
0.0
  0
LINE
  5
3E6
  8
0
  6
CONTINUOUS
 62
     3
 10
477.8131344862174
 20
106.574536924009
 30
0.0
 11
477.8131344862174
 21
88.50273669207537
 31
0.0
  0
LINE
  5
3E7
  8
0
  6
CONTINUOUS
 62
     3
 10
488.8131344862174
 20
106.574536924009
 30
0.0
 11
488.8131344862174
 21
88.50273669207537
 31
0.0
  0
LINE
  5
3E8
  8
0
  6
CONTINUOUS
 62
     3
 10
488.8131344862174
 20
81.5745445534035
 30
0.0
 11
488.8131344862174
 21
76.03864062273944
 31
0.0
  0
LINE
  5
3E9
  8
0
  6
CONTINUOUS
 62
     3
 10
477.8131344862174
 20
81.5745445534035
 30
0.0
 11
477.8131344862174
 21
76.03864062273944
 31
0.0
  0
LINE
  5
3EA
  8
0
  6
CONTINUOUS
 62
     3
 10
476.3131344862174
 20
76.03864062273944
 30
0.0
 11
476.3131344862174
 21
74.31024706805194
 31
0.0
  0
LINE
  5
3EB
  8
0
  6
CONTINUOUS
 62
     3
 10
490.3131344862174
 20
76.03864062273944
 30
0.0
 11
490.3131344862174
 21
74.31024706805194
 31
0.0
  0
LINE
  5
3EC
  8
0
  6
CONTINUOUS
 62
     3
 10
455.3131344862175
 20
95.57453692400897
 30
0.0
 11
451.3131344862175
 21
95.57453692400897
 31
0.0
  0
LINE
  5
3ED
  8
0
  6
CONTINUOUS
 62
     3
 10
449.3131311132986
 20
99.0386356436584
 30
0.0
 11
451.3131315901358
 21
102.5027369582031
 31
0.0
  0
LINE
  5
3EE
  8
0
  6
CONTINUOUS
 62
     3
 10
451.313185778876
 20
95.57458206507774
 30
0.0
 11
449.3131867325503
 21
99.03868409487815
 31
0.0
  0
LINE
  5
3EF
  8
0
  6
CONTINUOUS
 62
     3
 10
457.3131496023573
 20
99.03863855496549
 30
0.0
 11
455.3131472181715
 21
95.57453819409513
 31
0.0
  0
LINE
  5
3F0
  8
0
  6
CONTINUOUS
 62
     3
 10
455.3131665504259
 20
102.5027749507072
 30
0.0
 11
457.3131651199144
 21
99.03867244406958
 31
0.0
  0
LINE
  5
3F1
  8
0
  6
CONTINUOUS
 62
     3
 10
451.3131344862175
 20
102.5027443214699
 30
0.0
 11
455.3131344862175
 21
102.5027443214699
 31
0.0
  0
LINE
  5
3F2
  8
0
  6
CONTINUOUS
 62
     3
 10
382.6196531440507
 20
-33.26257195728293
 30
0.0
 11
389.4953329798088
 21
-45.17159713598038
 31
0.0
  0
LINE
  5
3F3
  8
0
  6
CONTINUOUS
 62
     3
 10
380.5574507723606
 20
-43.69077677524247
 30
0.0
 11
382.3378808246923
 21
-46.77457166223776
 31
0.0
  0
LINE
  5
3F4
  8
0
  6
CONTINUOUS
 62
     3
 10
388.5574693760307
 20
-57.54722132668087
 30
0.0
 11
394.6196611384016
 21
-54.04721366748449
 31
0.0
  0
LINE
  5
3F5
  8
0
  6
CONTINUOUS
 62
     3
 10
380.557470482536
 20
-43.6907961782826
 30
0.0
 11
386.6196490304073
 21
-40.19079614848029
 31
0.0
  0
LINE
  5
3F6
  8
0
  6
CONTINUOUS
 62
     3
 10
380.5574601240348
 20
-43.69078290020978
 30
0.0
 11
380.5574601240348
 21
-48.00125348126447
 31
0.0
  0
LINE
  5
3F7
  8
0
  6
CONTINUOUS
 62
     3
 10
377.2287902383993
 20
-57.79471336123002
 30
0.0
 11
383.3324788332379
 21
-54.2707474972849
 31
0.0
  0
LINE
  5
3F8
  8
0
  6
CONTINUOUS
 62
     3
 10
374.6222105992019
 20
-53.41063407388428
 30
0.0
 11
380.7824655115253
 21
-49.85400963492043
 31
0.0
  0
LINE
  5
3F9
  8
0
  6
CONTINUOUS
 62
     3
 10
377.4329692549401
 20
-58.19644228022808
 30
0.0
 11
383.5574690348858
 21
-54.66046107428673
 31
0.0
  0
LINE
  5
3FA
  8
0
  6
CONTINUOUS
 62
     3
 10
374.3972230715107
 20
-53.02093657240486
 30
0.0
 11
380.5574796356466
 21
-49.46431117976675
 31
0.0
  0
LINE
  5
3FB
  8
0
  6
CONTINUOUS
 62
     3
 10
384.8931982292364
 20
-55.43164052970438
 30
0.0
 11
388.5574666537854
 21
-57.54720665726892
 31
0.0
  0
LINE
  5
3FC
  8
0
  6
CONTINUOUS
 62
     3
 10
386.7983248531227
 20
-54.50028628415653
 30
0.0
 11
388.5574498186861
 21
-57.54717968347082
 31
0.0
  0
LINE
  5
3FD
  8
0
  6
CONTINUOUS
 62
     3
 10
383.5574645799533
 20
-54.66041991872403
 30
0.0
 11
380.5574661296743
 21
-49.46427089290383
 31
0.0
  0
LINE
  5
3FE
  8
0
  6
CONTINUOUS
 62
     3
 10
391.4847027788401
 20
-49.39080758675276
 30
0.0
 11
389.0847028742075
 21
-45.23388638392179
 31
0.0
  0
LINE
  5
3FF
  8
0
  6
CONTINUOUS
 62
     3
 10
382.140934545185
 20
-47.45311923742948
 30
0.0
 11
380.6806019432361
 21
-48.29624277391174
 31
0.0
  0
LINE
  5
400
  8
0
  6
CONTINUOUS
 62
     3
 10
386.0909262422569
 20
-54.29470460785838
 30
0.0
 11
384.6305919884957
 21
-55.13782909801508
 31
0.0
  0
LINE
  5
401
  8
0
  6
CONTINUOUS
 62
     3
 10
389.9428463535766
 20
-51.32023123011818
 30
0.0
 11
386.6428524451721
 21
-45.60447490005272
 31
0.0
  0
LINE
  5
402
  8
0
  6
CONTINUOUS
 62
     3
 10
386.3518374599707
 20
-53.5004155775268
 30
0.0
 11
382.9592379497064
 21
-47.62426166197447
 31
0.0
  0
LINE
  5
403
  8
0
  6
CONTINUOUS
 62
     3
 10
384.9939611323281
 20
-52.67637515625775
 30
0.0
 11
383.7190527246332
 21
-53.41244396958992
 31
0.0
  0
LINE
  5
404
  8
0
  6
CONTINUOUS
 62
     3
 10
382.9939644530708
 20
-49.21227595324474
 30
0.0
 11
381.7190576971881
 21
-49.94834381290248
 31
0.0
  0
LINE
  5
405
  8
0
  6
CONTINUOUS
 62
     3
 10
386.6428579839232
 20
-45.60449246926892
 30
0.0
 11
389.0847167401354
 21
-45.23391495867209
 31
0.0
  0
LINE
  5
406
  8
0
  6
CONTINUOUS
 62
     3
 10
391.4847466511919
 20
-49.39083783064187
 30
0.0
 11
389.9428892596275
 21
-51.32025940945037
 31
0.0
  0
LINE
  5
407
  8
0
  6
CONTINUOUS
 62
     3
 10
388.7333625190063
 20
-51.2253400176831
 30
0.0
 11
386.0873451289915
 21
-46.64230408906457
 31
0.0
  0
LINE
  5
408
  8
0
  6
CONTINUOUS
 62
     3
 10
391.7440095479208
 20
-49.06641866753579
 30
0.0
 11
399.3189005876368
 21
-62.18651301060253
 31
0.0
  0
LINE
  5
409
  8
0
  6
CONTINUOUS
 62
     3
 10
450.0836661941946
 20
-10.47801109838473
 30
0.0
 11
452.0836661941946
 21
-13.94211265134798
 31
0.0
  0
LINE
  5
40A
  8
0
  6
CONTINUOUS
 62
     3
 10
450.083665186901
 20
-17.40623509442365
 30
0.0
 11
446.083665186901
 21
-17.40623509442365
 31
0.0
  0
LINE
  5
40B
  8
0
  6
CONTINUOUS
 62
     3
 10
452.0835977547092
 20
-13.9420921337048
 30
0.0
 11
450.0835968010349
 21
-17.4061932098309
 31
0.0
  0
LINE
  5
40C
  8
0
  6
CONTINUOUS
 62
     3
 10
446.0836575575065
 20
-10.4780906394676
 30
0.0
 11
450.0836575575065
 21
-10.4780906394676
 31
0.0
  0
LINE
  5
40D
  8
0
  6
CONTINUOUS
 62
     3
 10
444.0836242709054
 20
-13.94210505566069
 30
0.0
 11
446.0836257014169
 21
-10.47800421795317
 31
0.0
  0
LINE
  5
40E
  8
0
  6
CONTINUOUS
 62
     3
 10
446.0836626929956
 20
-17.40621635007845
 30
0.0
 11
444.0836626929956
 21
-13.9421147971152
 31
0.0
  0
LINE
  5
40F
  8
0
  6
CONTINUOUS
 62
     3
 10
550.5426194466752
 20
41.48352268427199
 30
0.0
 11
552.5426194466752
 21
38.01942113130873
 31
0.0
  0
LINE
  5
410
  8
0
  6
CONTINUOUS
 62
     3
 10
544.5426053031849
 20
38.01940523516079
 30
0.0
 11
546.5426053031849
 21
41.48350678812405
 31
0.0
  0
LINE
  5
411
  8
0
  6
CONTINUOUS
 62
     3
 10
546.5426114149284
 20
41.48343050921405
 30
0.0
 11
550.5426114149284
 21
41.48343050921405
 31
0.0
  0
LINE
  5
412
  8
0
  6
CONTINUOUS
 62
     3
 10
546.5426726181684
 20
34.55534134290703
 30
0.0
 11
544.5426726181684
 21
38.01944289587028
 31
0.0
  0
LINE
  5
413
  8
0
  6
CONTINUOUS
 62
     3
 10
550.5426114149284
 20
34.5552574440285
 30
0.0
 11
546.5426114149284
 21
34.5552574440285
 31
0.0
  0
LINE
  5
414
  8
0
  6
CONTINUOUS
 62
     3
 10
552.5426088043839
 20
38.01940308939358
 30
0.0
 11
550.5426088043839
 21
34.55530153643032
 31
0.0
  0
ARC
  5
415
  8
0
  6
CONTINUOUS
 62
     3
 10
483.3131344862174
 20
41.0386444374367
 30
0.0
 40
80.0
 50
0.0
 51
79.9213412142615
  0
CIRCLE
  5
416
  8
0
  6
CONTINUOUS
 62
     3
 10
437.9463894911003
 20
67.2311493202492
 30
0.0
 40
5.5
  0
CIRCLE
  5
417
  8
0
  6
CONTINUOUS
 62
     3
 10
528.6798642225456
 20
67.2311493202492
 30
0.0
 40
5.5
  0
CIRCLE
  5
418
  8
0
  6
CONTINUOUS
 62
     3
 10
483.3131344862174
 20
-11.34633671795881
 30
0.0
 40
8.5
  0
ARC
  5
419
  8
0
  6
CONTINUOUS
 62
     3
 10
483.3131344862174
 20
41.0386444374367
 30
0.0
 40
33.0
 50
115.1027440440267
 51
184.8972369834771
  0
ARC
  5
41A
  8
0
  6
CONTINUOUS
 62
     3
 10
483.3131344862174
 20
41.0386444374367
 30
0.0
 40
33.0
 50
235.1026963842833
 51
304.8972781161929
  0
ARC
  5
41B
  8
0
  6
CONTINUOUS
 62
     3
 10
483.3131344862174
 20
41.0386444374367
 30
0.0
 40
33.0
 50
355.1027266174573
 51
424.8972814554971
  0
ARC
  5
41C
  8
0
  6
CONTINUOUS
 62
     3
 10
483.3131344862174
 20
41.0386444374367
 30
0.0
 40
80.0
 50
100.0786774550732
 51
199.9213035724307
  0
ARC
  5
41D
  8
0
  6
CONTINUOUS
 62
     3
 10
483.3131344862174
 20
41.0386444374367
 30
0.0
 40
80.0
 50
220.078643455708
 51
319.9213447051465
  0
ARC
  5
41E
  8
0
  6
CONTINUOUS
 62
     3
 10
483.3131344862174
 20
41.0386444374367
 30
0.0
 40
80.0
 50
340.0786621629379
 51
360.0
  0
CIRCLE
  5
41F
  8
0
  6
CONTINUOUS
 62
     3
 10
483.3131344862174
 20
41.0386444374367
 30
0.0
 40
30.5
  0
ARC
  5
420
  8
0
  6
CONTINUOUS
 62
     3
 10
483.3131344862174
 20
41.0386444374367
 30
0.0
 40
78.5
 50
100.2733310162294
 51
199.7266431810853
  0
ARC
  5
421
  8
0
  6
CONTINUOUS
 62
     3
 10
483.3131344862174
 20
41.0386444374367
 30
0.0
 40
78.5
 50
220.2732901866751
 51
319.7266877288957
  0
ARC
  5
422
  8
0
  6
CONTINUOUS
 62
     3
 10
483.3131344862174
 20
41.0386444374367
 30
0.0
 40
78.5
 50
340.2733174316414
 51
439.7266876531053
  0
ARC
  5
423
  8
0
  6
CONTINUOUS
 62
     3
 10
483.3131344862174
 20
41.0386444374367
 30
0.0
 40
34.0
 50
65.68426268185517
 51
114.3157559874795
  0
CIRCLE
  5
424
  8
0
  6
CONTINUOUS
 62
     3
 10
483.3131344862174
 20
41.0386444374367
 30
0.0
 40
27.0
  0
ARC
  5
425
  8
0
  6
CONTINUOUS
 62
     3
 10
483.3131344862174
 20
41.0386444374367
 30
0.0
 40
34.0
 50
305.6842627576455
 51
354.3157445373257
  0
CIRCLE
  5
426
  8
0
  6
CONTINUOUS
 62
     3
 10
483.3131344862174
 20
3.038658742551448
 30
0.0
 40
2.5
  0
ARC
  5
427
  8
0
  6
CONTINUOUS
 62
     3
 10
483.3131344862174
 20
41.0386444374367
 30
0.0
 40
34.0
 50
185.6842423428683
 51
234.3157219881144
  0
CIRCLE
  5
428
  8
0
  6
CONTINUOUS
 62
     3
 10
528.6798642225456
 20
67.23113787615741
 30
0.0
 40
8.5
  0
CIRCLE
  5
429
  8
0
  6
CONTINUOUS
 62
     3
 10
437.9464123792839
 20
67.23117602313006
 30
0.0
 40
8.5
  0
CIRCLE
  5
42A
  8
0
  6
CONTINUOUS
 62
     3
 10
516.2220852918815
 20
60.03864062273944
 30
0.0
 40
2.5
  0
CIRCLE
  5
42B
  8
0
  6
CONTINUOUS
 62
     3
 10
450.4041913099479
 20
60.03867876971209
 30
0.0
 40
2.5
  0
CIRCLE
  5
42C
  8
0
  6
CONTINUOUS
 62
     3
 10
453.3131344862175
 20
99.03864062273944
 30
0.0
 40
8.0
  0
CIRCLE
  5
42D
  8
0
  6
CONTINUOUS
 62
     3
 10
453.3131344862175
 20
99.03864062273944
 30
0.0
 40
2.400000095367432
  0
CIRCLE
  5
42E
  8
0
  6
CONTINUOUS
 62
     3
 10
453.3131344862175
 20
99.03864062273944
 30
0.0
 40
0.75
  0
CIRCLE
  5
42F
  8
0
  6
CONTINUOUS
 62
     3
 10
453.3131344862175
 20
99.03864062273944
 30
0.0
 40
3.299999952316284
  0
ARC
  5
430
  8
0
  6
CONTINUOUS
 62
     3
 10
384.6555436201286
 20
-50.56235730206525
 30
0.0
 40
3.0
 50
209.9999889956806
 51
251.8103021508074
  0
ARC
  5
431
  8
0
  6
CONTINUOUS
 62
     3
 10
382.0574677534294
 20
-52.06235730206525
 30
0.0
 40
3.0
 50
348.1896876796993
 51
431.8102730088179
  0
ARC
  5
432
  8
0
  6
CONTINUOUS
 62
     3
 10
384.6555436201286
 20
-50.56235730206525
 30
0.0
 40
3.0
 50
168.1896653678989
 51
209.9999716928365
  0
ARC
  5
433
  8
0
  6
CONTINUOUS
 62
     3
 10
388.2928479261589
 20
-48.46235882794416
 30
0.0
 40
3.299999952316284
 50
282.3602834779813
 51
299.9999710095912
  0
ARC
  5
434
  8
0
  6
CONTINUOUS
 62
     3
 10
388.2928479261589
 20
-48.46235882794416
 30
0.0
 40
3.299999952316284
 50
119.9999760185474
 51
137.6396772105358
  0
ARC
  5
435
  8
0
  6
CONTINUOUS
 62
     3
 10
389.1084530897331
 20
-54.68407666241681
 30
0.0
 40
3.0
 50
92.10684948604951
 51
156.7619665845238
  0
ARC
  5
436
  8
0
  6
CONTINUOUS
 62
     3
 10
383.3124726362419
 20
-44.64513623272931
 30
0.0
 40
3.0
 50
263.2379941039932
 51
327.8898190512877
  0
ARC
  5
437
  8
0
  6
CONTINUOUS
 62
     3
 10
385.3455079145622
 20
-53.62810742413556
 30
0.0
 40
1.0
 50
50.71543866290875
 51
119.9999760185475
  0
ARC
  5
438
  8
0
  6
CONTINUOUS
 62
     3
 10
385.3455079145622
 20
-53.62810742413556
 30
0.0
 40
1.0
 50
318.1948641282641
 51
369.2845220256086
  0
ARC
  5
439
  8
0
  6
CONTINUOUS
 62
     3
 10
382.3455079145622
 20
-48.43195569073713
 30
0.0
 40
1.0
 50
299.9999710095911
 51
369.2845220256086
  0
ARC
  5
43A
  8
0
  6
CONTINUOUS
 62
     3
 10
382.3455079145622
 20
-48.43195569073713
 30
0.0
 40
1.0
 50
50.71543866290875
 51
101.8050897300639
  0
ARC
  5
43B
  8
0
  6
CONTINUOUS
 62
     3
 10
384.4260094709586
 20
-54.15898358380353
 30
0.0
 40
1.0
 50
209.9999889956806
 51
281.8051257022427
  0
ARC
  5
43C
  8
0
  6
CONTINUOUS
 62
     3
 10
381.4260056562614
 20
-48.96282803570783
 30
0.0
 40
1.0
 50
209.9999889956806
 51
299.9999710095911
  0
ARC
  5
43D
  8
0
  6
CONTINUOUS
 62
     3
 10
384.4260094709586
 20
-54.15898358380353
 30
0.0
 40
1.0
 50
119.9999760185475
 51
209.9999716928365
  0
ARC
  5
43E
  8
0
  6
CONTINUOUS
 62
     3
 10
381.4260056562614
 20
-48.96282803570783
 30
0.0
 40
1.0
 50
138.1948349862745
 51
209.9999716928365
  0
ARC
  5
43F
  8
0
  6
CONTINUOUS
 62
     3
 10
389.8708508558464
 20
-47.55129849469221
 30
0.0
 40
1.200000047683716
 50
323.4679614128107
 51
456.5320061058956
  0
CIRCLE
  5
440
  8
0
  6
CONTINUOUS
 62
     3
 10
448.083665186901
 20
-13.94211613690412
 30
0.0
 40
8.0
  0
CIRCLE
  5
441
  8
0
  6
CONTINUOUS
 62
     3
 10
448.083665186901
 20
-13.94211613690412
 30
0.0
 40
2.400000095367432
  0
CIRCLE
  5
442
  8
0
  6
CONTINUOUS
 62
     3
 10
448.083665186901
 20
-13.94211613690412
 30
0.0
 40
0.75
  0
CIRCLE
  5
443
  8
0
  6
CONTINUOUS
 62
     3
 10
448.083665186901
 20
-13.94211613690412
 30
0.0
 40
3.299999952316284
  0
CIRCLE
  5
444
  8
0
  6
CONTINUOUS
 62
     3
 10
548.5426114149284
 20
38.01940882647479
 30
0.0
 40
8.0
  0
CIRCLE
  5
445
  8
0
  6
CONTINUOUS
 62
     3
 10
548.5426114149284
 20
38.01940882647479
 30
0.0
 40
2.400000095367432
  0
CIRCLE
  5
446
  8
0
  6
CONTINUOUS
 62
     3
 10
548.5426114149284
 20
38.01940882647479
 30
0.0
 40
0.75
  0
CIRCLE
  5
447
  8
0
  6
CONTINUOUS
 62
     3
 10
548.5426114149284
 20
38.01940882647479
 30
0.0
 40
3.299999952316284
  0
CIRCLE
  5
448
  8
0
  6
CONTINUOUS
 62
     3
 10
483.3131344862174
 20
65.03871413115984
 30
0.0
 40
1.5
  0
CIRCLE
  5
449
  8
0
  6
CONTINUOUS
 62
     3
 10
460.3131344862174
 20
41.03871413115984
 30
0.0
 40
1.600000023841858
  0
CIRCLE
  5
44A
  8
0
  6
CONTINUOUS
 62
     3
 10
506.3131344862174
 20
41.03871413115984
 30
0.0
 40
1.600000023841858
  0
CIRCLE
  5
44B
  8
0
  6
CONTINUOUS
 62
     3
 10
504.0977745631634
 20
29.03876676161645
 30
0.0
 40
1.5
  0
CIRCLE
  5
44C
  8
0
  6
CONTINUOUS
 62
     3
 10
462.5285160229164
 20
29.03872932554425
 30
0.0
 40
1.5
  0
LINE
  5
44D
  8
0
  6
CONTINUOUS
 62
     3
 10
214.8131192274284
 20
121.0385785584108
 30
0.0
 11
214.8131192274284
 21
-5.846413087402155
 31
0.0
  0
LINE
  5
44E
  8
0
  6
CONTINUOUS
 62
     3
 10
284.3131344862175
 20
119.0385785584108
 30
0.0
 11
284.3131344862175
 21
118.2886853699343
 31
0.0
  0
LINE
  5
44F
  8
0
  6
CONTINUOUS
 62
     3
 10
214.8131192274284
 20
121.0385709290163
 30
0.0
 11
232.8131344862174
 21
121.0385709290163
 31
0.0
  0
LINE
  5
450
  8
0
  6
CONTINUOUS
 62
     3
 10
214.8131192274284
 20
-38.96142525628643
 30
0.0
 11
282.3131344862175
 21
-38.96142525628643
 31
0.0
  0
LINE
  5
451
  8
0
  6
CONTINUOUS
 62
     3
 10
283.3131326961027
 20
120.0385841282364
 30
0.0
 11
284.3131337576922
 21
119.0385830666469
 31
0.0
  0
LINE
  5
452
  8
0
  6
CONTINUOUS
 62
     3
 10
282.3131408176957
 20
-38.96143788701643
 30
0.0
 11
284.313134005735
 21
-36.96144840788379
 31
0.0
  0
LINE
  5
453
  8
0
  6
CONTINUOUS
 62
     3
 10
219.0131161756706
 20
111.0385785584108
 30
0.0
 11
219.0131161756706
 21
-6.346413087402155
 31
0.0
  0
LINE
  5
454
  8
0
  6
CONTINUOUS
 62
     3
 10
281.8131344862175
 20
70.92158179327412
 30
0.0
 11
281.8131344862175
 21
8.038585353340338
 31
0.0
  0
LINE
  5
455
  8
0
  6
CONTINUOUS
 62
     3
 10
232.8131344862174
 20
121.0385785584108
 30
0.0
 11
232.8131344862174
 21
105.1866574768679
 31
0.0
  0
LINE
  5
456
  8
0
  6
CONTINUOUS
 62
     3
 10
214.8131192274284
 20
-28.96140999749737
 30
0.0
 11
219.0131161756706
 21
-28.96140999749737
 31
0.0
  0
LINE
  5
457
  8
0
  6
CONTINUOUS
 62
     3
 10
214.8131192274284
 20
111.0385709290163
 30
0.0
 11
219.0131161756706
 21
111.0385709290163
 31
0.0
  0
LINE
  5
458
  8
0
  6
CONTINUOUS
 62
     3
 10
257.2131283827018
 20
79.0385709290163
 30
0.0
 11
263.2131283827018
 21
79.0385709290163
 31
0.0
  0
LINE
  5
459
  8
0
  6
CONTINUOUS
 62
     3
 10
257.2131283827018
 20
3.038589048828314
 30
0.0
 11
263.2131283827018
 21
3.038589048828314
 31
0.0
  0
LINE
  5
45A
  8
0
  6
CONTINUOUS
 62
     3
 10
263.2131283827018
 20
79.0385709290163
 30
0.0
 11
263.2131283827018
 21
71.53858618780537
 31
0.0
  0
LINE
  5
45B
  8
0
  6
CONTINUOUS
 62
     3
 10
257.2131283827018
 20
79.03858618780537
 30
0.0
 11
257.2131283827018
 21
71.53858618780537
 31
0.0
  0
LINE
  5
45C
  8
0
  6
CONTINUOUS
 62
     3
 10
281.8131344862175
 20
8.038589168037603
 30
0.0
 11
284.3131344862175
 21
8.038589168037603
 31
0.0
  0
LINE
  5
45D
  8
0
  6
CONTINUOUS
 62
     3
 10
219.0131161756706
 20
71.5385709290163
 30
0.0
 11
270.8131344862175
 21
71.5385709290163
 31
0.0
  0
LINE
  5
45E
  8
0
  6
CONTINUOUS
 62
     3
 10
219.0131161756706
 20
10.53858952566547
 30
0.0
 11
281.8131344862175
 21
10.53858952566547
 31
0.0
  0
LINE
  5
45F
  8
0
  6
CONTINUOUS
 62
     3
 10
257.2131283827018
 20
10.53858571096821
 30
0.0
 11
257.2131283827018
 21
3.038585234131048
 31
0.0
  0
LINE
  5
460
  8
0
  6
CONTINUOUS
 62
     3
 10
263.2131283827018
 20
10.53858571096821
 30
0.0
 11
263.2131283827018
 21
3.038585234131048
 31
0.0
  0
LINE
  5
461
  8
0
  6
CONTINUOUS
 62
     3
 10
232.8131344862174
 20
121.0385709290163
 30
0.0
 11
283.3131344862175
 21
121.0385709290163
 31
0.0
  0
LINE
  5
462
  8
0
  6
CONTINUOUS
 62
     3
 10
273.3131344862175
 20
-2.846413087402155
 30
0.0
 11
273.3131344862175
 21
-19.84641404107647
 31
0.0
  0
LINE
  5
463
  8
0
  6
CONTINUOUS
 62
     3
 10
269.3131344862175
 20
5.58858453079624
 30
0.0
 11
269.3131344862175
 21
0.4885864739076595
 31
0.0
  0
LINE
  5
464
  8
0
  6
CONTINUOUS
 62
     3
 10
269.3131344862175
 20
5.588592160190771
 30
0.0
 11
284.3131344862175
 21
5.588592160190771
 31
0.0
  0
LINE
  5
465
  8
0
  6
CONTINUOUS
 62
     3
 10
269.3131344862175
 20
0.4885864739076595
 30
0.0
 11
284.3131344862175
 21
0.4885864739076595
 31
0.0
  0
LINE
  5
466
  8
0
  6
CONTINUOUS
 62
     3
 10
273.3131344862175
 20
-2.846405458007624
 30
0.0
 11
284.3131344862175
 21
-2.846405458007624
 31
0.0
  0
LINE
  5
467
  8
0
  6
CONTINUOUS
 62
     3
 10
273.3131344862175
 20
-19.84640641168194
 30
0.0
 11
284.3131344862175
 21
-19.84640641168194
 31
0.0
  0
LINE
  5
468
  8
0
  6
CONTINUOUS
 62
     3
 10
267.8408658482033
 20
3.038601432313996
 30
0.0
 11
269.3131102864038
 21
5.588603250686035
 31
0.0
  0
LINE
  5
469
  8
0
  6
CONTINUOUS
 62
     3
 10
267.8408678887438
 20
3.038583250740928
 30
0.0
 11
269.3131123269443
 21
0.4885814323688891
 31
0.0
  0
LINE
  5
46A
  8
0
  6
CONTINUOUS
 62
     3
 10
231.3131344862174
 20
71.03858618780537
 30
0.0
 11
231.3131344862174
 21
11.03858571096821
 31
0.0
  0
LINE
  5
46B
  8
0
  6
CONTINUOUS
 62
     3
 10
271.3131344862175
 20
71.03858618780537
 30
0.0
 11
271.3131344862175
 21
11.03858571096821
 31
0.0
  0
LINE
  5
46C
  8
0
  6
CONTINUOUS
 62
     3
 10
262.3131344862175
 20
68.28859000250263
 30
0.0
 11
262.3131344862175
 21
13.78858571096821
 31
0.0
  0
LINE
  5
46D
  8
0
  6
CONTINUOUS
 62
     3
 10
261.3131344862175
 20
68.28859000250263
 30
0.0
 11
261.3131344862175
 21
30.76933341070576
 31
0.0
  0
LINE
  5
46E
  8
0
  6
CONTINUOUS
 62
     3
 10
254.3131344862174
 20
66.28857474371357
 30
0.0
 11
254.3131344862174
 21
15.78858904882831
 31
0.0
  0
LINE
  5
46F
  8
0
  6
CONTINUOUS
 62
     3
 10
231.3131344862174
 20
20.038588095154
 30
0.0
 11
254.3131344862174
 21
20.038588095154
 31
0.0
  0
LINE
  5
470
  8
0
  6
CONTINUOUS
 62
     3
 10
231.3131344862174
 20
62.03857474371357
 30
0.0
 11
254.3131344862174
 21
62.03857474371357
 31
0.0
  0
LINE
  5
471
  8
0
  6
CONTINUOUS
 62
     3
 10
254.3131344862174
 20
66.28857474371357
 30
0.0
 11
261.3131344862175
 21
66.28857474371357
 31
0.0
  0
LINE
  5
472
  8
0
  6
CONTINUOUS
 62
     3
 10
254.3131344862174
 20
15.78858904882831
 30
0.0
 11
261.3131344862175
 21
15.78858904882831
 31
0.0
  0
LINE
  5
473
  8
0
  6
CONTINUOUS
 62
     3
 10
231.3131638101929
 20
71.03857526872302
 30
0.0
 11
231.8131643409876
 21
71.53857579951777
 31
0.0
  0
LINE
  5
474
  8
0
  6
CONTINUOUS
 62
     3
 10
231.3131265451645
 20
11.03860504606523
 30
0.0
 11
231.8131086579431
 21
10.53860767644032
 31
0.0
  0
LINE
  5
475
  8
0
  6
CONTINUOUS
 62
     3
 10
271.3131496284095
 20
11.03861677188506
 30
0.0
 11
270.8131490976148
 21
10.53861624109031
 31
0.0
  0
LINE
  5
476
  8
0
  6
CONTINUOUS
 62
     3
 10
271.3131388388165
 20
71.0385833609178
 30
0.0
 11
270.8131383080217
 21
71.53858389171255
 31
0.0
  0
LINE
  5
477
  8
0
  6
CONTINUOUS
 62
     3
 10
262.3131344862175
 20
68.03857474371357
 30
0.0
 11
271.3131344862175
 21
68.03857474371357
 31
0.0
  0
LINE
  5
478
  8
0
  6
CONTINUOUS
 62
     3
 10
262.3131344862175
 20
14.03858952566547
 30
0.0
 11
271.3131344862175
 21
14.03858952566547
 31
0.0
  0
LINE
  5
479
  8
0
  6
CONTINUOUS
 62
     3
 10
261.3131344862175
 20
68.28857474371357
 30
0.0
 11
262.3131344862175
 21
68.28857474371357
 31
0.0
  0
LINE
  5
47A
  8
0
  6
CONTINUOUS
 62
     3
 10
261.3131344862175
 20
13.78858952566547
 30
0.0
 11
262.3131344862175
 21
13.78858952566547
 31
0.0
  0
LINE
  5
47B
  8
0
  6
CONTINUOUS
 62
     3
 10
262.3131344862175
 20
20.038588095154
 30
0.0
 11
271.3131344862175
 21
20.038588095154
 31
0.0
  0
LINE
  5
47C
  8
0
  6
CONTINUOUS
 62
     3
 10
257.213107862759
 20
75.00267847101922
 30
0.0
 11
259.2131042864799
 21
71.53858352530533
 31
0.0
  0
LINE
  5
47D
  8
0
  6
CONTINUOUS
 62
     3
 10
257.2131029161067
 20
7.074486973058853
 30
0.0
 11
259.213106969223
 21
10.53859513327147
 31
0.0
  0
LINE
  5
47E
  8
0
  6
CONTINUOUS
 62
     3
 10
276.3131344862175
 20
121.0385785584108
 30
0.0
 11
276.3131344862175
 21
118.0385785584108
 31
0.0
  0
LINE
  5
47F
  8
0
  6
CONTINUOUS
 62
     3
 10
269.3131344862175
 20
121.0385785584108
 30
0.0
 11
269.3131344862175
 21
71.53858618780537
 31
0.0
  0
LINE
  5
480
  8
0
  6
CONTINUOUS
 62
     3
 10
270.5131314344596
 20
77.0385709290163
 30
0.0
 11
284.3131344862175
 21
77.0385709290163
 31
0.0
  0
LINE
  5
481
  8
0
  6
CONTINUOUS
 62
     3
 10
270.5131314344596
 20
76.03857855841083
 30
0.0
 11
270.5131314344596
 21
71.53858618780537
 31
0.0
  0
LINE
  5
482
  8
0
  6
CONTINUOUS
 62
     3
 10
263.2131283827018
 20
73.68441443487568
 30
0.0
 11
269.3131344862175
 21
73.68441443487568
 31
0.0
  0
LINE
  5
483
  8
0
  6
CONTINUOUS
 62
     3
 10
270.3131344862175
 20
118.0385785584108
 30
0.0
 11
270.3131344862175
 21
77.0385709290163
 31
0.0
  0
LINE
  5
484
  8
0
  6
CONTINUOUS
 62
     3
 10
270.3131344862175
 20
118.0385709290163
 30
0.0
 11
284.3131344862175
 21
118.0385709290163
 31
0.0
  0
LINE
  5
485
  8
0
  6
CONTINUOUS
 62
     3
 10
284.3131344862175
 20
118.0385785584108
 30
0.0
 11
284.3131344862175
 21
114.0385785584108
 31
0.0
  0
LINE
  5
486
  8
0
  6
CONTINUOUS
 62
     3
 10
284.3131344862175
 20
106.0385709290163
 30
0.0
 11
284.3131344862175
 21
89.03857855841083
 31
0.0
  0
LINE
  5
487
  8
0
  6
CONTINUOUS
 62
     3
 10
284.3131344862175
 20
76.03857855841083
 30
0.0
 11
284.3131344862175
 21
-36.96142144158917
 31
0.0
  0
LINE
  5
488
  8
0
  6
CONTINUOUS
 62
     3
 10
284.3131344862175
 20
81.03857855841083
 30
0.0
 11
284.3131344862175
 21
77.03857855841083
 31
0.0
  0
LINE
  5
489
  8
0
  6
CONTINUOUS
 62
     3
 10
270.3131344862175
 20
81.0385709290163
 30
0.0
 11
291.3131344862175
 21
81.0385709290163
 31
0.0
  0
LINE
  5
48A
  8
0
  6
CONTINUOUS
 62
     3
 10
270.3131344862175
 20
89.0385709290163
 30
0.0
 11
291.3131344862175
 21
89.0385709290163
 31
0.0
  0
LINE
  5
48B
  8
0
  6
CONTINUOUS
 62
     3
 10
270.3131344862175
 20
114.0385709290163
 30
0.0
 11
291.3131344862175
 21
114.0385709290163
 31
0.0
  0
LINE
  5
48C
  8
0
  6
CONTINUOUS
 62
     3
 10
270.3131344862175
 20
106.0385709290163
 30
0.0
 11
291.3131344862175
 21
106.0385709290163
 31
0.0
  0
LINE
  5
48D
  8
0
  6
CONTINUOUS
 62
     3
 10
291.3131344862175
 20
91.53857855841083
 30
0.0
 11
291.3131344862175
 21
78.53857855841083
 31
0.0
  0
LINE
  5
48E
  8
0
  6
CONTINUOUS
 62
     3
 10
291.3131344862175
 20
116.5385785584108
 30
0.0
 11
291.3131344862175
 21
103.5385785584108
 31
0.0
  0
LINE
  5
48F
  8
0
  6
CONTINUOUS
 62
     3
 10
299.3131344862175
 20
91.53857855841083
 30
0.0
 11
299.3131344862175
 21
78.53857855841083
 31
0.0
  0
LINE
  5
490
  8
0
  6
CONTINUOUS
 62
     3
 10
299.3131344862175
 20
116.5385785584108
 30
0.0
 11
299.3131344862175
 21
103.5385785584108
 31
0.0
  0
LINE
  5
491
  8
0
  6
CONTINUOUS
 62
     3
 10
291.3131344862175
 20
103.5385709290163
 30
0.0
 11
299.3131344862175
 21
103.5385709290163
 31
0.0
  0
LINE
  5
492
  8
0
  6
CONTINUOUS
 62
     3
 10
291.3131344862175
 20
116.5385709290163
 30
0.0
 11
299.3131344862175
 21
116.5385709290163
 31
0.0
  0
LINE
  5
493
  8
0
  6
CONTINUOUS
 62
     3
 10
291.3131344862175
 20
78.5385709290163
 30
0.0
 11
299.3131344862175
 21
78.5385709290163
 31
0.0
  0
LINE
  5
494
  8
0
  6
CONTINUOUS
 62
     3
 10
291.3131344862175
 20
91.5385709290163
 30
0.0
 11
299.3131344862175
 21
91.5385709290163
 31
0.0
  0
LINE
  5
495
  8
0
  6
CONTINUOUS
 62
     3
 10
273.3131344862175
 20
89.03857855841083
 30
0.0
 11
273.3131344862175
 21
81.03857855841083
 31
0.0
  0
LINE
  5
496
  8
0
  6
CONTINUOUS
 62
     3
 10
273.3131344862175
 20
114.0385785584108
 30
0.0
 11
273.3131344862175
 21
106.0385785584108
 31
0.0
  0
LINE
  5
497
  8
0
  6
CONTINUOUS
 62
     3
 10
270.5131314344596
 20
76.0385709290163
 30
0.0
 11
283.3131344862175
 21
76.0385709290163
 31
0.0
  0
LINE
  5
498
  8
0
  6
CONTINUOUS
 62
     3
 10
276.3131344862175
 20
77.03857855841083
 30
0.0
 11
276.3131344862175
 21
76.03857855841083
 31
0.0
  0
LINE
  5
499
  8
0
  6
CONTINUOUS
 62
     3
 10
203.3131192274284
 20
-6.346413087402155
 30
0.0
 11
203.3131192274284
 21
-16.34641404107647
 31
0.0
  0
LINE
  5
49A
  8
0
  6
CONTINUOUS
 62
     3
 10
283.3131344862175
 20
-3.346413087402155
 30
0.0
 11
283.3131344862175
 21
-19.34641404107647
 31
0.0
  0
LINE
  5
49B
  8
0
  6
CONTINUOUS
 62
     3
 10
203.3131192274284
 20
-6.346405458007624
 30
0.0
 11
273.3131344862175
 21
-6.346405458007624
 31
0.0
  0
LINE
  5
49C
  8
0
  6
CONTINUOUS
 62
     3
 10
203.3131192274284
 20
-16.34640641168194
 30
0.0
 11
273.3131344862175
 21
-16.34640641168194
 31
0.0
  0
LINE
  5
49D
  8
0
  6
CONTINUOUS
 62
     3
 10
273.3131344862175
 20
-19.34640641168194
 30
0.0
 11
283.3131344862175
 21
-19.34640641168194
 31
0.0
  0
LINE
  5
49E
  8
0
  6
CONTINUOUS
 62
     3
 10
273.3131344862175
 20
-3.346405458007624
 30
0.0
 11
283.3131344862175
 21
-3.346405458007624
 31
0.0
  0
LINE
  5
49F
  8
0
  6
CONTINUOUS
 62
     3
 10
214.8131192274284
 20
-16.84641404107647
 30
0.0
 11
214.8131192274284
 21
-38.9614176268919
 31
0.0
  0
LINE
  5
4A0
  8
0
  6
CONTINUOUS
 62
     3
 10
219.0131161756706
 20
-16.34641404107647
 30
0.0
 11
219.0131161756706
 21
-28.96141381219464
 31
0.0
  0
LINE
  5
4A1
  8
0
  6
CONTINUOUS
 62
     3
 10
281.8131344862175
 20
70.92156653448505
 30
0.0
 11
284.3131344862175
 21
70.92156653448505
 31
0.0
  0
LINE
  5
4A2
  8
0
  6
CONTINUOUS
 62
     3
 10
273.0676205702018
 20
68.42157034918232
 30
0.0
 11
281.8131344862175
 21
68.42157034918232
 31
0.0
  0
LINE
  5
4A3
  8
0
  6
CONTINUOUS
 62
     3
 10
261.3131344862175
 20
25.33578352972431
 30
0.0
 11
261.3131344862175
 21
13.78858571096821
 31
0.0
  0
LINE
  5
4A4
  8
0
  6
CONTINUOUS
 62
     3
 10
270.3131344862175
 20
77.03856329962177
 30
0.0
 11
284.3131344862175
 21
77.03856329962177
 31
0.0
  0
LINE
  5
4A5
  8
0
  6
CONTINUOUS
 62
     3
 10
262.3131344862175
 20
63.0385709290163
 30
0.0
 11
270.3131344862175
 21
63.0385709290163
 31
0.0
  0
LINE
  5
4A6
  8
0
  6
CONTINUOUS
 62
     3
 10
262.3131344862175
 20
67.0385709290163
 30
0.0
 11
270.3131344862175
 21
67.0385709290163
 31
0.0
  0
LINE
  5
4A7
  8
0
  6
CONTINUOUS
 62
     3
 10
266.3131344862175
 20
67.0385709290163
 30
0.0
 11
266.3131344862175
 21
63.0385709290163
 31
0.0
  0
LINE
  5
4A8
  8
0
  6
CONTINUOUS
 62
     3
 10
270.3131344862175
 20
67.0385709290163
 30
0.0
 11
270.3131344862175
 21
63.0385709290163
 31
0.0
  0
LINE
  5
4A9
  8
0
  6
CONTINUOUS
 62
     3
 10
270.3131344862175
 20
66.5385709290163
 30
0.0
 11
271.3131344862175
 21
66.5385709290163
 31
0.0
  0
LINE
  5
4AA
  8
0
  6
CONTINUOUS
 62
     3
 10
270.3131344862175
 20
63.5385709290163
 30
0.0
 11
271.3131344862175
 21
63.5385709290163
 31
0.0
  0
LINE
  5
4AB
  8
0
  6
CONTINUOUS
 62
     3
 10
266.313133530869
 20
66.2885723927764
 30
0.0
 11
267.0631343270611
 21
67.03857318896853
 31
0.0
  0
LINE
  5
4AC
  8
0
  6
CONTINUOUS
 62
     3
 10
266.3131348795681
 20
63.78857108750178
 30
0.0
 11
267.0631356757602
 21
63.03857029130965
 31
0.0
  0
LINE
  5
4AD
  8
0
  6
CONTINUOUS
 62
     3
 10
267.0631344862175
 20
67.0385709290163
 30
0.0
 11
267.0631344862175
 21
63.0385709290163
 31
0.0
  0
LINE
  5
4AE
  8
0
  6
CONTINUOUS
 62
     3
 10
262.3131346793075
 20
66.03857212737903
 30
0.0
 11
263.3131343921979
 21
67.0385718402694
 31
0.0
  0
LINE
  5
4AF
  8
0
  6
CONTINUOUS
 62
     3
 10
262.3131360280066
 20
64.03857135289915
 30
0.0
 11
263.3131370895961
 21
63.03857029130965
 31
0.0
  0
LINE
  5
4B0
  8
0
  6
CONTINUOUS
 62
     3
 10
263.3131344862175
 20
67.0385709290163
 30
0.0
 11
263.3131344862175
 21
63.0385709290163
 31
0.0
  0
LINE
  5
4B1
  8
0
  6
CONTINUOUS
 62
     3
 10
262.3131344862175
 20
62.03856139227314
 30
0.0
 11
271.3131344862175
 21
62.03856139227314
 31
0.0
  0
LINE
  5
4B2
  8
0
  6
CONTINUOUS
 62
     6
 10
261.7333850904862
 20
-140.2962159138839
 30
0.0
 11
407.7021274610917
 21
-140.2962159138839
 31
0.0
  0
LINE
  5
4B3
  8
0
  6
CONTINUOUS
 62
     6
 10
261.7333850904862
 20
-133.2762116414229
 30
0.0
 11
407.7021274610917
 21
-133.2762116414229
 31
0.0
  0
LINE
  5
4B4
  8
0
  6
CONTINUOUS
 62
     6
 10
261.7333850904862
 20
-126.256222627751
 30
0.0
 11
407.7021274610917
 21
-126.256222627751
 31
0.0
  0
LINE
  5
4B5
  8
0
  6
CONTINUOUS
 62
     6
 10
261.7333850904862
 20
-119.2362259846846
 30
0.0
 11
407.7021274610917
 21
-119.2362259846846
 31
0.0
  0
LINE
  5
4B6
  8
0
  6
CONTINUOUS
 62
     6
 10
261.7333850904862
 20
-112.2162217122237
 30
0.0
 11
283.3702716871659
 21
-112.2162217122237
 31
0.0
  0
LINE
  5
4B7
  8
0
  6
CONTINUOUS
 62
     6
 10
261.7333850904862
 20
-147.3162201863448
 30
0.0
 11
407.7021274610917
 21
-147.3162201863448
 31
0.0
  0
LINE
  5
4B8
  8
0
  6
CONTINUOUS
 62
     6
 10
261.7333850904862
 20
-154.3362244588057
 30
0.0
 11
407.7021274610917
 21
-154.3362244588057
 31
0.0
  0
LINE
  5
4B9
  8
0
  6
CONTINUOUS
 62
     6
 10
261.7333850904862
 20
-161.3562287312667
 30
0.0
 11
407.7021274610917
 21
-161.3562287312667
 31
0.0
  0
LINE
  5
4BA
  8
0
  6
CONTINUOUS
 62
     6
 10
261.7333850904862
 20
-175.3962220173995
 30
0.0
 11
407.7021274610917
 21
-175.3962220173995
 31
0.0
  0
LINE
  5
4BB
  8
0
  6
CONTINUOUS
 62
     6
 10
261.7333850904862
 20
-168.3762177449385
 30
0.0
 11
407.7021274610917
 21
-168.3762177449385
 31
0.0
  0
TEXT
  5
4BC
  8
0
 62
     6
 10
264.1006543680588
 20
-110.5262271386306
 30
0.0
 40
3.639999866485596
  1
仕  様
 41
0.7329106579468347
  7
FDASTYLE1
 72
     5
 11
275.8389510351772
 21
-110.5262271386306
 31
0.0
  0
TEXT
  5
4BD
  8
0
 62
     6
 10
264.0417139574448
 20
-117.5462161523024
 30
0.0
 40
3.639999866485596
  1
爪ノｽﾄﾛ-ｸ           
 41
0.7503026754553924
  7
FDASTYLE1
 72
     5
 11
314.2939841055028
 21
-117.5462161523024
 31
0.0
  0
TEXT
  5
4BE
  8
0
 62
     6
 10
347.4864141240279
 20
-117.0912161689917
 30
0.0
 40
2.729999899864197
  1
（直径ﾆﾃ）
 41
0.727163724738221
  7
FDASTYLE1
 72
     5
 11
360.9854810149254
 21
-117.0912161689917
 31
0.0
  0
TEXT
  5
4BF
  8
0
 62
     6
 10
368.5549565001885
 20
-117.5462161523024
 30
0.0
 40
3.639999866485596
  1
   12 mm
 41
0.6163867609777205
  7
FDASTYLE1
 72
     5
 11
386.5041383214876
 21
-117.5462161523024
 31
0.0
  0
TEXT
  5
4C0
  8
0
 62
     6
 10
264.0687199875275
 20
-124.5662204247634
 30
0.0
 40
3.639999866485596
  1
ピｽﾄﾝｽﾄﾛ-ｸ                 20 mm
 41
0.7426393756949073
  7
FDASTYLE1
 72
     5
 11
348.4087855128715
 21
-124.5662204247634
 31
0.0
  0
TEXT
  5
4C1
  8
0
 62
     6
 10
264.0687199875275
 20
-131.5862170678298
 30
0.0
 40
3.639999866485596
  1
推奨ｼﾘﾝダ　              ３６TＳ-ＴA1 型
 41
0.7237864502234213
  7
FDASTYLE1
 72
     5
 11
350.4830286829442
 21
-131.5862170678298
 31
0.0
  0
TEXT
  5
4C2
  8
0
 62
     6
 10
264.1325386806885
 20
-138.6062213402907
 30
0.0
 40
3.639999866485596
  1
許容ｼﾘﾝダ力 
 41
0.7005465023337183
  7
FDASTYLE1
 72
     5
 11
286.5724434203514
 21
-138.6062213402907
 31
0.0
  0
TEXT
  5
4C3
  8
0
 62
     6
 10
301.4787302742276
 20
-138.3190139757902
 30
0.0
 40
2.729999899864197
  1
３６TＳ-ＴA1型引側使用圧 3.3ＭＰａ
 41
0.6812923504150389
  7
FDASTYLE1
 72
     5
 11
345.3730322167343
 21
-138.3190139757902
 31
0.0
  0
TEXT
  5
4C4
  8
0
 62
     6
 10
369.5099104687134
 20
-138.6062213402907
 30
0.0
 40
3.639999866485596
  1
 18.7 ｋN
 41
0.7294262107847832
  7
FDASTYLE1
 72
     5
 11
391.2818232096286
 21
-138.6062213402907
 31
0.0
  0
TEXT
  5
4C5
  8
0
 62
     6
 10
264.0687199875275
 20
-145.6262256127517
 30
0.0
 40
3.639999866485596
  1
最大静的把握力                 36.8 ｋN
 41
0.7261129987687567
  7
FDASTYLE1
 72
     5
 11
350.2321897129659
 21
-145.6262256127517
 31
0.0
  0
TEXT
  5
4C6
  8
0
 62
     6
 10
264.1201773926179
 20
-152.6462146264235
 30
0.0
 40
3.639999866485596
  1
最高使用回転速度               4500 min
 41
0.7086221866192416
  7
FDASTYLE1
 72
     5
 11
348.2081174612762
 21
-152.6462146264235
 31
0.0
  0
TEXT
  5
4C7
  8
0
 62
     6
 10
400.9894836291234
 20
-150.0562145334403
 30
0.0
 40
1.819999933242798
  1
-1
 41
0.6976114058651127
  7
FDASTYLE1
 72
     5
 11
403.5287890533312
 21
-150.0562145334403
 31
0.0
  0
TEXT
  5
4C8
  8
0
 62
     6
 10
264.0948607965867
 20
-159.6662188988845
 30
0.0
 40
3.639999866485596
  1
慣性モーメント              0.035 kg・m
 41
0.7172609819811083
  7
FDASTYLE1
 72
     5
 11
349.2079148404646
 21
-159.6662188988845
 31
0.0
  0
TEXT
  5
4C9
  8
0
 62
     6
 10
403.156577651159
 20
-157.0762188059012
 30
0.0
 40
1.819999933242798
  1
2
 41
0.5882030220735002
  7
FDASTYLE1
 72
     5
 11
404.2271071120659
 21
-157.0762188059012
 31
0.0
  0
TEXT
  5
4CA
  8
0
 62
     6
 10
264.0687199875275
 20
-173.7062274438063
 30
0.0
 40
3.639999866485596
  1
ｱﾝバﾗﾝｽ量              
 41
0.740745634253834
  7
FDASTYLE1
 72
     5
 11
321.7698397968997
 21
-173.7062274438063
 31
0.0
  0
TEXT
  5
4CB
  8
0
 62
     6
 10
359.8632661893527
 20
-173.2512274604956
 30
0.0
 40
2.729999899864197
  1
外周ﾆﾃ
 41
0.7454882900051855
  7
FDASTYLE1
 72
     5
 11
368.8180712004346
 21
-173.2512274604956
 31
0.0
  0
TEXT
  5
4CC
  8
0
 62
     6
 10
373.7347079559723
 20
-173.7062274438063
 30
0.0
 40
3.639999866485596
  1
  3g 以内
 41
0.7433712069907698
  7
FDASTYLE1
 72
     5
 11
393.7581540530201
 21
-173.7062274438063
 31
0.0
  0
TEXT
  5
4CD
  8
0
 62
     6
 10
264.0687199875275
 20
-166.6862231713454
 30
0.0
 40
3.639999866485596
  1
質 量                       10 kg
 41
0.7402536640055279
  7
FDASTYLE1
 72
     5
 11
348.6767496652992
 21
-166.6862231713454
 31
0.0
  0
LINE
  5
4CE
  8
0
  6
CENTER
 62
     7
 10
394.2408612318229
 20
41.0386444374367
 30
0.0
 11
572.1936581678581
 21
41.0386444374367
 31
0.0
  0
LINE
  5
4CF
  8
0
  6
CENTER
 62
     7
 10
426.1949246473503
 20
99.03864062273944
 30
0.0
 11
465.4672711439323
 21
99.03864062273944
 31
0.0
  0
LINE
  5
4D0
  8
0
  6
CENTER
 62
     7
 10
408.7032003809006
 20
-2.037432697091262
 30
0.0
 11
483.3131671895596
 21
41.03864696498842
 31
0.0
  0
LINE
  5
4D1
  8
0
  6
CENTER
 62
     7
 10
426.6880849173997
 20
73.73119813066377
 30
0.0
 11
455.9989551178826
 21
56.80856119987847
 31
0.0
  0
LINE
  5
4D2
  8
0
  6
CENTER
 62
     7
 10
538.2711608126913
 20
-1.771295246152462
 30
0.0
 11
548.0484790253574
 21
15.16351433721731
 31
0.0
  0
LINE
  5
4D3
  8
0
  6
CENTER
 62
     7
 10
516.6245350800884
 20
10.73558895350563
 30
0.0
 11
526.3033616123123
 21
27.49980596562456
 31
0.0
  0
LINE
  5
4D4
  8
0
  6
CENTER
 62
     7
 10
440.3332377127015
 20
27.4820408428982
 30
0.0
 11
449.9906351804812
 21
10.75494005406451
 31
0.0
  0
LINE
  5
4D5
  8
0
  6
CENTER
 62
     7
 10
418.5773808031843
 20
15.16428190093212
 30
0.0
 11
428.4239338721263
 21
-1.890445954714537
 31
0.0
  0
LINE
  5
4D6
  8
0
  6
CENTER
 62
     7
 10
473.8615887708854
 20
85.03864062273944
 30
0.0
 11
493.1949246473503
 21
85.03864062273944
 31
0.0
  0
LINE
  5
4D7
  8
0
  6
CENTER
 62
     7
 10
473.5282528944206
 20
110.0386406227394
 30
0.0
 11
493.5282528944206
 21
110.0386406227394
 31
0.0
  0
LINE
  5
4D8
  8
0
  6
CENTER
 62
     7
 10
483.3132564799273
 20
41.03864369806639
 30
0.0
 11
561.0072793741931
 21
-3.818016378512297
 31
0.0
  0
LINE
  5
4D9
  8
0
  6
CENTER
 62
     7
 10
510.6307754801371
 20
56.81047372266814
 30
0.0
 11
557.9345304693125
 21
84.121306381995
 31
0.0
  0
LINE
  5
4DA
  8
0
  6
CENTER
 62
     7
 10
453.3131344862175
 20
110.8759285255715
 30
0.0
 11
453.3131344862175
 21
87.2288414284035
 31
0.0
  0
LINE
  5
4DB
  8
0
  6
CENTER
 62
     7
 10
372.8812354137667
 20
-57.36027633868126
 30
0.0
 11
396.6874480446877
 21
-43.61575458635493
 31
0.0
  0
LINE
  5
4DC
  8
0
  6
CENTER
 62
     7
 10
453.5443921352455
 20
-23.40037136270938
 30
0.0
 11
442.0065942073891
 21
-3.416319502877499
 31
0.0
  0
LINE
  5
4DD
  8
0
  6
CENTER
 62
     7
 10
437.9922539206038
 20
-19.76839241075503
 30
0.0
 11
458.3112503759159
 21
-8.037214127063621
 31
0.0
  0
LINE
  5
4DE
  8
0
  6
CENTER
 62
     7
 10
558.7939989055528
 20
32.10076021086117
 30
0.0
 11
538.3150145142142
 21
43.92430757414242
 31
0.0
  0
LINE
  5
4DF
  8
0
  6
CENTER
 62
     7
 10
553.9726427133808
 20
47.42451690159261
 30
0.0
 11
542.4655321176776
 21
27.49361705924504
 31
0.0
  0
ARC
  5
4E0
  8
0
  6
CENTER
 62
     7
 10
483.3131344862174
 20
41.0386444374367
 30
0.0
 40
52.3849983215332
 50
15.74457982940363
 51
44.25540817987017
  0
ARC
  5
4E1
  8
0
  6
CENTER
 62
     7
 10
483.3131344862174
 20
41.0386444374367
 30
0.0
 40
52.3849983215332
 50
135.7445592630457
 51
164.2553944437015
  0
ARC
  5
4E2
  8
0
  6
CENTER
 62
     7
 10
483.3131344862174
 20
41.0386444374367
 30
0.0
 40
52.3849983215332
 50
256.4865706754891
 51
283.754529993256
  0
ARC
  5
4E3
  8
0
  6
CENTER
 62
     7
 10
483.3131344862174
 20
41.0386444374367
 30
0.0
 40
38.0
 50
140.2687672862355
 51
158.5120932763128
  0
ARC
  5
4E4
  8
0
  6
CENTER
 62
     7
 10
483.3131344862174
 20
41.0386444374367
 30
0.0
 40
38.0
 50
260.3795531061538
 51
279.4814953466043
  0
ARC
  5
4E5
  8
0
  6
CENTER
 62
     7
 10
483.3131344862174
 20
41.0386444374367
 30
0.0
 40
38.0
 50
21.93431582132261
 51
39.54982789836532
  0
LINE
  5
4E6
  8
0
  6
CENTER
 62
     7
 10
460.3131344862174
 20
44.90600462798601
 30
0.0
 11
460.3131344862174
 21
37.07267256621843
 31
0.0
  0
LINE
  5
4E7
  8
0
  6
CENTER
 62
     7
 10
506.3131344862174
 20
44.73934050445085
 30
0.0
 11
506.3131344862174
 21
36.90600462798601
 31
0.0
  0
LINE
  5
4E8
  8
0
  6
CENTER
 62
     7
 10
209.5174191541862
 20
41.03857474371357
 30
0.0
 11
287.1858609582305
 21
41.03857474371357
 31
0.0
  0
LINE
  5
4E9
  8
0
  6
CENTER
 62
     7
 10
198.0211728162956
 20
-11.34640641168194
 30
0.0
 11
289.1042798109245
 21
-11.34640641168194
 31
0.0
  0
LINE
  5
4EA
  8
0
  6
CENTER
 62
     7
 10
264.8681271619987
 20
3.038589048828314
 30
0.0
 11
288.5632947035026
 21
3.038589048828314
 31
0.0
  0
LINE
  5
4EB
  8
0
  6
CENTER
 62
     7
 10
267.7608578748893
 20
85.0385709290163
 30
0.0
 11
304.2222760267448
 21
85.0385709290163
 31
0.0
  0
LINE
  5
4EC
  8
0
  6
CENTER
 62
     7
 10
267.5679410047721
 20
110.0385709290163
 30
0.0
 11
304.0293515272331
 21
110.0385709290163
 31
0.0
  0
LINE
  5
4ED
  8
0
  6
CENTER
 62
     7
 10
260.198754603405
 20
65.0385709290163
 30
0.0
 11
272.7877438612175
 21
65.0385709290163
 31
0.0
  0
LINE
  5
4EE
  8
0
  6
CENTER
 62
     7
 10
251.0131161756706
 20
-17.85325392543087
 30
0.0
 11
251.0131161756706
 21
-41.97922112413264
 31
0.0
  0
LINE
  5
4EF
  8
0
  6
CENTER
 62
     7
 10
483.3131344862174
 20
130.6551719948097
 30
0.0
 11
483.3131344862174
 21
55.85525454783399
 31
0.0
  0
LINE
  5
4F0
  8
0
  6
CENTER
 62
     7
 10
483.3131344862174
 20
48.23321554770311
 30
0.0
 11
483.3131344862174
 21
-49.21798550641096
 31
0.0
  0
LINE
  5
4F1
  8
0
  6
DASHED2
 62
     7
 10
443.3131344862175
 20
110.3206840797707
 30
0.0
 11
443.3131344862175
 21
88.03864825213397
 31
0.0
  0
LINE
  5
4F2
  8
0
  6
DASHED2
 62
     7
 10
418.5751965589714
 20
88.03864062273944
 30
0.0
 11
443.3131344862175
 21
88.03864062273944
 31
0.0
  0
LINE
  5
4F3
  8
0
  6
DASHED2
 62
     7
 10
443.3131344862175
 20
105.0386406227394
 30
0.0
 11
455.8615887708854
 21
105.0386406227394
 31
0.0
  0
LINE
  5
4F4
  8
0
  6
DASHED2
 62
     7
 10
443.3131344862175
 20
93.03864062273944
 30
0.0
 11
456.1949246473503
 21
93.03864062273944
 31
0.0
  0
LINE
  5
4F5
  8
0
  6
DASHED2
 62
     7
 10
433.8131344862175
 20
101.4386497780129
 30
0.0
 11
433.8131344862175
 21
96.63864672625506
 31
0.0
  0
LINE
  5
4F6
  8
0
  6
DASHED2
 62
     7
 10
440.9362347669792
 20
95.08865893328631
 30
0.0
 11
442.6224759168815
 21
95.08865893328631
 31
0.0
  0
LINE
  5
4F7
  8
0
  6
DASHED2
 62
     7
 10
440.9362347669792
 20
102.9886528297707
 30
0.0
 11
442.6224759168815
 21
102.9886528297707
 31
0.0
  0
LINE
  5
4F8
  8
0
  6
DASHED2
 62
     7
 10
436.1131375379753
 20
102.3386513038918
 30
0.0
 11
436.1131375379753
 21
95.73864520037616
 31
0.0
  0
LINE
  5
4F9
  8
0
  6
DASHED2
 62
     7
 10
440.3131344862175
 20
102.4312340065285
 30
0.0
 11
440.3131344862175
 21
95.64603198016131
 31
0.0
  0
LINE
  5
4FA
  8
0
  6
DASHED2
 62
     7
 10
441.0770657606315
 20
101.0386406227394
 30
0.0
 11
442.5492032118034
 21
101.0386406227394
 31
0.0
  0
LINE
  5
4FB
  8
0
  6
DASHED2
 62
     7
 10
441.0770657606315
 20
97.03864062273944
 30
0.0
 11
442.5492032118034
 21
97.03864062273944
 31
0.0
  0
LINE
  5
4FC
  8
0
  6
DASHED2
 62
     7
 10
436.1131502836593
 20
95.73868459685356
 30
0.0
 11
433.8131498882481
 21
96.63868454996238
 31
0.0
  0
LINE
  5
4FD
  8
0
  6
DASHED2
 62
     7
 10
433.813122732996
 20
101.4386408496646
 30
0.0
 11
436.1131231284072
 21
102.3386408027734
 31
0.0
  0
LINE
  5
4FE
  8
0
  6
DASHED2
 62
     7
 10
437.1131375379753
 20
101.6517235084816
 30
0.0
 11
437.1131375379753
 21
96.35969317400897
 31
0.0
  0
ARC
  5
4FF
  8
0
  6
DASHED2
 62
     7
 10
440.3131344862175
 20
99.03864062273944
 30
0.0
 40
3.0
 50
0.0
 51
41.81031315512681
  0
ARC
  5
500
  8
0
  6
DASHED2
 62
     7
 10
443.3131344862175
 20
99.03864062273944
 30
0.0
 40
3.0
 50
138.1896986840186
 51
221.8102840131373
  0
ARC
  5
501
  8
0
  6
DASHED2
 62
     7
 10
440.3131344862175
 20
99.03864062273944
 30
0.0
 40
3.0
 50
318.1896868448732
 51
360.0
  0
ARC
  5
502
  8
0
  6
DASHED2
 62
     7
 10
436.1131375379753
 20
99.03864062273944
 30
0.0
 40
3.299999952316284
 50
72.36029448230075
 51
89.99998201391055
  0
ARC
  5
503
  8
0
  6
DASHED2
 62
     7
 10
436.1131375379753
 20
99.03864062273944
 30
0.0
 40
3.299999952316284
 50
270.0000179860895
 51
287.6397055176993
  0
ARC
  5
504
  8
0
  6
DASHED2
 62
     7
 10
438.5176632948112
 20
104.8346000953957
 30
0.0
 40
3.0
 50
242.1068914535913
 51
306.7619948916871
  0
ARC
  5
505
  8
0
  6
DASHED2
 62
     7
 10
438.5176632948112
 20
93.24265063250506
 30
0.0
 40
3.0
 50
53.23800510831291
 51
117.8898300556072
  0
ARC
  5
506
  8
0
  6
DASHED2
 62
     7
 10
441.2484829969596
 20
102.0386406227394
 30
0.0
 40
1.0
 50
200.7154669700724
 51
270.0000179860891
  0
ARC
  5
507
  8
0
  6
DASHED2
 62
     7
 10
441.2484829969596
 20
102.0386406227394
 30
0.0
 40
1.0
 50
108.1948751325835
 51
159.2845330299276
  0
ARC
  5
508
  8
0
  6
DASHED2
 62
     7
 10
441.2484829969596
 20
96.03864062273944
 30
0.0
 40
1.0
 50
89.99998201391097
 51
159.2845330299276
  0
ARC
  5
509
  8
0
  6
DASHED2
 62
     7
 10
441.2484829969596
 20
96.03864062273944
 30
0.0
 40
1.0
 50
200.7154669700724
 51
251.8051248674166
  0
ARC
  5
50A
  8
0
  6
DASHED2
 62
     7
 10
442.3102353162956
 20
102.0386406227394
 30
0.0
 40
1.0
 50
0.0
 51
71.80513670656242
  0
ARC
  5
50B
  8
0
  6
DASHED2
 62
     7
 10
442.3102353162956
 20
96.03864062273944
 30
0.0
 40
1.0
 50
0.0
 51
89.99998201391097
  0
ARC
  5
50C
  8
0
  6
DASHED2
 62
     7
 10
442.3102353162956
 20
102.0386406227394
 30
0.0
 40
1.0
 50
270.0000179860891
 51
360.0
  0
ARC
  5
50D
  8
0
  6
DASHED2
 62
     7
 10
442.3102353162956
 20
96.03864062273944
 30
0.0
 40
1.0
 50
288.1948632934378
 51
360.0
  0
ARC
  5
50E
  8
0
  6
DASHED2
 62
     7
 10
434.2910245008659
 20
99.03864062273944
 30
0.0
 40
1.200000047683716
 50
113.4679724171302
 51
246.532017110215
  0
LINE
  5
50F
  8
0
  6
DASHED2
 62
     7
 10
544.2028434105559
 20
71.57457492238515
 30
0.0
 11
540.2028434105559
 21
78.50277815266068
 31
0.0
  0
LINE
  5
510
  8
0
  6
DASHED2
 62
     7
 10
544.2028434105559
 20
71.57457492238515
 30
0.0
 11
554.5951482559692
 21
77.57457492238515
 31
0.0
  0
LINE
  5
511
  8
0
  6
DASHED2
 62
     7
 10
539.5727163916338
 20
69.59419016465583
 30
0.0
 11
536.1727163916338
 21
75.48316291039001
 31
0.0
  0
LINE
  5
512
  8
0
  6
DASHED2
 62
     7
 10
539.5727163916338
 20
69.59419016465583
 30
0.0
 11
554.2951482559693
 21
78.09419016465583
 31
0.0
  0
LINE
  5
513
  8
0
  6
DASHED2
 62
     7
 10
539.5727163916338
 20
69.59419016465583
 30
0.0
 11
536.1727163916339
 21
71.55718107990046
 31
0.0
  0
LINE
  5
514
  8
0
  6
DASHED2
 62
     7
 10
536.1727163916338
 20
75.48316291039001
 30
0.0
 11
536.1727163916338
 21
71.55718107990066
 31
0.0
  0
LINE
  5
515
  8
0
  6
DASHED2
 62
     7
 10
540.2028434105559
 20
78.50277815266068
 30
0.0
 11
550.5951482559692
 21
84.50277815266068
 31
0.0
  0
LINE
  5
516
  8
0
  6
DASHED2
 62
     7
 10
536.216351756742
 20
75.40758424101566
 30
0.0
 11
550.9387836210775
 21
83.90758424101566
 31
0.0
  0
LINE
  5
517
  8
0
  6
DASHED2
 62
     7
 10
262.890485591844
 20
65.0385710621827
 30
0.0
 11
262.313134975389
 21
66.03857164571586
 31
0.0
  0
LINE
  5
518
  8
0
  6
DASHED2
 62
     7
 10
262.8904841749447
 20
65.03857284104424
 30
0.0
 11
262.3131339161175
 21
64.03857287694071
 31
0.0
  0
LINE
  5
519
  8
0
  6
DASHED2
 62
     7
 10
247.0131161756706
 20
-26.96142525628643
 30
0.0
 11
255.0131161756706
 21
-26.96142525628643
 31
0.0
  0
LINE
  5
51A
  8
0
  6
DASHED2
 62
     7
 10
247.6131161756705
 20
-21.96142525628643
 30
0.0
 11
254.4131161756706
 21
-21.96142525628643
 31
0.0
  0
LINE
  5
51B
  8
0
  6
DASHED2
 62
     7
 10
247.0131161756706
 20
-26.96142525628643
 30
0.0
 11
247.0131161756706
 21
-38.96142525628643
 31
0.0
  0
LINE
  5
51C
  8
0
  6
DASHED2
 62
     7
 10
247.6131161756705
 20
-21.96142525628644
 30
0.0
 11
247.6131161756705
 21
-38.96142525628643
 31
0.0
  0
LINE
  5
51D
  8
0
  6
DASHED2
 62
     7
 10
255.0131161756706
 20
-26.96142525628643
 30
0.0
 11
255.0131161756706
 21
-38.96142525628643
 31
0.0
  0
LINE
  5
51E
  8
0
  6
DASHED2
 62
     7
 10
254.325845445454
 20
-21.96142525628644
 30
0.0
 11
254.325845445454
 21
-38.96142525628643
 31
0.0
  0
LINE
  5
51F
  8
0
  6
DASHED2
 62
     7
 10
254.4131161756706
 20
-21.96142525628644
 30
0.0
 11
251.0131161756707
 21
-19.99843434104177
 31
0.0
  0
LINE
  5
520
  8
0
  6
DASHED2
 62
     7
 10
247.6131161756705
 20
-21.96142525628644
 30
0.0
 11
251.0131161756704
 21
-19.99843434104177
 31
0.0
  0
LINE
  5
521
  8
0
  6
CONTINUOUS
 62
     7
 10
421.0310893732587
 20
-11.08572270564922
 30
0.0
 11
410.0879309747272
 21
-17.40375707821316
 31
0.0
  0
LINE
  5
522
  8
0
  6
CONTINUOUS
 62
     7
 10
214.8131192274284
 20
-38.9614176268919
 30
0.0
 11
214.8131192274284
 21
-51.72443718865948
 31
0.0
  0
LINE
  5
523
  8
0
  6
CONTINUOUS
 62
     4
 10
544.7961239347312
 20
-9.469666472197318
 30
0.0
 11
548.0461205074637
 21
-3.840508055881386
 31
0.0
  0
LINE
  5
524
  8
0
  6
CONTINUOUS
 62
     4
 10
508.4230896427177
 20
11.53029992851272
 30
0.0
 11
511.6730938448456
 21
17.15947155932737
 31
0.0
  0
LINE
  5
525
  8
0
  6
CONTINUOUS
 62
     4
 10
445.2032172372151
 20
34.04697347485877
 30
0.0
 11
448.4532176246453
 21
28.41780845129348
 31
0.0
  0
LINE
  5
526
  8
0
  6
CONTINUOUS
 62
     4
 10
408.830161353048
 20
13.04696817891205
 30
0.0
 11
412.0801588794548
 21
7.417808110783781
 31
0.0
  0
LINE
  5
527
  8
0
  6
CONTINUOUS
 62
     4
 10
454.9532183995057
 20
17.1594784041629
 30
0.0
 11
458.2032187869358
 21
11.53031338059761
 31
0.0
  0
LINE
  5
528
  8
0
  6
CONTINUOUS
 62
     4
 10
418.5801587006408
 20
-3.840520284534463
 30
0.0
 11
421.8301571807222
 21
-9.469682004475075
 31
0.0
  0
LINE
  5
529
  8
0
  6
CONTINUOUS
 62
     4
 10
518.1730984344038
 20
28.41780821370732
 30
0.0
 11
521.423098821834
 21
34.04697323727261
 31
0.0
  0
LINE
  5
52A
  8
0
  6
CONTINUOUS
 62
     4
 10
554.5461174676264
 20
7.417815383999837
 30
0.0
 11
557.7961178550565
 21
13.04698040756513
 31
0.0
  0
LINE
  5
52B
  8
0
  6
CONTINUOUS
 62
     4
 10
553.2471266581567
 20
8.167805799719204
 30
0.0
 11
556.4971270455869
 21
13.7969708232845
 31
0.0
  0
LINE
  5
52C
  8
0
  6
CONTINUOUS
 62
     4
 10
551.9480715465991
 20
8.917806911272251
 30
0.0
 11
555.1980719340293
 21
14.54697193483754
 31
0.0
  0
LINE
  5
52D
  8
0
  6
CONTINUOUS
 62
     4
 10
550.649054308132
 20
9.6678125857825
 30
0.0
 11
553.8990546955622
 21
15.29697760934779
 31
0.0
  0
LINE
  5
52E
  8
0
  6
CONTINUOUS
 62
     4
 10
549.3500426547682
 20
10.41779741639859
 30
0.0
 11
552.6000430421984
 21
16.04696243996388
 31
0.0
  0
LINE
  5
52F
  8
0
  6
CONTINUOUS
 62
     4
 10
543.4971331252616
 20
-8.719676056477951
 30
0.0
 11
546.7471296979941
 21
-3.09051764016202
 31
0.0
  0
LINE
  5
530
  8
0
  6
CONTINUOUS
 62
     4
 10
542.1980703843085
 20
-7.969688159423626
 30
0.0
 11
545.4480707717387
 21
-2.340523135858334
 31
0.0
  0
LINE
  5
531
  8
0
  6
CONTINUOUS
 62
     4
 10
540.8990531458414
 20
-7.219682484913378
 30
0.0
 11
544.1490535332716
 21
-1.590517461348085
 31
0.0
  0
LINE
  5
532
  8
0
  6
CONTINUOUS
 62
     4
 10
539.6000414924777
 20
-6.469697654297292
 30
0.0
 11
542.8500418799079
 21
-0.8405326307319996
 31
0.0
  0
LINE
  5
533
  8
0
  6
CONTINUOUS
 62
     4
 10
509.7221239103812
 20
10.78029323185639
 30
0.0
 11
512.9721242978114
 21
16.40945825542168
 31
0.0
  0
LINE
  5
534
  8
0
  6
CONTINUOUS
 62
     4
 10
511.0211619927425
 20
10.03029314244942
 30
0.0
 11
514.2711623801727
 21
15.65945816601472
 31
0.0
  0
LINE
  5
535
  8
0
  6
CONTINUOUS
 62
     4
 10
512.3202341334966
 20
9.280291008750297
 30
0.0
 11
515.1420919222808
 21
14.16789140028733
 31
0.0
  0
LINE
  5
536
  8
0
  6
CONTINUOUS
 62
     4
 10
513.6192457868604
 20
8.530306178134211
 30
0.0
 11
516.1563211320279
 21
12.92464897587753
 31
0.0
  0
LINE
  5
537
  8
0
  6
CONTINUOUS
 62
     4
 10
519.4721250726718
 20
27.66778830255227
 30
0.0
 11
522.722125460102
 21
33.29695332611756
 31
0.0
  0
LINE
  5
538
  8
0
  6
CONTINUOUS
 62
     4
 10
520.771163155033
 20
26.9177882131453
 30
0.0
 11
524.0211635424632
 21
32.54695323671059
 31
0.0
  0
LINE
  5
539
  8
0
  6
CONTINUOUS
 62
     4
 10
522.4504576616698
 20
26.82635044500195
 30
0.0
 11
525.3202394979151
 21
31.79695771026083
 31
0.0
  0
LINE
  5
53A
  8
0
  6
CONTINUOUS
 62
     4
 10
524.2876697576101
 20
27.00855599772741
 30
0.0
 11
526.6192511512788
 21
31.04697287964474
 31
0.0
  0
LINE
  5
53B
  8
0
  6
CONTINUOUS
 62
     4
 10
453.6541613805991
 20
16.40948059623453
 30
0.0
 11
456.904165582727
 21
10.78030896541988
 31
0.0
  0
LINE
  5
53C
  8
0
  6
CONTINUOUS
 62
     4
 10
452.3551694120401
 20
15.65953796447981
 30
0.0
 11
455.6051697994703
 21
10.03037294091452
 31
0.0
  0
LINE
  5
53D
  8
0
  6
CONTINUOUS
 62
     4
 10
451.3746138351035
 20
14.35789481122789
 30
0.0
 11
454.306121295162
 21
9.280375644059191
 31
0.0
  0
LINE
  5
53E
  8
0
  6
CONTINUOUS
 62
     4
 10
450.6772456837634
 20
12.56564990453877
 30
0.0
 11
453.0070551503411
 21
8.530302089949615
 31
0.0
  0
LINE
  5
53F
  8
0
  6
CONTINUOUS
 62
     4
 10
443.9041668940296
 20
33.29696410424403
 30
0.0
 11
447.1541663277853
 21
27.66780073249107
 31
0.0
  0
LINE
  5
540
  8
0
  6
CONTINUOUS
 62
     4
 10
442.6051682497496
 20
32.54703303517569
 30
0.0
 11
445.8551686371798
 21
26.9178680116104
 31
0.0
  0
LINE
  5
541
  8
0
  6
CONTINUOUS
 62
     4
 10
441.3061197454413
 20
31.79703573832036
 30
0.0
 11
444.1754562157277
 21
26.82719986942438
 31
0.0
  0
LINE
  5
542
  8
0
  6
CONTINUOUS
 62
     4
 10
440.0070536006203
 20
31.04696218421078
 30
0.0
 11
442.4366851234703
 21
26.83871752015615
 31
0.0
  0
LINE
  5
543
  8
0
  6
CONTINUOUS
 62
     4
 10
410.1291846876914
 20
13.79698618271824
 30
0.0
 11
413.3791841214471
 21
8.167822810965291
 31
0.0
  0
LINE
  5
544
  8
0
  6
CONTINUOUS
 62
     4
 10
411.428229888375
 20
14.54698157222471
 30
0.0
 11
414.6782293221307
 21
8.917818200471757
 31
0.0
  0
LINE
  5
545
  8
0
  6
CONTINUOUS
 62
     4
 10
412.7272613634868
 20
15.29697784693396
 30
0.0
 11
415.9772607972426
 21
9.667814475181004
 31
0.0
  0
LINE
  5
546
  8
0
  6
CONTINUOUS
 62
     4
 10
414.02630186427
 20
16.04696611811802
 30
0.0
 11
417.2763012980257
 21
10.41780274636507
 31
0.0
  0
LINE
  5
547
  8
0
  6
CONTINUOUS
 62
     4
 10
419.8791877573308
 20
-3.090512191602315
 30
0.0
 11
423.1291843300633
 21
-8.719670607918246
 31
0.0
  0
LINE
  5
548
  8
0
  6
CONTINUOUS
 62
     4
 10
421.1782291433167
 20
-2.340510194846488
 30
0.0
 11
424.4282257160492
 21
-7.969668611162419
 31
0.0
  0
LINE
  5
549
  8
0
  6
CONTINUOUS
 62
     4
 10
422.4772606184286
 20
-1.590513920137241
 30
0.0
 11
425.7272610058587
 21
-7.219678943702533
 31
0.0
  0
LINE
  5
54A
  8
0
  6
CONTINUOUS
 62
     4
 10
423.7763011192117
 20
-0.8405256489531752
 30
0.0
 11
427.026299599293
 21
-6.469687368893787
 31
0.0
  0
LINE
  5
54B
  8
0
  6
CONTINUOUS
 62
     4
 10
470.3131344862174
 20
77.53864062273944
 30
0.0
 11
476.8131344862174
 21
77.53864062273944
 31
0.0
  0
LINE
  5
54C
  8
0
  6
CONTINUOUS
 62
     4
 10
489.8131344862174
 20
77.53864062273944
 30
0.0
 11
496.3131192274284
 21
77.53864062273944
 31
0.0
  0
LINE
  5
54D
  8
0
  6
CONTINUOUS
 62
     4
 10
470.3131344862174
 20
119.5386406227394
 30
0.0
 11
476.8131344862174
 21
119.5386406227394
 31
0.0
  0
LINE
  5
54E
  8
0
  6
CONTINUOUS
 62
     4
 10
489.8131344862174
 20
119.5386406227394
 30
0.0
 11
496.3131192274284
 21
119.5386406227394
 31
0.0
  0
LINE
  5
54F
  8
0
  6
CONTINUOUS
 62
     4
 10
489.8131344862174
 20
79.03864062273944
 30
0.0
 11
496.3131192274284
 21
79.03864062273944
 31
0.0
  0
LINE
  5
550
  8
0
  6
CONTINUOUS
 62
     4
 10
489.8131344862174
 20
80.53864062273944
 30
0.0
 11
496.3131192274284
 21
80.53864062273944
 31
0.0
  0
LINE
  5
551
  8
0
  6
CONTINUOUS
 62
     4
 10
490.4198544569206
 20
82.03864062273944
 30
0.0
 11
496.3131192274284
 21
82.03864062273944
 31
0.0
  0
LINE
  5
552
  8
0
  6
CONTINUOUS
 62
     4
 10
490.9921200819206
 20
83.53864062273944
 30
0.0
 11
496.3131192274284
 21
83.53864062273944
 31
0.0
  0
LINE
  5
553
  8
0
  6
CONTINUOUS
 62
     4
 10
470.3131344862174
 20
79.03864062273944
 30
0.0
 11
476.8131344862174
 21
79.03864062273944
 31
0.0
  0
LINE
  5
554
  8
0
  6
CONTINUOUS
 62
     4
 10
470.3131344862174
 20
80.53864062273944
 30
0.0
 11
476.8131344862174
 21
80.53864062273944
 31
0.0
  0
LINE
  5
555
  8
0
  6
CONTINUOUS
 62
     4
 10
470.3131344862174
 20
82.03864062273944
 30
0.0
 11
476.2561352796745
 21
82.03864062273944
 31
0.0
  0
LINE
  5
556
  8
0
  6
CONTINUOUS
 62
     4
 10
470.3131344862174
 20
83.53864062273944
 30
0.0
 11
475.6838620252799
 21
83.53864062273944
 31
0.0
  0
LINE
  5
557
  8
0
  6
CONTINUOUS
 62
     4
 10
470.3131344862174
 20
118.0386406227394
 30
0.0
 11
476.8131344862174
 21
118.0386406227394
 31
0.0
  0
LINE
  5
558
  8
0
  6
CONTINUOUS
 62
     4
 10
470.3131344862174
 20
116.5386406227394
 30
0.0
 11
476.8131344862174
 21
116.5386406227394
 31
0.0
  0
LINE
  5
559
  8
0
  6
CONTINUOUS
 62
     4
 10
470.3131344862174
 20
115.0386406227394
 30
0.0
 11
476.8131344862174
 21
115.0386406227394
 31
0.0
  0
LINE
  5
55A
  8
0
  6
CONTINUOUS
 62
     4
 10
470.3131344862174
 20
113.5386406227394
 30
0.0
 11
476.8131344862174
 21
113.5386406227394
 31
0.0
  0
LINE
  5
55B
  8
0
  6
CONTINUOUS
 62
     4
 10
489.8131344862174
 20
118.0386406227394
 30
0.0
 11
496.3131192274284
 21
118.0386406227394
 31
0.0
  0
LINE
  5
55C
  8
0
  6
CONTINUOUS
 62
     4
 10
489.8131344862174
 20
116.5386406227394
 30
0.0
 11
496.3131192274284
 21
116.5386406227394
 31
0.0
  0
LINE
  5
55D
  8
0
  6
CONTINUOUS
 62
     4
 10
489.8131344862174
 20
115.0386406227394
 30
0.0
 11
496.3131192274284
 21
115.0386406227394
 31
0.0
  0
LINE
  5
55E
  8
0
  6
CONTINUOUS
 62
     4
 10
489.8131344862174
 20
113.5386406227394
 30
0.0
 11
496.3131192274284
 21
113.5386406227394
 31
0.0
  0
CIRCLE
  5
55F
  8
0
  6
CONTINUOUS
 62
     4
 10
483.3131344862174
 20
3.038658742551448
 30
0.0
 40
3.0
  0
ARC
  5
560
  8
0
  6
CONTINUOUS
 62
     4
 10
483.3131344862174
 20
41.0386444374367
 30
0.0
 40
39.0
 50
112.6198814882679
 51
141.0192957929932
  0
ARC
  5
561
  8
0
  6
CONTINUOUS
 62
     4
 10
483.3131344862174
 20
41.0386444374367
 30
0.0
 40
45.0
 50
109.4712394129729
 51
142.9434147236991
  0
ARC
  5
562
  8
0
  6
CONTINUOUS
 62
     4
 10
483.3131344862174
 20
41.0386444374367
 30
0.0
 40
51.0
 50
107.1046539976443
 51
134.1006966543638
  0
ARC
  5
563
  8
0
  6
CONTINUOUS
 62
     4
 10
483.3131344862174
 20
41.0386444374367
 30
0.0
 40
39.0
 50
233.4179619236079
 51
258.1508965309245
  0
ARC
  5
564
  8
0
  6
CONTINUOUS
 62
     4
 10
483.3131344862174
 20
41.0386444374367
 30
0.0
 40
45.0
 50
230.1478722546808
 51
262.0368165459874
  0
ARC
  5
565
  8
0
  6
CONTINUOUS
 62
     4
 10
483.3131344862174
 20
41.0386444374367
 30
0.0
 40
51.0
 50
227.6932798518968
 51
254.779344401877
  0
ARC
  5
566
  8
0
  6
CONTINUOUS
 62
     4
 10
483.3131344862174
 20
41.0386444374367
 30
0.0
 40
39.0
 50
353.4179853265928
 51
380.6763298724424
  0
ARC
  5
567
  8
0
  6
CONTINUOUS
 62
     4
 10
483.3131344862174
 20
41.0386444374367
 30
0.0
 40
45.0
 50
350.1478918156844
 51
382.9434301674151
  0
ARC
  5
568
  8
0
  6
CONTINUOUS
 62
     4
 10
483.3131344862174
 20
41.0386444374367
 30
0.0
 40
51.0
 50
347.6932985591266
 51
373.7807279807484
  0
ARC
  5
569
  8
0
  6
CONTINUOUS
 62
     4
 10
483.3131344862174
 20
41.0386444374367
 30
0.0
 40
39.0
 50
282.3514998547086
 51
306.5820194070574
  0
ARC
  5
56A
  8
0
  6
CONTINUOUS
 62
     4
 10
483.3131344862174
 20
41.0386444374367
 30
0.0
 40
45.0
 50
277.9631716148671
 51
309.8521159061736
  0
ARC
  5
56B
  8
0
  6
CONTINUOUS
 62
     4
 10
483.3131344862174
 20
41.0386444374367
 30
0.0
 40
51.0
 50
285.0305391038086
 51
312.3067083089578
  0
CIRCLE
  5
56C
  8
0
  6
CONTINUOUS
 62
     4
 10
483.3131344862174
 20
41.0386444374367
 30
0.0
 40
26.20000076293945
  0
CIRCLE
  5
56D
  8
0
  6
CONTINUOUS
 62
     4
 10
450.4041913099479
 20
60.03867876971209
 30
0.0
 40
3.0
  0
CIRCLE
  5
56E
  8
0
  6
CONTINUOUS
 62
     4
 10
516.2220852918815
 20
60.03864062273944
 30
0.0
 40
3.0
  0
ARC
  5
56F
  8
0
  6
CONTINUOUS
 62
     4
 10
483.3131344862174
 20
41.0386444374367
 30
0.0
 40
51.0
 50
165.788717270856
 51
192.306667176242
  0
ARC
  5
570
  8
0
  6
CONTINUOUS
 62
     4
 10
483.3131344862174
 20
41.0386444374367
 30
0.0
 40
45.0
 50
157.0565389830481
 51
189.8520747734578
  0
ARC
  5
571
  8
0
  6
CONTINUOUS
 62
     4
 10
483.3131344862174
 20
41.0386444374367
 30
0.0
 40
39.0
 50
159.6471750937206
 51
186.5819851045308
  0
ARC
  5
572
  8
0
  6
CONTINUOUS
 62
     4
 10
483.3131344862174
 20
41.0386444374367
 30
0.0
 40
51.0
 50
45.95972479289592
 51
72.89536467169033
  0
ARC
  5
573
  8
0
  6
CONTINUOUS
 62
     4
 10
483.3131344862174
 20
41.0386444374367
 30
0.0
 40
39.0
 50
39.9323731333994
 51
67.3801371810668
  0
ARC
  5
574
  8
0
  6
CONTINUOUS
 62
     4
 10
483.3131344862174
 20
41.0386444374367
 30
0.0
 40
45.0
 50
37.05655271921681
 51
70.52877925636177
  0
CIRCLE
  5
575
  8
0
  6
CONTINUOUS
 62
     4
 10
483.3131344862174
 20
65.03871413115984
 30
0.0
 40
2.0
  0
CIRCLE
  5
576
  8
0
  6
CONTINUOUS
 62
     4
 10
504.0977745631634
 20
29.03876676161645
 30
0.0
 40
2.0
  0
CIRCLE
  5
577
  8
0
  6
CONTINUOUS
 62
     4
 10
462.5285160229164
 20
29.03872932554425
 30
0.0
 40
2.0
  0
LINE
  5
578
  8
0
  6
CONTINUOUS
 62
     4
 10
271.3131344862175
 20
6.038585293735693
 30
0.0
 11
271.3131344862175
 21
0.0385857109682064
 31
0.0
  0
LINE
  5
579
  8
0
  6
CONTINUOUS
 62
     4
 10
271.3131344862175
 20
6.038589108432959
 30
0.0
 11
284.3131344862175
 21
6.038589108432959
 31
0.0
  0
LINE
  5
57A
  8
0
  6
CONTINUOUS
 62
     4
 10
271.3131344862175
 20
0.038589525665472
 30
0.0
 11
284.3131344862175
 21
0.038589525665472
 31
0.0
  0
LINE
  5
57B
  8
0
  6
CONTINUOUS
 62
     4
 10
219.0131161756706
 20
-16.84640641168194
 30
0.0
 11
273.3131344862175
 21
-16.84640641168194
 31
0.0
  0
LINE
  5
57C
  8
0
  6
CONTINUOUS
 62
     4
 10
219.0131161756706
 20
-5.846405458007624
 30
0.0
 11
273.3131344862175
 21
-5.846405458007624
 31
0.0
  0
LINE
  5
57D
  8
0
  6
CONTINUOUS
 62
     4
 10
262.3131344862175
 20
14.63857684179707
 30
0.0
 11
271.3131344862175
 21
14.63857684179707
 31
0.0
  0
LINE
  5
57E
  8
0
  6
CONTINUOUS
 62
     4
 10
262.3131344862175
 20
67.43858695074482
 30
0.0
 11
271.3131344862175
 21
67.43858695074482
 31
0.0
  0
LINE
  5
57F
  8
0
  6
CONTINUOUS
 62
     4
 10
283.3131344862175
 20
121.0385785584108
 30
0.0
 11
283.3131344862175
 21
118.0385785584108
 31
0.0
  0
LINE
  5
580
  8
0
  6
CONTINUOUS
 62
     4
 10
282.3131344862175
 20
121.0385785584108
 30
0.0
 11
282.3131344862175
 21
118.0385785584108
 31
0.0
  0
LINE
  5
581
  8
0
  6
CONTINUOUS
 62
     4
 10
270.3131344862175
 20
113.1885953430788
 30
0.0
 11
291.3131344862175
 21
113.1885953430788
 31
0.0
  0
LINE
  5
582
  8
0
  6
CONTINUOUS
 62
     4
 10
270.3131344862175
 20
106.8885770325319
 30
0.0
 11
291.3131344862175
 21
106.8885770325319
 31
0.0
  0
LINE
  5
583
  8
0
  6
CONTINUOUS
 62
     4
 10
270.3131344862175
 20
81.88857703253193
 30
0.0
 11
291.3131344862175
 21
81.88857703253193
 31
0.0
  0
LINE
  5
584
  8
0
  6
CONTINUOUS
 62
     4
 10
270.3131344862175
 20
88.1885953430788
 30
0.0
 11
291.3131344862175
 21
88.1885953430788
 31
0.0
  0
LINE
  5
585
  8
0
  6
CONTINUOUS
 62
     4
 10
282.3131344862175
 20
77.03857855841083
 30
0.0
 11
282.3131344862175
 21
76.03857855841083
 31
0.0
  0
LINE
  5
586
  8
0
  6
CONTINUOUS
 62
     4
 10
283.3131344862175
 20
77.03857855841083
 30
0.0
 11
283.3131344862175
 21
76.03857855841083
 31
0.0
  0
LINE
  5
587
  8
0
  6
CONTINUOUS
 62
     4
 10
203.3131192274284
 20
-7.196411561523249
 30
0.0
 11
235.3131344862174
 21
-7.196411561523249
 31
0.0
  0
LINE
  5
588
  8
0
  6
CONTINUOUS
 62
     4
 10
203.3131192274284
 20
-15.49641556695538
 30
0.0
 11
235.3131344862174
 21
-15.49641556695538
 31
0.0
  0
LINE
  5
589
  8
0
  6
CONTINUOUS
 62
     4
 10
235.3131344862174
 20
-6.346413087402155
 30
0.0
 11
235.3131344862174
 21
-16.34641404107647
 31
0.0
  0
LINE
  5
58A
  8
0
  6
CONTINUOUS
 62
     4
 10
292.3131167928248
 20
83.45794707835505
 30
0.0
 11
293.318897962866
 21
84.03863504346869
 31
0.0
  0
LINE
  5
58B
  8
0
  6
CONTINUOUS
 62
     4
 10
297.8200410592194
 20
109.0385976566734
 30
0.0
 11
298.3131401129663
 21
108.7539068167087
 31
0.0
  0
LINE
  5
58C
  8
0
  6
CONTINUOUS
 62
     4
 10
295.8200492730941
 20
109.038636840186
 30
0.0
 11
298.3131364170588
 21
107.5992524655308
 31
0.0
  0
LINE
  5
58D
  8
0
  6
CONTINUOUS
 62
     4
 10
293.8200497206348
 20
109.0386320544306
 30
0.0
 11
298.3131381693169
 21
106.4445465156908
 31
0.0
  0
LINE
  5
58E
  8
0
  6
CONTINUOUS
 62
     4
 10
292.3131208855745
 20
108.7539483838737
 30
0.0
 11
298.3131247997268
 21
105.2898448916199
 31
0.0
  0
LINE
  5
58F
  8
0
  6
CONTINUOUS
 62
     4
 10
292.3131160305827
 20
107.5992462487307
 30
0.0
 11
297.6142579172272
 21
104.5386308916068
 31
0.0
  0
LINE
  5
590
  8
0
  6
CONTINUOUS
 62
     4
 10
292.3131196901893
 20
106.4445436025156
 30
0.0
 11
295.6142602721163
 21
104.5386294094763
 31
0.0
  0
LINE
  5
591
  8
0
  6
CONTINUOUS
 62
     4
 10
292.3131280496972
 20
105.2898338379785
 30
0.0
 11
293.6142673269068
 21
104.5386208090238
 31
0.0
  0
LINE
  5
592
  8
0
  6
CONTINUOUS
 62
     4
 10
292.3130988333098
 20
107.5749345941924
 30
0.0
 11
294.8482579501908
 21
109.0386092310526
 31
0.0
  0
LINE
  5
593
  8
0
  6
CONTINUOUS
 62
     4
 10
292.3130989107583
 20
106.4202693442306
 30
0.0
 11
296.8482560029223
 21
109.0386432229257
 31
0.0
  0
LINE
  5
594
  8
0
  6
CONTINUOUS
 62
     4
 10
292.3131119450372
 20
105.2655234782381
 30
0.0
 11
298.3131095100354
 21
108.7296233048064
 31
0.0
  0
LINE
  5
595
  8
0
  6
CONTINUOUS
 62
     4
 10
293.0540357042014
 20
104.5386394777685
 30
0.0
 11
298.3131066245027
 21
107.5749651538326
 31
0.0
  0
LINE
  5
596
  8
0
  6
CONTINUOUS
 62
     4
 10
295.054030763236
 20
104.5386276929004
 30
0.0
 11
298.31310636664
 21
106.4202556619491
 31
0.0
  0
LINE
  5
597
  8
0
  6
CONTINUOUS
 62
     4
 10
297.0540503929809
 20
104.5386300939369
 30
0.0
 11
298.313121362233
 21
105.2655549766514
 31
0.0
  0
LINE
  5
598
  8
0
  6
CONTINUOUS
 62
     4
 10
292.3131164368431
 20
82.30324633948844
 30
0.0
 11
295.3188989116018
 21
84.03863546868668
 31
0.0
  0
LINE
  5
599
  8
0
  6
CONTINUOUS
 62
     4
 10
292.3131204066306
 20
81.14853047877368
 30
0.0
 11
297.3188967529507
 21
84.03861648052235
 31
0.0
  0
LINE
  5
59A
  8
0
  6
CONTINUOUS
 62
     4
 10
292.313116747024
 20
79.99382783255855
 30
0.0
 11
298.3131190093639
 21
83.45793037113809
 31
0.0
  0
LINE
  5
59B
  8
0
  6
CONTINUOUS
 62
     4
 10
293.5246558942413
 20
79.53861848438349
 30
0.0
 11
298.3131090573415
 21
82.30323290166139
 31
0.0
  0
LINE
  5
59C
  8
0
  6
CONTINUOUS
 62
     4
 10
295.5246606576741
 20
79.53861230235167
 30
0.0
 11
298.3131075606195
 21
81.14852269452219
 31
0.0
  0
LINE
  5
59D
  8
0
  6
CONTINUOUS
 62
     4
 10
297.5246657359409
 20
79.53861511175531
 30
0.0
 11
298.3131154637001
 21
79.99382672402687
 31
0.0
  0
LINE
  5
59E
  8
0
  6
CONTINUOUS
 62
     4
 10
295.9538808215264
 20
84.03859518876156
 30
0.0
 11
298.3131249059741
 21
82.6764851320102
 31
0.0
  0
LINE
  5
59F
  8
0
  6
CONTINUOUS
 62
     4
 10
293.9538765691657
 20
84.03859752132807
 30
0.0
 11
298.3131219583308
 21
81.52178630049211
 31
0.0
  0
LINE
  5
5A0
  8
0
  6
CONTINUOUS
 62
     4
 10
292.3131244963379
 20
83.83117672458393
 30
0.0
 11
298.3131151959906
 21
80.36708086172421
 31
0.0
  0
LINE
  5
5A1
  8
0
  6
CONTINUOUS
 62
     4
 10
292.3131255003317
 20
82.67651525508408
 30
0.0
 11
297.7481104464931
 21
79.53862558005635
 31
0.0
  0
LINE
  5
5A2
  8
0
  6
CONTINUOUS
 62
     4
 10
292.3131299082025
 20
81.52176812852876
 30
0.0
 11
295.7481069423967
 21
79.53858343228266
 31
0.0
  0
LINE
  5
5A3
  8
0
  6
CONTINUOUS
 62
     4
 10
292.313118445961
 20
80.3670698080828
 30
0.0
 11
293.7481007826875
 21
79.53858246122427
 31
0.0
  0
LINE
  5
5A4
  8
0
  6
CONTINUOUS
 62
     4
 10
281.6802559651895
 20
-12.3464121223064
 30
0.0
 11
282.3131379960377
 21
-12.71180669281235
 31
0.0
  0
LINE
  5
5A5
  8
0
  6
CONTINUOUS
 62
     4
 10
274.3131172859983
 20
-12.84452706959242
 30
0.0
 11
275.1758787524348
 21
-12.34641155973164
 31
0.0
  0
LINE
  5
5A6
  8
0
  6
CONTINUOUS
 62
     4
 10
278.6802537754777
 20
-12.34642425637692
 30
0.0
 11
282.3131311561522
 21
-14.44386675831272
 31
0.0
  0
LINE
  5
5A7
  8
0
  6
CONTINUOUS
 62
     4
 10
275.6802421859633
 20
-12.34642215380355
 30
0.0
 11
282.3131215237139
 21
-16.17591640186625
 31
0.0
  0
LINE
  5
5A8
  8
0
  6
CONTINUOUS
 62
     4
 10
274.3131303088524
 20
-13.28916622592267
 30
0.0
 11
282.3131355277221
 21
-17.90797088226107
 31
0.0
  0
LINE
  5
5A9
  8
0
  6
CONTINUOUS
 62
     4
 10
274.3131338909137
 20
-15.02122349887027
 30
0.0
 11
280.0725678392759
 21
-18.34643387196134
 31
0.0
  0
LINE
  5
5AA
  8
0
  6
CONTINUOUS
 62
     4
 10
274.3131270510282
 20
-16.75328356437065
 30
0.0
 11
277.0725524350644
 21
-18.34643837663778
 31
0.0
  0
LINE
  5
5AB
  8
0
  6
CONTINUOUS
 62
     4
 10
274.3131255221601
 20
-14.57658192411937
 30
0.0
 11
278.1758955529226
 21
-12.34641085343465
 31
0.0
  0
LINE
  5
5AC
  8
0
  6
CONTINUOUS
 62
     4
 10
274.3131261973979
 20
-16.3086389415309
 30
0.0
 11
281.1759047924863
 21
-12.34641231002225
 31
0.0
  0
LINE
  5
5AD
  8
0
  6
CONTINUOUS
 62
     4
 10
274.3131287115142
 20
-18.04068388518313
 30
0.0
 11
282.313133930384
 21
-13.42187922884473
 31
0.0
  0
LINE
  5
5AE
  8
0
  6
CONTINUOUS
 62
     4
 10
276.7835913315291
 20
-18.34639936958929
 30
0.0
 11
282.3131326298033
 21
-15.15391756524714
 31
0.0
  0
LINE
  5
5AF
  8
0
  6
CONTINUOUS
 62
     4
 10
279.7835722347452
 20
-18.34641278134014
 30
0.0
 11
282.313118183193
 21
-16.88597890842785
 31
0.0
  0
LINE
  5
5B0
  8
0
  6
CONTINUOUS
 62
     4
 10
262.8131344862175
 20
66.5385709290163
 30
0.0
 11
266.3131344862175
 21
66.5385709290163
 31
0.0
  0
LINE
  5
5B1
  8
0
  6
CONTINUOUS
 62
     4
 10
262.8131344862175
 20
63.5385709290163
 30
0.0
 11
266.3131344862175
 21
63.5385709290163
 31
0.0
  0
LINE
  5
5B2
  8
0
  6
CONTINUOUS
 62
     4
 10
270.3131344862175
 20
67.0385709290163
 30
0.0
 11
271.3131344862175
 21
67.0385709290163
 31
0.0
  0
LINE
  5
5B3
  8
0
  6
CONTINUOUS
 62
     4
 10
270.3131344862175
 20
63.0385709290163
 30
0.0
 11
271.3131344862175
 21
63.0385709290163
 31
0.0
  0
LINE
  5
5B4
  8
0
  6
CONTINUOUS
 62
     4
 10
266.5631344862175
 20
66.5385709290163
 30
0.0
 11
270.3131344862175
 21
66.5385709290163
 31
0.0
  0
LINE
  5
5B5
  8
0
  6
CONTINUOUS
 62
     4
 10
266.5631344862175
 20
63.5385709290163
 30
0.0
 11
270.3131344862175
 21
63.5385709290163
 31
0.0
  0
LINE
  5
5B6
  8
0
  6
CONTINUOUS
 62
     2
 10
483.3131257004138
 20
-6.646305097636954
 30
0.0
 11
479.2428064973069
 21
-8.996299229562496
 31
0.0
  0
LINE
  5
5B7
  8
0
  6
CONTINUOUS
 62
     2
 10
479.2428067274284
 20
-8.996341104860662
 30
0.0
 11
479.2428067274284
 21
-13.69634282147443
 31
0.0
  0
LINE
  5
5B8
  8
0
  6
CONTINUOUS
 62
     2
 10
479.2428162728463
 20
-13.6963780410856
 30
0.0
 11
483.3131309936868
 21
-16.04637987690647
 31
0.0
  0
LINE
  5
5B9
  8
0
  6
CONTINUOUS
 62
     2
 10
483.3131808433661
 20
-16.04643495942581
 30
0.0
 11
487.383500046473
 21
-13.69644068742944
 31
0.0
  0
LINE
  5
5BA
  8
0
  6
CONTINUOUS
 62
     2
 10
487.3834622450065
 20
-13.69635045086896
 30
0.0
 11
487.3834622450065
 21
-8.996348734255193
 31
0.0
  0
LINE
  5
5BB
  8
0
  6
CONTINUOUS
 62
     2
 10
487.3834229675374
 20
-8.996382250049905
 30
0.0
 11
483.3131093672634
 21
-6.64637817309584
 31
0.0
  0
LINE
  5
5BC
  8
0
  6
CONTINUOUS
 62
     2
 10
445.2080277508036
 20
22.53863913553461
 30
0.0
 11
442.1769380574957
 21
20.78864049154028
 31
0.0
  0
LINE
  5
5BD
  8
0
  6
CONTINUOUS
 62
     2
 10
448.2390909097273
 20
20.788621476308
 30
0.0
 11
445.207996278102
 21
22.53862675132224
 31
0.0
  0
LINE
  5
5BE
  8
0
  6
CONTINUOUS
 62
     2
 10
442.1769192762565
 20
20.78865397417987
 30
0.0
 11
442.1769192762565
 21
17.28865492785418
 31
0.0
  0
LINE
  5
5BF
  8
0
  6
CONTINUOUS
 62
     2
 10
442.1769260939634
 20
17.28862442170113
 30
0.0
 11
445.20801474419
 21
15.53862400446862
 31
0.0
  0
LINE
  5
5C0
  8
0
  6
CONTINUOUS
 62
     2
 10
445.2080094690509
 20
15.53867459174718
 30
0.0
 11
448.23909853651
 21
17.2886742788228
 31
0.0
  0
LINE
  5
5C1
  8
0
  6
CONTINUOUS
 62
     2
 10
448.2390988416862
 20
17.28865492785418
 30
0.0
 11
448.2390988416862
 21
20.78865206683123
 31
0.0
  0
LINE
  5
5C2
  8
0
  6
CONTINUOUS
 62
     2
 10
423.5573804770676
 20
10.03864500659508
 30
0.0
 11
420.5262907837597
 21
8.288646362600744
 31
0.0
  0
LINE
  5
5C3
  8
0
  6
CONTINUOUS
 62
     2
 10
426.588473383111
 20
8.288649878383254
 30
0.0
 11
423.5573919659807
 21
10.0386475239966
 31
0.0
  0
LINE
  5
5C4
  8
0
  6
CONTINUOUS
 62
     2
 10
420.5262845106315
 20
8.288655047063472
 30
0.0
 11
420.5262845106315
 21
4.788655047063472
 31
0.0
  0
LINE
  5
5C5
  8
0
  6
CONTINUOUS
 62
     2
 10
420.5262732095384
 20
4.788683492631904
 30
0.0
 11
423.5573651633895
 21
3.038681168050303
 31
0.0
  0
LINE
  5
5C6
  8
0
  6
CONTINUOUS
 62
     2
 10
423.5573765765394
 20
3.038678734269652
 30
0.0
 11
426.5884656439985
 21
4.788678421345267
 31
0.0
  0
LINE
  5
5C7
  8
0
  6
CONTINUOUS
 62
     2
 10
426.5884640760612
 20
4.788655047063472
 30
0.0
 11
426.5884640760612
 21
8.288653139714839
 31
0.0
  0
LINE
  5
5C8
  8
0
  6
CONTINUOUS
 62
     2
 10
521.4182412432201
 20
22.53865841440576
 30
0.0
 11
518.3871515499122
 21
20.78865977041143
 31
0.0
  0
LINE
  5
5C9
  8
0
  6
CONTINUOUS
 62
     2
 10
524.449334247169
 20
20.78861453253104
 30
0.0
 11
521.4182330082961
 21
22.53862362224574
 31
0.0
  0
LINE
  5
5CA
  8
0
  6
CONTINUOUS
 62
     2
 10
518.3871701307487
 20
20.78865397417987
 30
0.0
 11
518.3871701307487
 21
17.28865492785418
 31
0.0
  0
LINE
  5
5CB
  8
0
  6
CONTINUOUS
 62
     2
 10
518.3871869061002
 20
17.28864293903872
 30
0.0
 11
521.418262341829
 21
15.53865015120256
 31
0.0
  0
LINE
  5
5CC
  8
0
  6
CONTINUOUS
 62
     2
 10
521.4182407042174
 20
15.5386735920488
 30
0.0
 11
524.4493297716765
 21
17.28867327912441
 31
0.0
  0
LINE
  5
5CD
  8
0
  6
CONTINUOUS
 62
     2
 10
524.4493344373893
 20
17.28865302050555
 30
0.0
 11
524.4493344373893
 21
20.78865206683123
 31
0.0
  0
LINE
  5
5CE
  8
0
  6
CONTINUOUS
 62
     2
 10
543.0688837856678
 20
10.03865666044295
 30
0.0
 11
540.03779409236
 21
8.288658016448622
 31
0.0
  0
LINE
  5
5CF
  8
0
  6
CONTINUOUS
 62
     2
 10
546.0999629927248
 20
8.288604101718207
 30
0.0
 11
543.068874968347
 21
10.038605562032
 31
0.0
  0
LINE
  5
5D0
  8
0
  6
CONTINUOUS
 62
     2
 10
540.0378048963737
 20
8.288655047063472
 30
0.0
 11
540.0378048963737
 21
4.788655047063472
 31
0.0
  0
LINE
  5
5D1
  8
0
  6
CONTINUOUS
 62
     2
 10
540.037780478511
 20
4.788662846995536
 30
0.0
 11
543.0688691287375
 21
3.038662429763022
 31
0.0
  0
LINE
  5
5D2
  8
0
  6
CONTINUOUS
 62
     2
 10
543.0688742493805
 20
3.038671805422851
 30
0.0
 11
546.0999633168397
 21
4.788671492498466
 31
0.0
  0
LINE
  5
5D3
  8
0
  6
CONTINUOUS
 62
     2
 10
546.0999692030143
 20
4.788655047063472
 30
0.0
 11
546.0999692030143
 21
8.288653139714839
 31
0.0
  0
LINE
  5
5D4
  8
0
  6
CONTINUOUS
 62
     2
 10
483.3131079813122
 20
88.53863130902452
 30
0.0
 11
480.2820182880044
 21
86.78863266503019
 31
0.0
  0
LINE
  5
5D5
  8
0
  6
CONTINUOUS
 62
     2
 10
486.3442178906773
 20
86.78862404211397
 30
0.0
 11
483.3131298662995
 21
88.53862550242776
 31
0.0
  0
LINE
  5
5D6
  8
0
  6
CONTINUOUS
 62
     2
 10
480.2820523328971
 20
86.78864062273944
 30
0.0
 11
480.2820523328971
 21
83.28864062273944
 31
0.0
  0
LINE
  5
5D7
  8
0
  6
CONTINUOUS
 62
     2
 10
480.2820303624855
 20
83.28864061495143
 30
0.0
 11
483.3131124054632
 21
81.5386440124171
 31
0.0
  0
LINE
  5
5D8
  8
0
  6
CONTINUOUS
 62
     2
 10
483.313132181611
 20
81.53864222316516
 30
0.0
 11
486.3442212490701
 21
83.28864191024077
 31
0.0
  0
LINE
  5
5D9
  8
0
  6
CONTINUOUS
 62
     2
 10
486.3442166395378
 20
83.28864062273944
 30
0.0
 11
486.3442166395378
 21
86.78864062273944
 31
0.0
  0
LINE
  5
5DA
  8
0
  6
CONTINUOUS
 62
     2
 10
483.3131162204126
 20
113.5386363750128
 30
0.0
 11
480.2820265271047
 21
111.7886377310184
 31
0.0
  0
LINE
  5
5DB
  8
0
  6
CONTINUOUS
 62
     2
 10
486.3442210453427
 20
111.7886462254135
 30
0.0
 11
483.3131330209649
 21
113.5386476857273
 31
0.0
  0
LINE
  5
5DC
  8
0
  6
CONTINUOUS
 62
     2
 10
480.2820523328971
 20
111.7886406227394
 30
0.0
 11
480.2820523328971
 21
108.2886406227394
 31
0.0
  0
LINE
  5
5DD
  8
0
  6
CONTINUOUS
 62
     2
 10
480.2820413476991
 20
108.2886534076474
 30
0.0
 11
483.3131233906768
 21
106.5386568051131
 31
0.0
  0
LINE
  5
5DE
  8
0
  6
CONTINUOUS
 62
     2
 10
483.3131221545264
 20
106.5386332160793
 30
0.0
 11
486.3442112219855
 21
108.2886329031549
 31
0.0
  0
LINE
  5
5DF
  8
0
  6
CONTINUOUS
 62
     2
 10
486.3442166395378
 20
108.2886406227394
 30
0.0
 11
486.3442166395378
 21
111.7886406227394
 31
0.0
  0
CIRCLE
  5
5E0
  8
0
  6
CONTINUOUS
 62
     2
 10
483.3131344862174
 20
-11.34633671795881
 30
0.0
 40
8.0
  0
CIRCLE
  5
5E1
  8
0
  6
CONTINUOUS
 62
     2
 10
445.2080166883659
 20
19.03865874255145
 30
0.0
 40
6.5
  0
CIRCLE
  5
5E2
  8
0
  6
CONTINUOUS
 62
     2
 10
423.5573819227409
 20
6.538658817057254
 30
0.0
 40
6.5
  0
CIRCLE
  5
5E3
  8
0
  6
CONTINUOUS
 62
     2
 10
521.41823702528
 20
19.03865874255145
 30
0.0
 40
6.5
  0
CIRCLE
  5
5E4
  8
0
  6
CONTINUOUS
 62
     2
 10
543.068871790905
 20
6.538658817057254
 30
0.0
 40
6.5
  0
CIRCLE
  5
5E5
  8
0
  6
CONTINUOUS
 62
     2
 10
483.3131344862174
 20
85.03864062273944
 30
0.0
 40
6.5
  0
CIRCLE
  5
5E6
  8
0
  6
CONTINUOUS
 62
     2
 10
483.3131344862174
 20
110.0386406227394
 30
0.0
 40
6.5
  0
TEXT
  5
5E7
  8
0
 62
     5
 10
454.5274192638588
 20
-26.46135746991193
 30
0.0
 40
5.0
  1
NIKKO
 41
0.635880610320819
  7
FDASTYLE1
 72
     5
 11
470.4244345218792
 21
-26.46135746991193
 31
0.0
  0
TEXT
  5
5E8
  8
0
 62
     5
 10
485.8845470495414
 20
-25.96135746991193
 30
0.0
 40
4.0
  1
MO3-6
 41
0.7674421177096604
  7
FDASTYLE1
 72
     5
 11
501.2333894037346
 21
-25.96135746991193
 31
0.0
  0
TEXT
  5
5E9
  8
0
 62
     5
 10
486.2416902132224
 20
-32.4613555625633
 30
0.0
 40
3.0
  1
0001
 41
0.6190477764350769
  7
FDASTYLE1
 72
     5
 11
493.6702635304433
 21
-32.4613555625633
 31
0.0
  0
TEXT
  5
5EA
  8
0
 62
     5
 10
553.2864516072448
 20
50.34126892155689
 30
0.0
 40
2.5
  1
F MAX   18KN
 50
120.0
 41
0.7578772143703342
  7
FDASTYLE1
 72
     5
 11
541.9182933916898
 21
70.03149653937972
 31
0.0
  0
TEXT
  5
5EB
  8
0
 62
     5
 10
556.7505476765807
 20
52.34126892155687
 30
0.0
 40
2.5
  1
ΣS MAX  36KN
 50
120.0
 41
0.6460330630949737
  7
FDASTYLE1
 72
     5
 11
546.8985434643823
 21
69.40544077346698
 31
0.0
  0
TEXT
  5
5EC
  8
0
 62
     5
 10
560.2146590047057
 20
54.34126892155689
 30
0.0
 40
2.5
  1
N MAX 4500 AT ΣS MAX
 50
120.0
 41
0.6445640188692571
  7
FDASTYLE1
 72
     5
 11
543.939417528257
 21
82.53081406421842
 31
0.0
  0
LINE
  5
5ED
  8
LAYER0001
  6
CONTINUOUS
 62
     7
 10
401.4370146558854
 20
-12.58341106483231
 30
0.0
 11
409.1318584795248
 21
-25.9112745849764
 31
0.0
  0
LINE
  5
5EE
  8
LAYER0001
  6
CONTINUOUS
 62
     7
 10
409.0813967291929
 20
4.531805507902511
 30
0.0
 11
395.0709787474268
 21
-3.557111227375842
 31
0.0
  0
LINE
  5
5EF
  8
LAYER0001
  6
CONTINUOUS
 62
     7
 10
414.5814049083244
 20
-4.994513176691493
 30
0.0
 11
400.5709968374331
 21
-13.08342418992497
 31
0.0
  0
LINE
  5
5F0
  8
LAYER0001
  6
CONTINUOUS
 62
     7
 10
219.0131161756706
 20
136.4073377136843
 30
0.0
 11
190.4574739351658
 21
136.4073377136843
 31
0.0
  0
LINE
  5
5F1
  8
LAYER0001
  6
CONTINUOUS
 62
     7
 10
231.3131344862174
 20
73.57858618780537
 30
0.0
 11
231.3131344862174
 21
137.4073377136843
 31
0.0
  0
LINE
  5
5F2
  8
LAYER0001
  6
CONTINUOUS
 62
     7
 10
219.0131161756706
 20
113.5785785584108
 30
0.0
 11
219.0131161756706
 21
137.4073377136843
 31
0.0
  0
LINE
  5
5F3
  8
LAYER0001
  6
CONTINUOUS
 62
     7
 10
283.3131344862175
 20
136.4073377136843
 30
0.0
 11
275.819360072155
 21
136.4073377136843
 31
0.0
  0
LINE
  5
5F4
  8
LAYER0001
  6
CONTINUOUS
 62
     7
 10
284.3131344862175
 20
27.76658682867451
 30
0.0
 11
297.6637776441764
 21
27.76658682867451
 31
0.0
  0
LINE
  5
5F5
  8
LAYER0001
  6
CONTINUOUS
 62
     7
 10
395.937015639362
 20
-3.057131138532256
 30
0.0
 11
401.4370146558854
 21
-12.58341106483231
 31
0.0
  0
LINE
  5
5F6
  8
LAYER0001
  6
CONTINUOUS
 62
     7
 10
231.3131344862174
 20
136.4073377136843
 30
0.0
 11
219.0131161756706
 21
136.4073377136843
 31
0.0
  0
INSERT
  5
5F7
  8
LAYER0001
  6
CONTINUOUS
  2
DC_GROUP_1
 10
0.0
 20
0.0
 30
0.0
  0
INSERT
  5
5F8
  8
LAYER0001
  6
CONTINUOUS
  2
DC_GROUP_2
 10
0.0
 20
0.0
 30
0.0
  0
INSERT
  5
5F9
  8
LAYER0001
  6
PHANTOM2
  2
DC_GROUP_3
 10
0.0
 20
0.0
 30
0.0
  0
INSERT
  5
5FA
  8
LAYER0001
  6
CONTINUOUS
  2
DC_GROUP_4
 10
0.0
 20
0.0
 30
0.0
  0
TEXT
  5
5FB
  8
LAYER0001
 62
     7
 10
404.3460689860323
 20
-14.42204615217101
 30
0.0
 40
4.0
  1
11H8
 50
-59.99999999999999
 41
0.6952380952380968
  7
FDASTYLE1
 72
     5
 11
409.9079737479371
 21
-24.05554778664936
 31
0.0
  0
TEXT
  5
5FC
  8
LAYER0001
 62
     7
 10
192.9929410047721
 20
137.1699904777173
 30
0.0
 40
4.0
  1
MAX21.3
 41
0.6802721088435371
  7
FDASTYLE1
 72
     5
 11
212.0405600523911
 21
137.1699904777173
 31
0.0
  0
TEXT
  5
5FD
  8
LAYER0001
 62
     7
 10
192.9929410047721
 20
131.242520801642
 30
0.0
 40
4.0
  1
ＭＩＮ 1.3
 41
0.6011080332409972
  7
FDASTYLE1
 72
     5
 11
211.2666252152984
 21
131.242520801642
 31
0.0
  0
INSERT
  5
5FE
  8
0
  6
CONTINUOUS
  2
DC_GROUP_5
 10
0.0
 20
0.0
 30
0.0
  0
INSERT
  5
5FF
  8
0
  6
CONTINUOUS
  2
DC_GROUP_6
 10
0.0
 20
0.0
 30
0.0
  0
INSERT
  5
600
  8
0
  6
CONTINUOUS
  2
DC_GROUP_7
 10
0.0
 20
0.0
 30
0.0
  0
INSERT
  5
601
  8
0
  6
CONTINUOUS
  2
DC_GROUP_8
 10
0.0
 20
0.0
 30
0.0
  0
INSERT
  5
602
  8
0
  6
CONTINUOUS
  2
DC_GROUP_9
 10
0.0
 20
0.0
 30
0.0
  0
INSERT
  5
603
  8
0
  6
CONTINUOUS
  2
DC_GROUP_10
 10
0.0
 20
0.0
 30
0.0
  0
INSERT
  5
604
  8
0
  6
CONTINUOUS
  2
DC_GROUP_13
 10
0.0
 20
0.0
 30
0.0
  0
INSERT
  5
605
  8
0
  6
CONTINUOUS
  2
DC_GROUP_16
 10
0.0
 20
0.0
 30
0.0
  0
INSERT
  5
606
  8
0
  6
CONTINUOUS
  2
DC_GROUP_19
 10
0.0
 20
0.0
 30
0.0
  0
INSERT
  5
607
  8
0
  6
CONTINUOUS
  2
DC_GROUP_21
 10
0.0
 20
0.0
 30
0.0
  0
INSERT
  5
608
  8
0
  6
CONTINUOUS
  2
DC_GROUP_24
 10
0.0
 20
0.0
 30
0.0
  0
INSERT
  5
609
  8
0
  6
CONTINUOUS
  2
DC_GROUP_26
 10
0.0
 20
0.0
 30
0.0
  0
INSERT
  5
60A
  8
0
  6
CONTINUOUS
  2
DC_GROUP_29
 10
0.0
 20
0.0
 30
0.0
  0
INSERT
  5
60B
  8
LAYER0001
  6
CONTINUOUS
  2
DC_GROUP_31
 10
0.0
 20
0.0
 30
0.0
  0
INSERT
  5
60C
  8
LAYER0001
  6
CONTINUOUS
  2
DC_GROUP_33
 10
0.0
 20
0.0
 30
0.0
  0
INSERT
  5
60D
  8
LAYER0001
  6
CONTINUOUS
  2
DC_GROUP_35
 10
0.0
 20
0.0
 30
0.0
  0
INSERT
  5
60E
  8
LAYER0001
  6
CONTINUOUS
  2
DC_GROUP_38
 10
0.0
 20
0.0
 30
0.0
  0
INSERT
  5
60F
  8
LAYER0001
  6
CONTINUOUS
  2
DC_GROUP_41
 10
0.0
 20
0.0
 30
0.0
  0
INSERT
  5
610
  8
LAYER0001
  6
CONTINUOUS
  2
DC_GROUP_44
 10
0.0
 20
0.0
 30
0.0
  0
INSERT
  5
611
  8
LAYER0001
  6
CONTINUOUS
  2
DC_GROUP_47
 10
0.0
 20
0.0
 30
0.0
  0
INSERT
  5
612
  8
LAYER0001
  6
CONTINUOUS
  2
DC_GROUP_50
 10
0.0
 20
0.0
 30
0.0
  0
INSERT
  5
613
  8
LAYER0001
  6
CONTINUOUS
  2
DC_GROUP_53
 10
0.0
 20
0.0
 30
0.0
  0
INSERT
  5
614
  8
LAYER0001
  6
CONTINUOUS
  2
DC_GROUP_56
 10
0.0
 20
0.0
 30
0.0
  0
INSERT
  5
615
  8
LAYER0001
  6
CONTINUOUS
  2
DC_GROUP_59
 10
0.0
 20
0.0
 30
0.0
  0
INSERT
  5
616
  8
LAYER0001
  6
CONTINUOUS
  2
DC_GROUP_62
 10
0.0
 20
0.0
 30
0.0
  0
INSERT
  5
617
  8
LAYER0001
  6
CONTINUOUS
  2
DC_GROUP_64
 10
0.0
 20
0.0
 30
0.0
  0
INSERT
  5
618
  8
LAYER0001
  6
CONTINUOUS
  2
DC_GROUP_66
 10
0.0
 20
0.0
 30
0.0
  0
INSERT
  5
619
  8
LAYER0001
  6
CONTINUOUS
  2
DC_GROUP_69
 10
0.0
 20
0.0
 30
0.0
  0
INSERT
  5
61A
  8
LAYER0001
  6
CONTINUOUS
  2
DC_GROUP_72
 10
0.0
 20
0.0
 30
0.0
  0
INSERT
  5
61B
  8
LAYER0001
  6
CONTINUOUS
  2
DC_GROUP_75
 10
0.0
 20
0.0
 30
0.0
  0
INSERT
  5
61C
  8
LAYER0001
  6
CONTINUOUS
  2
DC_GROUP_78
 10
0.0
 20
0.0
 30
0.0
  0
INSERT
  5
61D
  8
LAYER0001
  6
CONTINUOUS
  2
DC_GROUP_81
 10
0.0
 20
0.0
 30
0.0
  0
INSERT
  5
61E
  8
LAYER0001
  6
CONTINUOUS
  2
DC_GROUP_84
 10
0.0
 20
0.0
 30
0.0
  0
INSERT
  5
61F
  8
LAYER0001
  6
CONTINUOUS
  2
DC_GROUP_87
 10
0.0
 20
0.0
 30
0.0
  0
INSERT
  5
620
  8
LAYER0001
  6
CONTINUOUS
  2
DC_GROUP_90
 10
0.0
 20
0.0
 30
0.0
  0
INSERT
  5
621
  8
LAYER0001
  6
CONTINUOUS
  2
DC_GROUP_92
 10
0.0
 20
0.0
 30
0.0
  0
INSERT
  5
622
  8
LAYER0001
  6
CONTINUOUS
  2
DC_GROUP_94
 10
0.0
 20
0.0
 30
0.0
  0
INSERT
  5
623
  8
LAYER0001
  6
CONTINUOUS
  2
DC_GROUP_97
 10
0.0
 20
0.0
 30
0.0
  0
INSERT
  5
624
  8
LAYER0001
  6
CONTINUOUS
  2
DC_GROUP_100
 10
0.0
 20
0.0
 30
0.0
  0
INSERT
  5
625
  8
LAYER0001
  6
CONTINUOUS
  2
DC_GROUP_103
 10
0.0
 20
0.0
 30
0.0
  0
INSERT
  5
626
  8
LAYER0001
  6
CONTINUOUS
  2
DC_GROUP_106
 10
0.0
 20
0.0
 30
0.0
  0
INSERT
  5
627
  8
LAYER0001
  6
CONTINUOUS
  2
DC_GROUP_109
 10
0.0
 20
0.0
 30
0.0
  0
INSERT
  5
628
  8
LAYER0001
  6
CONTINUOUS
  2
DC_GROUP_111
 10
0.0
 20
0.0
 30
0.0
  0
INSERT
  5
629
  8
LAYER0001
  6
CONTINUOUS
  2
DC_GROUP_112
 10
0.0
 20
0.0
 30
0.0
  0
INSERT
  5
62A
  8
LAYER0001
  6
CONTINUOUS
  2
DC_GROUP_113
 10
0.0
 20
0.0
 30
0.0
  0
TEXT
  5
62B
  8
0
 62
     7
 10
613.7570263132909
 20
-142.194187899393
 30
0.0
 40
3.0
  1
標　準
 41
0.6666666666666604
  7
FDASTYLE1
 72
     5
 11
620.9570263132908
 21
-142.194187899393
 31
0.0
  0
TEXT
  5
62C
  8
0
 62
     7
 10
306.2938632571874
 20
76.16164850076518
 30
0.0
 40
3.2
  1
ＭＩＮ
 50
90.0
 41
0.6506850996024314
  7
FDASTYLE1
 72
     5
 11
306.2938632571874
 21
83.65754084818519
 31
0.0
  0
LINE
  5
62D
  8
0
  6
DIVIDE
 62
     9
 10
220.3131192274284
 20
71.03858618780537
 30
0.0
 11
220.3131192274284
 21
46.02477316900654
 31
0.0
  0
LINE
  5
62E
  8
0
  6
DIVIDE
 62
     9
 10
280.3131344862175
 20
71.03858618780537
 30
0.0
 11
280.3131344862175
 21
46.02477316900654
 31
0.0
  0
LINE
  5
62F
  8
0
  6
DIVIDE
 62
     9
 10
220.3131521327084
 20
71.03859684790909
 30
0.0
 11
220.8131526635031
 21
71.53859737870384
 31
0.0
  0
LINE
  5
630
  8
0
  6
DIVIDE
 62
     9
 10
279.813143479055
 20
71.53857950844038
 30
0.0
 11
280.3131440098498
 21
71.03857897764563
 31
0.0
  0
LINE
  5
631
  8
0
  6
DIVIDE
 62
     9
 10
275.7320035047721
 20
71.5385709290163
 30
0.0
 11
279.8131344862175
 21
71.5385709290163
 31
0.0
  0
VIEWPORT
  5
48
 67
     1
  8
0
 10
356.5723937454768
 20
0.0
 30
0.0
 40
1662.0
 41
1140.0
 68
     1
 69
     1
1001
ACAD
1000
MVIEW
1002
{
1070
    16
1010
0.0
1020
0.0
1030
0.0
1020
0.0
1030
0.0
1010
0.0
1020
0.0
1030
1.0
1020
0.0
1030
1.0
1040
0.0
1040
1140.0
1040
356.5723937454768
1040
0.0
1040
50.0
1040
0.0
1040
0.0
1070
     0
1070
   100
1070
     0
1070
     1
1070
     0
1070
     0
1070
     0
1070
     0
1040
0.0
1040
0.0
1040
0.0
1040
0.5
1040
0.5
1040
0.0
1040
0.0
1070
     0
1002
{
1002
}
1002
}
  0
ENDSEC
  0
EOF
