  0
SECTION
  2
HEADER
  9
$ACADVER
  1
AC1009
  9
$DWGCODEPAGE
  3
ansi_932
  9
$INSBASE
 10
0.0
 20
0.0
 30
0.0
  9
$EXTMIN
 10
-831.0
 20
-569.9999999999999
 30
0.0
  9
$EXTMAX
 10
831.0
 20
569.9999999999999
 30
0.0
  9
$LIMMIN
 10
-297.0
 20
-210.0
  9
$LIMMAX
 10
297.0
 20
210.0
  9
$ORTHOMODE
 70
     0
  9
$REGENMODE
 70
     1
  9
$FILLMODE
 70
     1
  9
$QTEXTMODE
 70
     0
  9
$MIRRTEXT
 70
     1
  9
$DRAGMODE
 70
     2
  9
$LTSCALE
 40
1.0
  9
$OSMODE
 70
    37
  9
$ATTMODE
 70
     1
  9
$TEXTSIZE
 40
0.2
  9
$TRACEWID
 40
0.05
  9
$TEXTSTYLE
  7
STANDARD
  9
$CLAYER
  8
0
  9
$CELTYPE
  6
BYLAYER
  9
$CECOLOR
 62
   256
  9
$DIMSCALE
 40
1.0
  9
$DIMASZ
 40
2.5
  9
$DIMEXO
 40
0.0625
  9
$DIMDLI
 40
0.38
  9
$DIMRND
 40
0.0
  9
$DIMDLE
 40
0.0
  9
$DIMEXE
 40
0.18
  9
$DIMTP
 40
0.0
  9
$DIMTM
 40
0.0
  9
$DIMTXT
 40
0.18
  9
$DIMCEN
 40
0.09
  9
$DIMTSZ
 40
0.0
  9
$DIMTOL
 70
     0
  9
$DIMLIM
 70
     0
  9
$DIMTIH
 70
     1
  9
$DIMTOH
 70
     1
  9
$DIMSE1
 70
     0
  9
$DIMSE2
 70
     0
  9
$DIMTAD
 70
     3
  9
$DIMZIN
 70
     0
  9
$DIMBLK
  1

  9
$DIMASO
 70
     1
  9
$DIMSHO
 70
     1
  9
$DIMPOST
  1

  9
$DIMAPOST
  1

  9
$DIMALT
 70
     0
  9
$DIMALTD
 70
     2
  9
$DIMALTF
 40
25.4
  9
$DIMLFAC
 40
1.0
  9
$DIMTOFL
 70
     0
  9
$DIMTVP
 40
0.0
  9
$DIMTIX
 70
     0
  9
$DIMSOXD
 70
     0
  9
$DIMSAH
 70
     0
  9
$DIMBLK1
  1

  9
$DIMBLK2
  1

  9
$DIMSTYLE
  2
STANDARD
  9
$DIMCLRD
 70
     0
  9
$DIMCLRE
 70
     0
  9
$DIMCLRT
 70
     0
  9
$DIMTFAC
 40
1.0
  9
$DIMGAP
 40
0.09
  9
$LUNITS
 70
     2
  9
$LUPREC
 70
     4
  9
$SKETCHINC
 40
0.1
  9
$FILLETRAD
 40
0.5
  9
$AUNITS
 70
     0
  9
$AUPREC
 70
     0
  9
$MENU
  1
.
  9
$ELEVATION
 40
0.0
  9
$PELEVATION
 40
0.0
  9
$THICKNESS
 40
0.0
  9
$LIMCHECK
 70
     0
  9
$CHAMFERA
 40
0.5
  9
$CHAMFERB
 40
0.5
  9
$SKPOLY
 70
     0
  9
$TDCREATE
 40
2456328.605332037
  9
$TDUPDATE
 40
2456328.605332049
  9
$TDINDWG
 40
0.0000000116
  9
$TDUSRTIMER
 40
0.0000000116
  9
$USRTIMER
 70
     1
  9
$ANGBASE
 50
0.0
  9
$ANGDIR
 70
     0
  9
$PDMODE
 70
     0
  9
$PDSIZE
 40
1.0
  9
$PLINEWID
 40
0.0
  9
$COORDS
 70
     1
  9
$SPLFRAME
 70
     0
  9
$SPLINETYPE
 70
     6
  9
$SPLINESEGS
 70
     8
  9
$ATTDIA
 70
     0
  9
$ATTREQ
 70
     1
  9
$HANDLING
 70
     1
  9
$HANDSEED
  5
747
  9
$SURFTAB1
 70
     6
  9
$SURFTAB2
 70
     6
  9
$SURFTYPE
 70
     6
  9
$SURFU
 70
     6
  9
$SURFV
 70
     6
  9
$UCSNAME
  2

  9
$UCSORG
 10
0.0
 20
0.0
 30
0.0
  9
$UCSXDIR
 10
1.0
 20
0.0
 30
0.0
  9
$UCSYDIR
 10
0.0
 20
1.0
 30
0.0
  9
$PUCSNAME
  2

  9
$PUCSORG
 10
0.0
 20
0.0
 30
0.0
  9
$PUCSXDIR
 10
1.0
 20
0.0
 30
0.0
  9
$PUCSYDIR
 10
0.0
 20
1.0
 30
0.0
  9
$USERI1
 70
     0
  9
$USERI2
 70
     0
  9
$USERI3
 70
     0
  9
$USERI4
 70
     0
  9
$USERI5
 70
     0
  9
$USERR1
 40
0.0
  9
$USERR2
 40
0.0
  9
$USERR3
 40
0.0
  9
$USERR4
 40
0.0
  9
$USERR5
 40
0.0
  9
$WORLDVIEW
 70
     1
  9
$SHADEDGE
 70
     3
  9
$SHADEDIF
 70
    70
  9
$TILEMODE
 70
     1
  9
$MAXACTVP
 70
    64
  9
$PLIMCHECK
 70
     0
  9
$PEXTMIN
 10
1.000000000000000E+20
 20
1.000000000000000E+20
 30
1.000000000000000E+20
  9
$PEXTMAX
 10
-1.000000000000000E+20
 20
-1.000000000000000E+20
 30
-1.000000000000000E+20
  9
$PLIMMIN
 10
0.0
 20
0.0
  9
$PLIMMAX
 10
12.0
 20
9.0
  9
$UNITMODE
 70
     0
  9
$VISRETAIN
 70
     0
  9
$PLINEGEN
 70
     1
  9
$PSLTSCALE
 70
     0
  0
ENDSEC
  0
SECTION
  2
TABLES
  0
TABLE
  2
VPORT
 70
     1
  0
VPORT
  2
*ACTIVE
 70
     0
 10
0.0
 20
0.0
 11
1.0
 21
1.0
 12
0.0
 22
0.0
 13
0.0
 23
0.0
 14
0.5
 24
0.5
 15
0.5
 25
0.5
 16
0.0
 26
0.0
 36
1.0
 17
-0.0000000000000036
 27
0.0
 37
0.0
 40
387.6
 41
1.457894736842106
 42
50.0
 43
0.0
 44
0.0
 50
0.0
 51
0.0
 71
     0
 72
  1000
 73
     1
 74
     1
 75
     0
 76
     0
 77
     0
 78
     0
  0
ENDTAB
  0
TABLE
  2
LTYPE
 70
    28
  0
LTYPE
  2
CONTINUOUS
 70
     0
  3
Solid line
 72
    65
 73
     0
 40
0.0
  0
LTYPE
  2
HIDDENX2
 70
     0
  3
CADPAC LINETYPE
 72
    65
 73
     2
 40
10.30674846625766
 49
7.730061349693244
 49
-2.576687116564415
  0
LTYPE
  2
HIDDEN
 70
     0
  3
CADPAC LINETYPE
 72
    65
 73
     2
 40
7.730061349693244
 49
5.15337423312883
 49
-2.576687116564415
  0
LTYPE
  2
HIDDEN2
 70
     0
  3
CADPAC LINETYPE
 72
    65
 73
     2
 40
6.441717791411037
 49
3.865030674846622
 49
-2.576687116564415
  0
LTYPE
  2
DASHED
 70
     0
  3
CADPAC LINETYPE
 72
    65
 73
     2
 40
7.214723926380373
 49
5.15337423312883
 49
-2.061349693251543
  0
LTYPE
  2
DASHED2
 70
     0
  3
CADPAC LINETYPE
 72
    65
 73
     2
 40
4.638036809815958
 49
3.092024539877286
 49
-1.546012269938672
  0
LTYPE
  2
DASHEDX2
 70
     0
  3
CADPAC LINETYPE
 72
    65
 73
     2
 40
12.3680981595092
 49
10.30674846625766
 49
-2.061349693251543
  0
LTYPE
  2
DOTX2
 70
     0
  3
CADPAC LINETYPE
 72
    65
 73
     2
 40
4.509202453987768
 49
0.0
 49
-4.509202453987768
  0
LTYPE
  2
DOT
 70
     0
  3
CADPAC LINETYPE
 72
    65
 73
     2
 40
3.607361963190215
 49
0.0
 49
-3.607361963190215
  0
LTYPE
  2
DOT2
 70
     0
  3
CADPAC LINETYPE
 72
    65
 73
     2
 40
2.705521472392661
 49
0.0
 49
-2.705521472392661
  0
LTYPE
  2
CENTERX2
 70
     0
  3
CADPAC LINETYPE
 72
    65
 73
     4
 40
15.46012269938649
 49
6.441717791411037
 49
-3.220858895705518
 49
2.576687116564415
 49
-3.220858895705518
  0
LTYPE
  2
CENTER
 70
     0
  3
CADPAC LINETYPE
 72
    65
 73
     4
 40
11.85276073619631
 49
5.15337423312883
 49
-2.576687116564415
 49
1.546012269938649
 49
-2.576687116564415
  0
LTYPE
  2
CENTER2
 70
     0
  3
CADPAC LINETYPE
 72
    65
 73
     4
 40
8.245398773006126
 49
3.865030674846622
 49
-1.932515337423311
 49
0.515337423312883
 49
-1.932515337423311
  0
LTYPE
  2
DASHDOTX2
 70
     0
  3
CADPAC LINETYPE
 72
    65
 73
     4
 40
24.73619631901846
 49
12.3680981595092
 49
-4.122699386503086
 49
4.122699386503086
 49
-4.122699386503086
  0
LTYPE
  2
DASHDOT
 70
     0
  3
CADPAC LINETYPE
 72
    65
 73
     4
 40
12.36809815950926
 49
6.18404907975463
 49
-2.061349693251543
 49
2.061349693251543
 49
-2.061349693251543
  0
LTYPE
  2
DASHDOT2
 70
     0
  3
CADPAC LINETYPE
 72
    65
 73
     4
 40
7.936196319018441
 49
4.638036809815972
 49
-1.546012269938657
 49
0.2061349693251543
 49
-1.546012269938657
  0
LTYPE
  2
DIVIDEX2
 70
     0
  3
CADPAC LINETYPE
 72
    65
 73
     6
 40
32.98159509202463
 49
12.3680981595092
 49
-4.122699386503086
 49
4.122699386503086
 49
-4.122699386503086
 49
4.122699386503086
 49
-4.122699386503086
  0
LTYPE
  2
DIVIDE
 70
     0
  3
CADPAC LINETYPE
 72
    65
 73
     6
 40
16.49079754601235
 49
6.18404907975463
 49
-2.061349693251543
 49
2.061349693251543
 49
-2.061349693251543
 49
2.061349693251543
 49
-2.061349693251543
  0
LTYPE
  2
DIVIDE2
 70
     0
  3
CADPAC LINETYPE
 72
    65
 73
     6
 40
12.36809815950926
 49
4.638036809815972
 49
-1.546012269938657
 49
1.546012269938657
 49
-1.546012269938657
 49
1.546012269938657
 49
-1.546012269938657
  0
LTYPE
  2
BORDERX2
 70
     0
  3
CADPAC LINETYPE
 72
    65
 73
     6
 40
22.54601226993863
 49
6.441717791411037
 49
-3.220858895705518
 49
6.441717791411037
 49
-3.220858895705518
 49
0.0
 49
-3.220858895705518
  0
LTYPE
  2
BORDER
 70
     0
  3
CADPAC LINETYPE
 72
    65
 73
     6
 40
18.0368098159509
 49
5.15337423312883
 49
-2.576687116564415
 49
5.15337423312883
 49
-2.576687116564415
 49
0.0
 49
-2.576687116564415
  0
LTYPE
  2
BORDER2
 70
     0
  3
CADPAC LINETYPE
 72
    65
 73
     6
 40
13.398773006135
 49
4.122699386503086
 49
-2.576687116564415
 49
1.546012269938672
 49
-2.576687116564415
 49
0.0
 49
-2.576687116564415
  0
LTYPE
  2
PHANTOMX2
 70
     0
  3
CADPAC LINETYPE
 72
    65
 73
     6
 40
19.32515337423311
 49
6.441717791411037
 49
-2.576687116564415
 49
2.576687116564415
 49
-2.576687116564415
 49
2.576687116564415
 49
-2.576687116564415
  0
LTYPE
  2
PHANTOM
 70
     0
  3
CADPAC LINETYPE
 72
    65
 73
     6
 40
15.97546012269937
 49
5.15337423312883
 49
-2.576687116564415
 49
1.546012269938649
 49
-2.576687116564415
 49
1.546012269938649
 49
-2.576687116564415
  0
LTYPE
  2
PHANTOM2
 70
     0
  3
CADPAC LINETYPE
 72
    65
 73
     6
 40
13.6564417177914
 49
3.865030674846622
 49
-2.576687116564415
 49
1.030674846625766
 49
-2.576687116564415
 49
1.030674846625766
 49
-2.576687116564415
  0
LTYPE
  2
ACAD_ISO06W100
 70
     0
  3
CADPAC LINETYPE
 72
    65
 73
     8
 40
27.31288343558288
 49
12.3680981595092
 49
-2.576687116564415
 49
1.546012269938672
 49
-2.576687116564415
 49
1.546012269938672
 49
-2.576687116564415
 49
1.546012269938672
 49
-2.576687116564415
  0
LTYPE
  2
ACAD_ISO13W100
 70
     0
  3
CADPAC LINETYPE
 72
    65
 73
     8
 40
20.61349693251532
 49
5.15337423312883
 49
-2.576687116564415
 49
5.15337423312883
 49
-2.576687116564415
 49
0.0
 49
-2.576687116564415
 49
0.0
 49
-2.576687116564415
  0
LTYPE
  2
ACAD_ISO14W100
 70
     0
  3
CADPAC LINETYPE
 72
    65
 73
     8
 40
15.46012269938649
 49
5.15337423312883
 49
-2.576687116564415
 49
0.0
 49
-2.576687116564415
 49
0.0
 49
-2.576687116564415
 49
0.0
 49
-2.576687116564415
  0
ENDTAB
  0
TABLE
  2
LAYER
 70
     3
  0
LAYER
  2
0
 70
     0
 62
     7
  6
CONTINUOUS
  0
LAYER
  2
LAYER0014
 70
     0
 62
     7
  6
CONTINUOUS
  0
LAYER
  2
ZUWAKU
 70
     0
 62
     7
  6
CONTINUOUS
  0
ENDTAB
  0
TABLE
  2
STYLE
 70
     5
  0
STYLE
  2
STANDARD
 70
     0
 40
0.0
 41
1.0
 50
0.0
 71
     0
 42
0.2
  3
txt
  4

  0
STYLE
  2
FDASTYLE1
 70
     0
 40
0.0
 41
0.7999999999999974
 50
0.0
 71
     0
 42
0.2
  3
txt.shx
  4
bigfont
  0
STYLE
  2
FDASTYLE0
 70
     4
 40
0.0
 41
0.8
 50
0.0
 71
     0
 42
0.2
  3
txt.shx
  4
bigfont
  0
STYLE
  2
FDASTYLE2
 70
     0
 40
0.0
 41
0.8123476848090983
 50
0.0
 71
     0
 42
0.2
  3
MSMINCHO.TTC
  4

  0
STYLE
  2
FDASTYLE3
 70
     0
 40
0.0
 41
0.77
 50
0.0
 71
     0
 42
0.2
  3
MSGOTHIC.TTC
  4

  0
ENDTAB
  0
TABLE
  2
VIEW
 70
     0
  0
ENDTAB
  0
TABLE
  2
UCS
 70
     0
  0
ENDTAB
  0
TABLE
  2
APPID
 70
     2
  0
APPID
  2
ACAD
 70
     0
  0
APPID
  2
DAFUSIONOUT
 70
     0
  0
ENDTAB
  0
TABLE
  2
DIMSTYLE
 70
     1
  0
DIMSTYLE
  2
STANDARD
 70
     0
  3

  4

  5

  6

  7

 40
1.0
 41
0.18
 42
0.0625
 43
0.38
 44
0.18
 45
0.0
 46
0.0
 47
0.0
 48
0.0
140
0.18
141
0.09
142
0.0
143
25.4
144
1.0
145
0.0
146
1.0
147
0.09
 71
     0
 72
     0
 73
     1
 74
     1
 75
     0
 76
     0
 77
     0
 78
     0
170
     0
171
     2
172
     0
173
     0
174
     0
175
     0
176
     0
177
     0
178
     0
  0
ENDTAB
  0
ENDSEC
  0
SECTION
  2
BLOCKS
  0
BLOCK
  8
0
  2
$MODEL_SPACE
 70
     0
 10
0.0
 20
0.0
 30
0.0
  3
$MODEL_SPACE
  1

  0
ENDBLK
  5
21
  8
0
  0
BLOCK
 67
     1
  8
0
  2
$PAPER_SPACE
 70
     0
 10
0.0
 20
0.0
 30
0.0
  3
$PAPER_SPACE
  1

  0
ENDBLK
  5
1D
 67
     1
  8
0
  0
BLOCK
  8
0
  2
DA_IMAGEDIMGROUP_1
 70
     0
 10
0.0
 20
0.0
 30
0.0
  3
DA_IMAGEDIMGROUP_1
  1

  0
LINE
  5
AF
  8
LAYER0014
  6
CONTINUOUS
 62
     7
 10
-256.2030445119045
 20
18.7674703498572
 30
0.0
 11
-268.38487975773
 21
15.50334986198719
 31
0.0
  0
ARC
  5
B0
  8
LAYER0014
  6
CONTINUOUS
 62
     7
 10
-159.5718346842337
 20
44.65971566551194
 30
0.0
 40
111.6515502929688
 50
179.999991348578
 51
195.0000020112748
  0
INSERT
  5
B7
  8
LAYER0014
 62
     7
  2
_OPEN30
 10
-271.2233849772011
 20
44.659732524427
 30
0.0
 41
1.50000139391263
 42
1.499998500689492
 50
91.38553954991895
  0
INSERT
  5
B8
  8
LAYER0014
 62
     7
  2
_OPEN30
 10
-267.4189496430237
 20
15.76216424867283
 30
0.0
 41
1.50000139391263
 42
1.499998500689492
 50
283.6144538099346
  0
TEXT
  5
BA
  8
LAYER0014
 62
     7
 10
-269.4484069863009
 20
36.11739714084886
 30
0.0
 40
4.0
  1
 15ﾟ
 50
-82.49999999999997
 41
0.7999999999999974
  7
FDASTYLE1
 72
     5
 11
-267.7776717258843
 21
23.42690291526413
 31
0.0
  0
ENDBLK
  5
4E
  8
0
  0
BLOCK
  8
0
  2
DA_IMAGEDIMGROUP_2
 70
     0
 10
0.0
 20
0.0
 30
0.0
  3
DA_IMAGEDIMGROUP_2
  1

  0
LINE
  5
BB
  8
LAYER0014
  6
CONTINUOUS
 62
     7
 10
-230.3107901467902
 20
-26.07923366215742
 30
0.0
 11
-239.2285014591339
 21
-34.99696902915333
 31
0.0
  0
ARC
  5
BC
  8
LAYER0014
  6
CONTINUOUS
 62
     7
 10
-159.5718194254446
 20
44.65972710960374
 30
0.0
 40
111.6515655517578
 50
195.0000056537405
 51
224.9999996583773
  0
INSERT
  5
BD
  8
LAYER0014
 62
     7
  2
_OPEN30
 10
-267.4189472859879
 20
15.76216488733135
 30
0.0
 41
1.50000139391263
 42
1.499998500689492
 50
105.384880409442
  0
INSERT
  5
BE
  8
LAYER0014
 62
     7
  2
_OPEN30
 10
-238.5213990279191
 20
-34.28985155140637
 30
0.0
 41
1.50000139391263
 42
1.499998500689492
 50
314.6151249026774
  0
TEXT
  5
BF
  8
LAYER0014
 62
     7
 10
-257.8155275163909
 20
-5.280301013541704
 30
0.0
 40
4.0
  1
 30ﾟ
 50
-59.99999999999999
 41
0.8000000000000019
  7
FDASTYLE1
 72
     5
 11
-251.4155275163909
 21
-16.36542618198254
 31
0.0
  0
ENDBLK
  5
51
  8
0
  0
BLOCK
  8
0
  2
DC_GROUP_1
 70
     0
 10
0.0
 20
0.0
 30
0.0
  3
DC_GROUP_1
  1

  0
CIRCLE
  5
C0
  8
LAYER0014
  6
CONTINUOUS
 62
     3
 10
-224.2581750162649
 20
22.05993844383225
 30
0.0
 40
4.0
  0
TEXT
  5
C1
  8
LAYER0014
 62
     7
 10
-225.3250083693075
 20
20.05993844383225
 30
0.0
 40
4.0
  1
引
 41
0.6666666666666643
  7
FDASTYLE1
 72
     5
 11
-222.1250083693075
 21
20.05993844383225
 31
0.0
  0
ENDBLK
  5
54
  8
0
  0
BLOCK
  8
0
  2
DC_GROUP_2
 70
     0
 10
0.0
 20
0.0
 30
0.0
  3
DC_GROUP_2
  1

  0
CIRCLE
  5
C2
  8
LAYER0014
  6
CONTINUOUS
 62
     3
 10
-204.2385827311087
 20
-7.025117861099389
 30
0.0
 40
4.0
  0
TEXT
  5
C3
  8
LAYER0014
 62
     7
 10
-205.3054160841513
 20
-9.025117861099389
 30
0.0
 40
4.0
  1
押
 41
0.6666666666666643
  7
FDASTYLE1
 72
     5
 11
-202.1054160841513
 21
-9.025117861099389
 31
0.0
  0
ENDBLK
  5
57
  8
0
  0
BLOCK
  8
0
  2
DA_IMAGEDIMGROUP_3
 70
     0
 10
0.0
 20
0.0
 30
0.0
  3
DA_IMAGEDIMGROUP_3
  1

  0
LINE
  5
C4
  8
LAYER0014
  6
CONTINUOUS
 62
     7
 10
-51.53536709390171
 20
44.65971566551184
 30
0.0
 11
-46.9202157267142
 21
44.65971566551185
 31
0.0
  0
LINE
  5
C5
  8
LAYER0014
  6
CONTINUOUS
 62
     7
 10
-108.0518028901734
 20
133.8949610986621
 30
0.0
 11
-103.2460105946471
 21
142.218837375738
 31
0.0
  0
ARC
  5
C6
  8
LAYER0014
  6
CONTINUOUS
 62
     7
 10
-159.5717889078665
 20
44.65971566551194
 30
0.0
 40
111.6515731811523
 50
0.0
 51
60.00000166965211
  0
INSERT
  5
C7
  8
LAYER0014
 62
     7
  2
_OPEN30
 10
-47.92021572671413
 20
44.65971566551194
 30
0.0
 41
1.50000139391263
 42
1.499998500689492
 50
270.3848747294008
  0
INSERT
  5
C8
  8
LAYER0014
 62
     7
  2
_OPEN30
 10
-103.7460051350168
 20
141.3528160397023
 30
0.0
 41
1.50000139391263
 42
1.499998500689492
 50
149.6151269402519
  0
TEXT
  5
C9
  8
LAYER0014
 62
     7
 10
-63.66455210724079
 20
105.0466467809699
 30
0.0
 40
4.0
  1
60ﾟ
 50
-59.99999999999999
 41
0.800000000000001
  7
FDASTYLE1
 72
     5
 11
-58.86455210724079
 21
96.7328029046393
 31
0.0
  0
ENDBLK
  5
5A
  8
0
  0
BLOCK
  8
0
  2
DA_IMAGEDIMGROUP_4
 70
     0
 10
0.0
 20
0.0
 30
0.0
  3
DA_IMAGEDIMGROUP_4
  1

  0
LINE
  5
CA
  8
LAYER0014
  6
CONTINUOUS
 62
     7
 10
-211.0918130482882
 20
133.8949826920465
 30
0.0
 11
-215.8975881776769
 21
142.2188292365003
 31
0.0
  0
ARC
  5
CB
  8
LAYER0014
  6
CONTINUOUS
 62
     7
 10
-159.5718041666555
 20
44.65970040672288
 30
0.0
 40
111.6515731811523
 50
60.00000166965211
 51
120.0000033393042
  0
INSERT
  5
CC
  8
LAYER0014
 62
     7
  2
_OPEN30
 10
-103.7460203938059
 20
141.3528007809132
 30
0.0
 41
1.50000139391263
 42
1.499998500689492
 50
330.3848763990522
  0
INSERT
  5
CD
  8
LAYER0014
 62
     7
  2
_OPEN30
 10
-215.3975963926846
 20
141.3527959004677
 30
0.0
 41
1.50000139391263
 42
1.499998500689492
 50
209.6151286099034
  0
TEXT
  5
CE
  8
LAYER0014
 62
     7
 10
-163.9148041792917
 20
157.9112659584807
 30
0.0
 40
4.0
  1
60ﾟ
 41
0.8000000000000019
  7
FDASTYLE1
 72
     5
 11
-154.3148041792917
 21
157.9112659584807
 31
0.0
  0
ENDBLK
  5
5D
  8
0
  0
BLOCK
  8
0
  2
DA_IMAGEDIMGROUP_5
 70
     0
 10
0.0
 20
0.0
 30
0.0
  3
DA_IMAGEDIMGROUP_5
  1

  0
LINE
  5
CF
  8
LAYER0014
  6
CONTINUOUS
 62
     7
 10
-268.4536163004445
 20
44.65971566551249
 30
0.0
 11
-272.2233697184133
 21
44.6597156655125
 31
0.0
  0
ARC
  5
D0
  8
LAYER0014
  6
CONTINUOUS
 62
     7
 10
-159.5718041666555
 20
44.65971566551194
 30
0.0
 40
111.6515731811523
 50
120.0000033393042
 51
180.0000050089563
  0
INSERT
  5
D1
  8
LAYER0014
 62
     7
  2
_OPEN30
 10
-215.3975963926846
 20
141.3528111592567
 30
0.0
 41
1.50000139391263
 42
1.499998500689492
 50
30.38487806870502
  0
INSERT
  5
D2
  8
LAYER0014
 62
     7
  2
_OPEN30
 10
-271.2233773478075
 20
44.65970590462107
 30
0.0
 41
1.50000139391263
 42
1.499998500689492
 50
269.6151302795552
  0
TEXT
  5
D3
  8
LAYER0014
 62
     7
 10
-259.8220447946146
 20
97.52435010181176
 30
0.0
 40
4.0
  1
60ﾟ
 50
59.99999999999999
 41
0.8000000000000002
  7
FDASTYLE1
 72
     5
 11
-255.0220447946146
 21
105.8381939781424
 31
0.0
  0
ENDBLK
  5
60
  8
0
  0
BLOCK
  8
0
  2
DA_IMAGEDIMGROUP_6
 70
     0
 10
0.0
 20
0.0
 30
0.0
  3
DA_IMAGEDIMGROUP_6
  1

  0
LINE
  5
D4
  8
LAYER0014
  6
CONTINUOUS
 62
     7
 10
-238.8620723649901
 20
31.47877122360994
 30
0.0
 11
-245.6423014008092
 21
56.78293026015432
 31
0.0
  0
LINE
  5
D5
  8
LAYER0014
  6
CONTINUOUS
 62
     7
 10
-160.2292181577923
 20
47.11316550960571
 30
0.0
 11
-168.3682511219672
 21
77.48844980179489
 31
0.0
  0
LINE
  5
D6
  8
LAYER0014
  6
CONTINUOUS
 62
     7
 10
-245.3834823571729
 20
55.81700444743306
 30
0.0
 11
-168.1094320783309
 21
76.52252398907363
 31
0.0
  0
INSERT
  5
D7
  8
LAYER0014
 62
     7
  2
_OPEN30
 10
-245.3834823571729
 20
55.81700444743306
 30
0.0
 41
1.50000139391263
 42
1.499998500689492
 50
195.0000001200559
  0
INSERT
  5
D8
  8
LAYER0014
 62
     7
  2
_OPEN30
 10
-168.1094320783309
 20
76.52252398907363
 30
0.0
 41
1.50000139391263
 42
1.499998500689492
 50
15.00000012005585
  0
TEXT
  5
D9
  8
LAYER0014
 62
     7
 10
-209.9668293854402
 20
65.82450618679867
 30
0.0
 40
4.0
  1
80
 50
15.0
 41
0.7999999999999951
  7
FDASTYLE1
 72
     5
 11
-203.7849040971902
 21
67.48094807545479
 31
0.0
  0
ENDBLK
  5
63
  8
0
  0
BLOCK
  8
0
  2
DA_IMAGEDIMGROUP_7
 70
     0
 10
0.0
 20
0.0
 30
0.0
  3
DA_IMAGEDIMGROUP_7
  1

  0
LINE
  5
DA
  8
LAYER0014
  6
CONTINUOUS
 62
     7
 10
-3.111819425444602
 20
64.15971566551194
 30
0.0
 11
-16.5718194254446
 21
64.15971566551194
 31
0.0
  0
LINE
  5
DB
  8
LAYER0014
  6
CONTINUOUS
 62
     7
 10
-3.111819425444602
 20
25.15971757286057
 30
0.0
 11
-16.5718194254446
 21
25.15971757286057
 31
0.0
  0
LINE
  5
DC
  8
LAYER0014
  6
CONTINUOUS
 62
     7
 10
-15.5718194254446
 20
64.15971566551194
 30
0.0
 11
-15.5718194254446
 21
25.15971757286057
 31
0.0
  0
INSERT
  5
DD
  8
LAYER0014
 62
     7
  2
_OPEN30
 10
-15.5718194254446
 20
64.15971566551194
 30
0.0
 41
1.50000139391263
 42
1.499998500689492
 50
90.0
  0
INSERT
  5
DE
  8
LAYER0014
 62
     7
  2
_OPEN30
 10
-15.5718194254446
 20
25.15971757286057
 30
0.0
 41
1.50000139391263
 42
1.499998500689492
 50
270.0
  0
TEXT
  5
DF
  8
LAYER0014
 62
     7
 10
-16.0718194254446
 20
31.85971661918626
 30
0.0
 40
4.0
  1
M39×Ｐ1.5
 50
90.0
 41
0.7619047619047619
  7
FDASTYLE1
 72
     5
 11
-16.0718194254446
 21
57.45971661918625
 31
0.0
  0
ENDBLK
  5
66
  8
0
  0
BLOCK
  8
0
  2
DA_IMAGEDIMGROUP_8
 70
     0
 10
0.0
 20
0.0
 30
0.0
  3
DA_IMAGEDIMGROUP_8
  1

  0
LINE
  5
E0
  8
LAYER0014
  6
CONTINUOUS
 62
     7
 10
32.8881805745554
 20
83.65971566551194
 30
0.0
 11
-30.5718194254446
 21
83.65971566551194
 31
0.0
  0
LINE
  5
E1
  8
LAYER0014
  6
CONTINUOUS
 62
     7
 10
32.8881805745554
 20
5.659719480209205
 30
0.0
 11
-30.5718194254446
 21
5.659719480209205
 31
0.0
  0
LINE
  5
E2
  8
LAYER0014
  6
CONTINUOUS
 62
     7
 10
-29.5718194254446
 20
83.65971566551194
 30
0.0
 11
-29.5718194254446
 21
5.659719480209205
 31
0.0
  0
INSERT
  5
E3
  8
LAYER0014
 62
     7
  2
_OPEN30
 10
-29.5718194254446
 20
83.65971566551194
 30
0.0
 41
1.50000139391263
 42
1.499998500689492
 50
90.0
  0
INSERT
  5
E4
  8
LAYER0014
 62
     7
  2
_OPEN30
 10
-29.5718194254446
 20
5.659719480209205
 30
0.0
 41
1.50000139391263
 42
1.499998500689492
 50
270.0
  0
TEXT
  5
E5
  8
LAYER0014
 62
     7
 10
-30.0718194254446
 20
37.19130162825547
 30
0.0
 40
4.0
  1
φ78
 50
90.0
 41
0.7500000000000001
  7
FDASTYLE1
 72
     5
 11
-30.0718194254446
 21
46.79130162825547
 31
0.0
  0
TEXT
  5
E6
  8
LAYER0014
 62
     7
 10
-32.5718194254446
 20
47.29130162825547
 30
0.0
 40
2.6
  1
-0.1
 50
90.0
 41
0.8
  7
FDASTYLE1
 72
     5
 11
-32.5718194254446
 21
55.61130162825547
 31
0.0
  0
TEXT
  5
E7
  8
LAYER0014
 62
     7
 10
-29.8718194254446
 20
47.29130162825547
 30
0.0
 40
2.6
  1
-0.3
 50
90.0
 41
0.8
  7
FDASTYLE1
 72
     5
 11
-29.8718194254446
 21
55.61130162825547
 31
0.0
  0
ENDBLK
  5
69
  8
0
  0
BLOCK
  8
0
  2
DA_IMAGEDIMGROUP_9
 70
     0
 10
0.0
 20
0.0
 30
0.0
  3
DA_IMAGEDIMGROUP_9
  1

  0
LINE
  5
E8
  8
LAYER0014
  6
CONTINUOUS
 62
     7
 10
-3.111819425444602
 20
28.15971757286057
 30
0.0
 11
-9.571819425444602
 21
28.15971757286057
 31
0.0
  0
LINE
  5
E9
  8
LAYER0014
  6
CONTINUOUS
 62
     7
 10
-3.111819425444602
 20
61.15971566551194
 30
0.0
 11
-9.571819425444602
 21
61.15971566551194
 31
0.0
  0
LINE
  5
EA
  8
LAYER0014
  6
CONTINUOUS
 62
     7
 10
-8.571819425444602
 20
28.15971757286057
 30
0.0
 11
-8.571819425444602
 21
61.15971566551194
 31
0.0
  0
INSERT
  5
EB
  8
LAYER0014
 62
     7
  2
_OPEN30
 10
-8.571819425444602
 20
28.15971757286057
 30
0.0
 41
1.50000139391263
 42
1.499998500689492
 50
270.0
  0
INSERT
  5
EC
  8
LAYER0014
 62
     7
  2
_OPEN30
 10
-8.571819425444602
 20
61.15971566551194
 30
0.0
 41
1.50000139391263
 42
1.499998500689492
 50
90.0
  0
TEXT
  5
ED
  8
LAYER0014
 62
     7
 10
-9.071819425444602
 20
35.75367252612762
 30
0.0
 40
4.0
  1
φ33H8
 50
90.0
 41
0.7692307692307692
  7
FDASTYLE1
 72
     5
 11
-9.071819425444602
 21
51.75367252612762
 31
0.0
  0
ENDBLK
  5
6C
  8
0
  0
BLOCK
  8
0
  2
DA_IMAGEDIMGROUP_10
 70
     0
 10
0.0
 20
0.0
 30
0.0
  3
DA_IMAGEDIMGROUP_10
  1

  0
LINE
  5
EE
  8
LAYER0014
  6
CONTINUOUS
 62
     7
 10
41.8881805745554
 20
97.65971566551194
 30
0.0
 11
-37.5718194254446
 21
97.65971566551194
 31
0.0
  0
LINE
  5
EF
  8
LAYER0014
  6
CONTINUOUS
 62
     7
 10
41.8881805745554
 20
-8.340284334488061
 30
0.0
 11
-37.5718194254446
 21
-8.340284334488061
 31
0.0
  0
LINE
  5
F0
  8
LAYER0014
  6
CONTINUOUS
 62
     7
 10
-36.5718194254446
 20
97.65971566551194
 30
0.0
 11
-36.5718194254446
 21
-8.340284334488061
 31
0.0
  0
INSERT
  5
F1
  8
LAYER0014
 62
     7
  2
_OPEN30
 10
-36.5718194254446
 20
97.65971566551194
 30
0.0
 41
1.50000139391263
 42
1.499998500689492
 50
90.0
  0
INSERT
  5
F2
  8
LAYER0014
 62
     7
  2
_OPEN30
 10
-36.5718194254446
 20
-8.340284334488061
 30
0.0
 41
1.50000139391263
 42
1.499998500689492
 50
270.0
  0
TEXT
  5
F3
  8
LAYER0014
 62
     7
 10
-37.0718194254446
 20
35.22527074946663
 30
0.0
 40
4.0
  1
φ106
 50
90.0
 41
0.7619047619047618
  7
FDASTYLE1
 72
     5
 11
-37.0718194254446
 21
48.02527074946663
 31
0.0
  0
TEXT
  5
F4
  8
LAYER0014
 62
     7
 10
-39.5718194254446
 20
48.52527074946663
 30
0.0
 40
2.6
  1
-0.02
 50
90.0
 41
0.7999999999999999
  7
FDASTYLE1
 72
     5
 11
-39.5718194254446
 21
58.92527074946663
 31
0.0
  0
TEXT
  5
F5
  8
LAYER0014
 62
     7
 10
-36.8718194254446
 20
48.52527074946663
 30
0.0
 40
2.6
  1
-0.05
 50
90.0
 41
0.7999999999999999
  7
FDASTYLE1
 72
     5
 11
-36.8718194254446
 21
58.92527074946663
 31
0.0
  0
ENDBLK
  5
6F
  8
0
  0
BLOCK
  8
0
  2
DA_IMAGEDIMGROUP_11
 70
     0
 10
0.0
 20
0.0
 30
0.0
  3
DA_IMAGEDIMGROUP_11
  1

  0
LINE
  5
F6
  8
LAYER0014
  6
CONTINUOUS
 62
     7
 10
31.8881805745554
 20
73.65971566551194
 30
0.0
 11
-23.5718194254446
 21
73.65971566551194
 31
0.0
  0
LINE
  5
F7
  8
LAYER0014
  6
CONTINUOUS
 62
     7
 10
31.8881805745554
 20
15.65971375816331
 30
0.0
 11
-23.5718194254446
 21
15.65971375816331
 31
0.0
  0
LINE
  5
F8
  8
LAYER0014
  6
CONTINUOUS
 62
     7
 10
-22.5718194254446
 20
73.65971566551194
 30
0.0
 11
-22.5718194254446
 21
15.65971375816331
 31
0.0
  0
INSERT
  5
F9
  8
LAYER0014
 62
     7
  2
_OPEN30
 10
-22.5718194254446
 20
73.65971566551194
 30
0.0
 41
1.50000139391263
 42
1.499998500689492
 50
90.0
  0
INSERT
  5
FA
  8
LAYER0014
 62
     7
  2
_OPEN30
 10
-22.5718194254446
 20
15.65971375816331
 30
0.0
 41
1.50000139391263
 42
1.499998500689492
 50
270.0
  0
TEXT
  5
FB
  8
LAYER0014
 62
     7
 10
-23.0718194254446
 20
31.85971471183763
 30
0.0
 40
4.0
  1
M58×P1.5
 50
90.0
 41
0.7804878048780487
  7
FDASTYLE1
 72
     5
 11
-23.0718194254446
 21
57.45971471183762
 31
0.0
  0
ENDBLK
  5
72
  8
0
  0
BLOCK
  8
0
  2
DA_IMAGEDIMGROUP_12
 70
     0
 10
0.0
 20
0.0
 30
0.0
  3
DA_IMAGEDIMGROUP_12
  1

  0
LINE
  5
FC
  8
LAYER0014
  6
CONTINUOUS
 62
     7
 10
232.9681805745554
 20
24.65971566551194
 30
0.0
 11
244.4281805745554
 21
24.65971566551194
 31
0.0
  0
LINE
  5
FD
  8
LAYER0014
  6
CONTINUOUS
 62
     7
 10
232.9681805745554
 20
64.65971566551194
 30
0.0
 11
244.4281805745554
 21
64.65971566551194
 31
0.0
  0
LINE
  5
FE
  8
LAYER0014
  6
CONTINUOUS
 62
     7
 10
243.4281805745554
 20
24.65971566551194
 30
0.0
 11
243.4281805745554
 21
64.65971566551194
 31
0.0
  0
INSERT
  5
FF
  8
LAYER0014
 62
     7
  2
_OPEN30
 10
243.4281805745554
 20
24.65971566551194
 30
0.0
 41
1.50000139391263
 42
1.499998500689492
 50
270.0
  0
INSERT
  5
100
  8
LAYER0014
 62
     7
  2
_OPEN30
 10
243.4281805745554
 20
64.65971566551194
 30
0.0
 41
1.50000139391263
 42
1.499998500689492
 50
90.0
  0
TEXT
  5
101
  8
LAYER0014
 62
     7
 10
242.9281805745554
 20
31.85971566551193
 30
0.0
 40
4.0
  1
M40×P1.5
 50
90.0
 41
0.7804878048780496
  7
FDASTYLE1
 72
     5
 11
242.9281805745554
 21
57.45971566551195
 31
0.0
  0
ENDBLK
  5
75
  8
0
  0
BLOCK
  8
0
  2
DA_IMAGEDIMGROUP_13
 70
     0
 10
0.0
 20
0.0
 30
0.0
  3
DA_IMAGEDIMGROUP_13
  1

  0
LINE
  5
102
  8
LAYER0014
  6
CONTINUOUS
 62
     7
 10
232.9681805745554
 20
68.65971566551194
 30
0.0
 11
251.4281805745554
 21
68.65971566551194
 31
0.0
  0
LINE
  5
103
  8
LAYER0014
  6
CONTINUOUS
 62
     7
 10
232.9681805745554
 20
20.65971757286057
 30
0.0
 11
251.4281805745554
 21
20.65971757286057
 31
0.0
  0
LINE
  5
104
  8
LAYER0014
  6
CONTINUOUS
 62
     7
 10
250.4281805745554
 20
68.65971566551194
 30
0.0
 11
250.4281805745554
 21
20.65971757286057
 31
0.0
  0
INSERT
  5
105
  8
LAYER0014
 62
     7
  2
_OPEN30
 10
250.4281805745554
 20
68.65971566551194
 30
0.0
 41
1.50000139391263
 42
1.499998500689492
 50
90.0
  0
INSERT
  5
106
  8
LAYER0014
 62
     7
  2
_OPEN30
 10
250.4281805745554
 20
20.65971757286057
 30
0.0
 41
1.50000139391263
 42
1.499998500689492
 50
270.0
  0
TEXT
  5
107
  8
LAYER0014
 62
     7
 10
249.9281805745554
 20
39.85971661918624
 30
0.0
 40
4.0
  1
φ48
 50
90.0
 41
0.7500000000000018
  7
FDASTYLE1
 72
     5
 11
249.9281805745554
 21
49.45971661918627
 31
0.0
  0
ENDBLK
  5
78
  8
0
  0
BLOCK
  8
0
  2
DA_IMAGEDIMGROUP_14
 70
     0
 10
0.0
 20
0.0
 30
0.0
  3
DA_IMAGEDIMGROUP_14
  1

  0
LINE
  5
108
  8
LAYER0014
  6
CONTINUOUS
 62
     7
 10
210.9681805745554
 20
107.1597080361174
 30
0.0
 11
258.4281805745554
 21
107.1597080361174
 31
0.0
  0
LINE
  5
109
  8
LAYER0014
  6
CONTINUOUS
 62
     7
 10
210.9681805745554
 20
-17.84028433448806
 30
0.0
 11
258.4281805745554
 21
-17.84028433448806
 31
0.0
  0
LINE
  5
10A
  8
LAYER0014
  6
CONTINUOUS
 62
     7
 10
257.4281805745554
 20
107.1597080361174
 30
0.0
 11
257.4281805745554
 21
-17.84028433448806
 31
0.0
  0
INSERT
  5
10B
  8
LAYER0014
 62
     7
  2
_OPEN30
 10
257.4281805745554
 20
107.1597080361174
 30
0.0
 41
1.50000139391263
 42
1.499998500689492
 50
90.0
  0
INSERT
  5
10C
  8
LAYER0014
 62
     7
  2
_OPEN30
 10
257.4281805745554
 20
-17.84028433448806
 30
0.0
 41
1.50000139391263
 42
1.499998500689492
 50
270.0
  0
TEXT
  5
10D
  8
LAYER0014
 62
     7
 10
256.9281805745554
 20
34.78640274372793
 30
0.0
 40
4.0
  1
φ125h7
 50
90.0
 41
0.7741935483870974
  7
FDASTYLE1
 72
     5
 11
256.9281805745554
 21
53.98640274372794
 31
0.0
  0
ENDBLK
  5
7B
  8
0
  0
BLOCK
  8
0
  2
DA_IMAGEDIMGROUP_15
 70
     0
 10
0.0
 20
0.0
 30
0.0
  3
DA_IMAGEDIMGROUP_15
  1

  0
LINE
  5
10E
  8
LAYER0014
  6
CONTINUOUS
 62
     7
 10
205.9681805745554
 20
142.159715665512
 30
0.0
 11
272.4281805745554
 21
142.159715665512
 31
0.0
  0
LINE
  5
10F
  8
LAYER0014
  6
CONTINUOUS
 62
     7
 10
205.9681805745554
 20
-52.84028433448806
 30
0.0
 11
272.4281805745554
 21
-52.84028433448806
 31
0.0
  0
LINE
  5
110
  8
LAYER0014
  6
CONTINUOUS
 62
     7
 10
271.4281805745554
 20
142.159715665512
 30
0.0
 11
271.4281805745554
 21
-52.84028433448806
 31
0.0
  0
INSERT
  5
111
  8
LAYER0014
 62
     7
  2
_OPEN30
 10
271.4281805745554
 20
142.159715665512
 30
0.0
 41
1.50000139391263
 42
1.499998500689492
 50
90.0
  0
INSERT
  5
112
  8
LAYER0014
 62
     7
  2
_OPEN30
 10
271.4281805745554
 20
-52.84028433448806
 30
0.0
 41
1.50000139391263
 42
1.499998500689492
 50
270.0
  0
TEXT
  5
113
  8
LAYER0014
 62
     7
 10
270.9281805745554
 20
34.1713881438518
 30
0.0
 40
4.0
  1
φ195
 50
90.0
 41
0.7619047619047592
  7
FDASTYLE1
 72
     5
 11
270.9281805745554
 21
46.97138814385176
 31
0.0
  0
TEXT
  5
114
  8
LAYER0014
 62
     7
 10
268.4281805745554
 20
47.47138814385176
 30
0.0
 40
2.6
  1
-0.1
 50
90.0
 41
0.7999999999999993
  7
FDASTYLE1
 72
     5
 11
268.4281805745554
 21
55.79138814385175
 31
0.0
  0
TEXT
  5
115
  8
LAYER0014
 62
     7
 10
271.1281805745554
 20
47.47138814385176
 30
0.0
 40
2.6
  1
-0.3
 50
90.0
 41
0.7999999999999993
  7
FDASTYLE1
 72
     5
 11
271.1281805745554
 21
55.79138814385175
 31
0.0
  0
ENDBLK
  5
7E
  8
0
  0
BLOCK
  8
0
  2
DA_IMAGEDIMGROUP_16
 70
     0
 10
0.0
 20
0.0
 30
0.0
  3
DA_IMAGEDIMGROUP_16
  1

  0
LINE
  5
116
  8
LAYER0014
  6
CONTINUOUS
 62
     7
 10
187.8881805745554
 20
62.65971566551194
 30
0.0
 11
179.9462012044382
 21
62.65971566551194
 31
0.0
  0
LINE
  5
117
  8
LAYER0014
  6
CONTINUOUS
 62
     7
 10
187.8881805745554
 20
26.65971757286057
 30
0.0
 11
179.9462012044382
 21
26.65971757286057
 31
0.0
  0
LINE
  5
118
  8
LAYER0014
  6
CONTINUOUS
 62
     7
 10
180.9462012044382
 20
62.65971566551194
 30
0.0
 11
180.9462012044382
 21
26.65971757286057
 31
0.0
  0
INSERT
  5
119
  8
LAYER0014
 62
     7
  2
_OPEN30
 10
180.9462012044382
 20
62.65971566551194
 30
0.0
 41
1.50000139391263
 42
1.499998500689492
 50
90.0
  0
INSERT
  5
11A
  8
LAYER0014
 62
     7
  2
_OPEN30
 10
180.9462012044382
 20
26.65971757286057
 30
0.0
 41
1.50000139391263
 42
1.499998500689492
 50
270.0
  0
TEXT
  5
11B
  8
LAYER0014
 62
     7
 10
180.4462012044382
 20
35.34133225493206
 30
0.0
 40
4.0
  1
φ36H7
 50
90.0
 41
0.7692307692307692
  7
FDASTYLE1
 72
     5
 11
180.4462012044382
 21
51.34133225493206
 31
0.0
  0
ENDBLK
  5
81
  8
0
  0
BLOCK
  8
0
  2
DA_IMAGEDIMGROUP_17
 70
     0
 10
0.0
 20
0.0
 30
0.0
  3
DA_IMAGEDIMGROUP_17
  1

  0
LINE
  5
11C
  8
LAYER0014
  6
CONTINUOUS
 62
     7
 10
62.99512088217259
 20
61.15971566551194
 30
0.0
 11
62.99512088217259
 21
28.15971757286057
 31
0.0
  0
INSERT
  5
11D
  8
LAYER0014
 62
     7
  2
_OPEN30
 10
62.99512088217259
 20
61.15971566551194
 30
0.0
 41
1.50000139391263
 42
1.499998500689492
 50
90.0
  0
INSERT
  5
11E
  8
LAYER0014
 62
     7
  2
_OPEN30
 10
62.99512088217259
 20
28.15971757286057
 30
0.0
 41
1.50000139391263
 42
1.499998500689492
 50
270.0
  0
TEXT
  5
11F
  8
LAYER0014
 62
     7
 10
62.49512088217259
 20
35.51671662443147
 30
0.0
 40
4.0
  1
φ33
 50
90.0
 41
0.7499999999999996
  7
FDASTYLE1
 72
     5
 11
62.49512088217259
 21
45.11671662443146
 31
0.0
  0
TEXT
  5
120
  8
LAYER0014
 62
     7
 10
59.99512088217259
 20
45.61671662443146
 30
0.0
 40
2.6
  1
+0.5
 50
90.0
 41
0.7999999999999993
  7
FDASTYLE1
 72
     5
 11
59.99512088217259
 21
53.93671662443146
 31
0.0
  0
TEXT
  5
121
  8
LAYER0014
 62
     7
 10
62.69512088217259
 20
45.61671662443146
 30
0.0
 40
2.6
  1
　0
 50
90.0
 41
0.7272727272727266
  7
FDASTYLE1
 72
     5
 11
62.69512088217259
 21
49.77671662443146
 31
0.0
  0
ENDBLK
  5
84
  8
0
  0
BLOCK
  8
0
  2
DA_IMAGEDIMGROUP_18
 70
     0
 10
0.0
 20
0.0
 30
0.0
  3
DA_IMAGEDIMGROUP_18
  1

  0
LINE
  5
122
  8
LAYER0014
  6
CONTINUOUS
 62
     7
 10
44.4281805745554
 20
-10.88028433448806
 30
0.0
 11
44.4281805745554
 21
-81.84028433448806
 31
0.0
  0
LINE
  5
123
  8
LAYER0014
  6
CONTINUOUS
 62
     7
 10
34.4281805745554
 20
-80.84028433448806
 30
0.0
 11
44.4281805745554
 21
-80.84028433448806
 31
0.0
  0
INSERT
  5
124
  8
LAYER0014
 62
     7
  2
_OPEN30
 10
34.4281805745554
 20
-80.84028433448806
 30
0.0
 41
1.50000139391263
 42
1.499998500689492
 50
180.0
  0
INSERT
  5
125
  8
LAYER0014
 62
     7
  2
_OPEN30
 10
44.4281805745554
 20
-80.84028433448806
 30
0.0
 41
1.50000139391263
 42
1.499998500689492
 50
360.0
  0
TEXT
  5
126
  8
LAYER0014
 62
     7
 10
36.2281805745554
 20
-80.34028433448806
 30
0.0
 40
4.0
  1
10
 41
0.8000000000000007
  7
FDASTYLE1
 72
     5
 11
42.6281805745554
 21
-80.34028433448806
 31
0.0
  0
ENDBLK
  5
87
  8
0
  0
BLOCK
  8
0
  2
DA_IMAGEDIMGROUP_19
 70
     0
 10
0.0
 20
0.0
 30
0.0
  3
DA_IMAGEDIMGROUP_19
  1

  0
LINE
  5
127
  8
LAYER0014
  6
CONTINUOUS
 62
     7
 10
190.4281805745554
 20
32.63184357994065
 30
0.0
 11
205.4281805745554
 21
32.63184357994065
 31
0.0
  0
INSERT
  5
128
  8
LAYER0014
 62
     7
  2
_OPEN30
 10
190.4281805745554
 20
32.63184357994065
 30
0.0
 41
1.50000139391263
 42
1.499998500689492
 50
180.0
  0
INSERT
  5
129
  8
LAYER0014
 62
     7
  2
_OPEN30
 10
205.4281805745554
 20
32.63184357994065
 30
0.0
 41
1.50000139391263
 42
1.499998500689492
 50
360.0
  0
TEXT
  5
12A
  8
LAYER0014
 62
     7
 10
195.0255335981016
 20
33.13184357994065
 30
0.0
 40
4.0
  1
15
 41
0.7999999999999972
  7
FDASTYLE1
 72
     5
 11
201.4255335981016
 21
33.13184357994065
 31
0.0
  0
ENDBLK
  5
8A
  8
0
  0
BLOCK
  8
0
  2
DA_IMAGEDIMGROUP_20
 70
     0
 10
0.0
 20
0.0
 30
0.0
  3
DA_IMAGEDIMGROUP_20
  1

  0
LINE
  5
12B
  8
LAYER0014
  6
CONTINUOUS
 62
     7
 10
208.4281805745554
 20
32.63184357994065
 30
0.0
 11
230.4281805745554
 21
32.63184357994065
 31
0.0
  0
INSERT
  5
12C
  8
LAYER0014
 62
     7
  2
_OPEN30
 10
208.4281805745554
 20
32.63184357994065
 30
0.0
 41
1.50000139391263
 42
1.499998500689492
 50
180.0
  0
INSERT
  5
12D
  8
LAYER0014
 62
     7
  2
_OPEN30
 10
230.4281805745554
 20
32.63184357994065
 30
0.0
 41
1.50000139391263
 42
1.499998500689492
 50
360.0
  0
TEXT
  5
12E
  8
LAYER0014
 62
     7
 10
215.0851805619192
 20
33.13184357994065
 30
0.0
 40
4.0
  1
22
 41
0.7999999999999972
  7
FDASTYLE1
 72
     5
 11
221.4851805619192
 21
33.13184357994065
 31
0.0
  0
ENDBLK
  5
8D
  8
0
  0
BLOCK
  8
0
  2
DA_IMAGEDIMGROUP_21
 70
     0
 10
0.0
 20
0.0
 30
0.0
  3
DA_IMAGEDIMGROUP_21
  1

  0
LINE
  5
12F
  8
LAYER0014
  6
CONTINUOUS
 62
     7
 10
73.9281805745554
 20
125.8892832314299
 30
0.0
 11
73.9281805745554
 21
166.3438282143401
 31
0.0
  0
LINE
  5
130
  8
LAYER0014
  6
CONTINUOUS
 62
     7
 10
91.9281805745554
 20
159.159715665512
 30
0.0
 11
73.9281805745554
 21
159.159715665512
 31
0.0
  0
INSERT
  5
131
  8
LAYER0014
 62
     7
  2
_OPEN30
 10
91.9281805745554
 20
159.159715665512
 30
0.0
 41
1.50000139391263
 42
1.499998500689492
 50
360.0
  0
INSERT
  5
132
  8
LAYER0014
 62
     7
  2
_OPEN30
 10
73.9281805745554
 20
159.159715665512
 30
0.0
 41
1.50000139391263
 42
1.499998500689492
 50
180.0
  0
TEXT
  5
133
  8
LAYER0014
 62
     7
 10
79.42318056938966
 20
159.659715665512
 30
0.0
 40
4.0
  1
18
 41
0.786403413754292
  7
FDASTYLE1
 72
     5
 11
86.43318057972114
 21
159.659715665512
 31
0.0
  0
ENDBLK
  5
90
  8
0
  0
BLOCK
  8
0
  2
DA_IMAGEDIMGROUP_22
 70
     0
 10
0.0
 20
0.0
 30
0.0
  3
DA_IMAGEDIMGROUP_22
  1

  0
LINE
  5
134
  8
LAYER0014
  6
CONTINUOUS
 62
     7
 10
121.4281805745554
 20
-13.38027670509353
 30
0.0
 11
121.4281805745554
 21
-81.84028433448806
 31
0.0
  0
LINE
  5
135
  8
LAYER0014
  6
CONTINUOUS
 62
     7
 10
121.4281805745554
 20
-80.84028433448806
 30
0.0
 11
132.4281805745554
 21
-80.84028433448806
 31
0.0
  0
INSERT
  5
136
  8
LAYER0014
 62
     7
  2
_OPEN30
 10
121.4281805745554
 20
-80.84028433448806
 30
0.0
 41
1.50000139391263
 42
1.499998500689492
 50
180.0
  0
INSERT
  5
137
  8
LAYER0014
 62
     7
  2
_OPEN30
 10
132.4281805745554
 20
-80.84028433448806
 30
0.0
 41
1.50000139391263
 42
1.499998500689492
 50
360.0
  0
TEXT
  5
138
  8
LAYER0014
 62
     7
 10
123.7281805745554
 20
-80.34028433448806
 30
0.0
 40
4.0
  1
11
 41
0.7999999999999989
  7
FDASTYLE1
 72
     5
 11
130.1281805745554
 21
-80.34028433448806
 31
0.0
  0
ENDBLK
  5
93
  8
0
  0
BLOCK
  8
0
  2
DA_IMAGEDIMGROUP_23
 70
     0
 10
0.0
 20
0.0
 30
0.0
  3
DA_IMAGEDIMGROUP_23
  1

  0
LINE
  5
139
  8
LAYER0014
  6
CONTINUOUS
 62
     7
 10
82.4281805745554
 20
-11.01361563331619
 30
0.0
 11
82.4281805745554
 21
-81.84028433448806
 31
0.0
  0
LINE
  5
13A
  8
LAYER0014
  6
CONTINUOUS
 62
     7
 10
82.4281805745554
 20
-80.84028433448806
 30
0.0
 11
121.4281805745554
 21
-80.84028433448806
 31
0.0
  0
INSERT
  5
13B
  8
LAYER0014
 62
     7
  2
_OPEN30
 10
82.4281805745554
 20
-80.84028433448806
 30
0.0
 41
1.50000139391263
 42
1.499998500689492
 50
180.0
  0
INSERT
  5
13C
  8
LAYER0014
 62
     7
  2
_OPEN30
 10
121.4281805745554
 20
-80.84028433448806
 30
0.0
 41
1.50000139391263
 42
1.499998500689492
 50
360.0
  0
TEXT
  5
13D
  8
LAYER0014
 62
     7
 10
98.7281805745554
 20
-80.34028433448806
 30
0.0
 40
4.0
  1
39
 41
0.8000000000000007
  7
FDASTYLE1
 72
     5
 11
105.1281805745554
 21
-80.34028433448806
 31
0.0
  0
ENDBLK
  5
96
  8
0
  0
BLOCK
  8
0
  2
DA_IMAGEDIMGROUP_24
 70
     0
 10
0.0
 20
0.0
 30
0.0
  3
DA_IMAGEDIMGROUP_24
  1

  0
LINE
  5
13E
  8
LAYER0014
  6
CONTINUOUS
 62
     7
 10
203.4281805745554
 20
144.6997156655119
 30
0.0
 11
203.4281805745554
 21
160.159715665512
 31
0.0
  0
LINE
  5
13F
  8
LAYER0014
  6
CONTINUOUS
 62
     7
 10
91.9281805745554
 20
125.6460123574065
 30
0.0
 11
91.9281805745554
 21
166.3438282143401
 31
0.0
  0
LINE
  5
140
  8
LAYER0014
  6
CONTINUOUS
 62
     7
 10
203.4281805745554
 20
159.159715665512
 30
0.0
 11
91.9281805745554
 21
159.159715665512
 31
0.0
  0
INSERT
  5
141
  8
LAYER0014
 62
     7
  2
_OPEN30
 10
203.4281805745554
 20
159.159715665512
 30
0.0
 41
1.50000139391263
 42
1.499998500689492
 50
360.0
  0
INSERT
  5
142
  8
LAYER0014
 62
     7
  2
_OPEN30
 10
91.9281805745554
 20
159.159715665512
 30
0.0
 41
1.50000139391263
 42
1.499998500689492
 50
180.0
  0
TEXT
  5
143
  8
LAYER0014
 62
     7
 10
139.6781805745554
 20
159.659715665512
 30
0.0
 40
4.0
  1
111.5
 41
0.8
  7
FDASTYLE1
 72
     5
 11
155.6781805745554
 21
159.659715665512
 31
0.0
  0
ENDBLK
  5
99
  8
0
  0
BLOCK
  8
0
  2
DA_IMAGEDIMGROUP_25
 70
     0
 10
0.0
 20
0.0
 30
0.0
  3
DA_IMAGEDIMGROUP_25
  1

  0
LINE
  5
144
  8
LAYER0014
  6
CONTINUOUS
 62
     7
 10
216.4281805745554
 20
-50.38028433448806
 30
0.0
 11
216.4281805745554
 21
-73.84028433448806
 31
0.0
  0
LINE
  5
145
  8
LAYER0014
  6
CONTINUOUS
 62
     7
 10
203.4281805745554
 20
-72.84028433448806
 30
0.0
 11
216.4281805745554
 21
-72.84028433448806
 31
0.0
  0
INSERT
  5
146
  8
LAYER0014
 62
     7
  2
_OPEN30
 10
203.4281805745554
 20
-72.84028433448806
 30
0.0
 41
1.50000139391263
 42
1.499998500689492
 50
180.0
  0
INSERT
  5
147
  8
LAYER0014
 62
     7
  2
_OPEN30
 10
216.4281805745554
 20
-72.84028433448806
 30
0.0
 41
1.50000139391263
 42
1.499998500689492
 50
360.0
  0
TEXT
  5
148
  8
LAYER0014
 62
     7
 10
207.1851805738401
 20
-72.34028433448806
 30
0.0
 40
3.0
  1
13
 41
0.7934625428815721
  7
FDASTYLE1
 72
     5
 11
212.6711805752707
 21
-72.34028433448806
 31
0.0
  0
ENDBLK
  5
9C
  8
0
  0
BLOCK
  8
0
  2
DA_IMAGEDIMGROUP_26
 70
     0
 10
0.0
 20
0.0
 30
0.0
  3
DA_IMAGEDIMGROUP_26
  1

  0
LINE
  5
149
  8
LAYER0014
  6
CONTINUOUS
 62
     7
 10
203.4281805745554
 20
-55.38028433448807
 30
0.0
 11
203.4281805745554
 21
-89.84028433448806
 31
0.0
  0
LINE
  5
14A
  8
LAYER0014
  6
CONTINUOUS
 62
     7
 10
34.4281805745554
 20
13.11971375816331
 30
0.0
 11
34.4281805745554
 21
-89.84028433448806
 31
0.0
  0
LINE
  5
14B
  8
LAYER0014
  6
CONTINUOUS
 62
     7
 10
203.4281805745554
 20
-88.84028433448806
 30
0.0
 11
34.4281805745554
 21
-88.84028433448806
 31
0.0
  0
INSERT
  5
14C
  8
LAYER0014
 62
     7
  2
_OPEN30
 10
203.4281805745554
 20
-88.84028433448806
 30
0.0
 41
1.50000139391263
 42
1.499998500689492
 50
360.0
  0
INSERT
  5
14D
  8
LAYER0014
 62
     7
  2
_OPEN30
 10
34.4281805745554
 20
-88.84028433448806
 30
0.0
 41
1.50000139391263
 42
1.499998500689492
 50
180.0
  0
TEXT
  5
14E
  8
LAYER0014
 62
     7
 10
114.1281805745554
 20
-88.34028433448806
 30
0.0
 40
4.0
  1
169
 41
0.7999999999999995
  7
FDASTYLE1
 72
     5
 11
123.7281805745554
 21
-88.34028433448806
 31
0.0
  0
ENDBLK
  5
9F
  8
0
  0
BLOCK
  8
0
  2
DA_IMAGEDIMGROUP_27
 70
     0
 10
0.0
 20
0.0
 30
0.0
  3
DA_IMAGEDIMGROUP_27
  1

  0
LINE
  5
14F
  8
LAYER0014
  6
CONTINUOUS
 62
     7
 10
223.9681805745554
 20
-43.84028433448806
 30
0.0
 11
265.4281805745554
 21
-43.84028433448806
 31
0.0
  0
LINE
  5
150
  8
LAYER0014
  6
CONTINUOUS
 62
     7
 10
264.4281805745554
 20
107.1597080361174
 30
0.0
 11
264.4281805745554
 21
-43.84028433448806
 31
0.0
  0
INSERT
  5
151
  8
LAYER0014
 62
     7
  2
_OPEN30
 10
264.4281805745554
 20
-43.84028433448806
 30
0.0
 41
1.50000139391263
 42
1.499998500689492
 50
270.0
  0
TEXT
  5
152
  8
LAYER0014
 62
     7
 10
263.9281805745554
 20
24.69937960331821
 30
0.0
 40
4.0
  1
6-M8 PCD 177
 50
90.0
 41
0.7999999999999995
  7
FDASTYLE1
 72
     5
 11
263.9281805745554
 21
63.09937960331819
 31
0.0
  0
ENDBLK
  5
A2
  8
0
  0
BLOCK
  8
0
  2
DA_IMAGEDIMGROUP_28
 70
     0
 10
0.0
 20
0.0
 30
0.0
  3
DA_IMAGEDIMGROUP_28
  1

  0
LINE
  5
153
  8
LAYER0014
  6
CONTINUOUS
 62
     7
 10
132.4281805745554
 20
-54.38028433448807
 30
0.0
 11
132.4281805745554
 21
-81.84028433448806
 31
0.0
  0
LINE
  5
154
  8
LAYER0014
  6
CONTINUOUS
 62
     7
 10
203.4281805745554
 20
-80.84028433448806
 30
0.0
 11
132.4281805745554
 21
-80.84028433448806
 31
0.0
  0
INSERT
  5
155
  8
LAYER0014
 62
     7
  2
_OPEN30
 10
203.4281805745554
 20
-80.84028433448806
 30
0.0
 41
1.50000139391263
 42
1.499998500689492
 50
360.0
  0
INSERT
  5
156
  8
LAYER0014
 62
     7
  2
_OPEN30
 10
132.4281805745554
 20
-80.84028433448806
 30
0.0
 41
1.50000139391263
 42
1.499998500689492
 50
180.0
  0
TEXT
  5
157
  8
LAYER0014
 62
     7
 10
164.7281805745554
 20
-80.34028433448806
 30
0.0
 40
4.0
  1
71
 41
0.7999999999999972
  7
FDASTYLE1
 72
     5
 11
171.1281805745554
 21
-80.34028433448806
 31
0.0
  0
ENDBLK
  5
A5
  8
0
  0
BLOCK
  8
0
  2
DC_GROUP_3
 70
     0
 10
0.0
 20
0.0
 30
0.0
  3
DC_GROUP_3
  1

  0
LINE
  5
158
  8
LAYER0014
  6
CONTINUOUS
 62
     7
 10
82.08424199729186
 20
-1.78798407521812
 30
0.0
 11
73.24959912779056
 21
-26.40912055447747
 31
0.0
  0
INSERT
  5
159
  8
LAYER0014
 62
     7
  2
_OPEN30
 10
82.08424199729186
 20
-1.78798407521812
 30
0.0
 41
1.50000139391263
 42
1.499998500689492
 50
70.26081961790602
  0
LINE
  5
15A
  8
LAYER0014
  6
CONTINUOUS
 62
     7
 10
73.24959933676243
 20
-26.40912054664626
 30
0.0
 11
55.42049395956516
 21
-26.40912054664626
 31
0.0
  0
TEXT
  5
15B
  8
LAYER0014
 62
     7
 10
58.35344010509968
 20
-24.80912054664626
 30
0.0
 40
3.0
  1
M12x8
 41
0.808640654342452
  7
FDASTYLE1
 72
     5
 11
73.4394400707674
 21
-24.80912054664626
 31
0.0
  0
ENDBLK
  5
A8
  8
0
  0
BLOCK
  8
0
  2
DA_IMAGEDIMGROUP_29
 70
     0
 10
0.0
 20
0.0
 30
0.0
  3
DA_IMAGEDIMGROUP_29
  1

  0
LINE
  5
15C
  8
LAYER0014
  6
CONTINUOUS
 62
     7
 10
-0.5718194254446019
 20
50.74770547264085
 30
0.0
 11
49.4281805745554
 21
50.74770547264085
 31
0.0
  0
INSERT
  5
15D
  8
LAYER0014
 62
     7
  2
_OPEN30
 10
-0.5718194254446019
 20
50.74770547264085
 30
0.0
 41
1.50000139391263
 42
1.499998500689492
 50
180.0
  0
INSERT
  5
15E
  8
LAYER0014
 62
     7
  2
_OPEN30
 10
49.4281805745554
 20
50.74770547264085
 30
0.0
 41
1.50000139391263
 42
1.499998500689492
 50
360.0
  0
TEXT
  5
15F
  8
LAYER0014
 62
     7
 10
21.2281805745554
 20
51.24770547264085
 30
0.0
 40
4.0
  1
50
 41
0.7999999999999998
  7
FDASTYLE1
 72
     5
 11
27.6281805745554
 21
51.24770547264085
 31
0.0
  0
ENDBLK
  5
AB
  8
0
  0
BLOCK
  8
0
  2
DA_IMAGEDIMGROUP_30
 70
     0
 10
0.0
 20
0.0
 30
0.0
  3
DA_IMAGEDIMGROUP_30
  1

  0
LINE
  5
160
  8
LAYER0014
  6
CONTINUOUS
 62
     7
 10
50.4281805745554
 20
27.25011735313401
 30
0.0
 11
50.4281805745554
 21
36.55316735618577
 31
0.0
  0
LINE
  5
161
  8
LAYER0014
  6
CONTINUOUS
 62
     7
 10
-0.5718194254446019
 20
35.55316735618577
 30
0.0
 11
50.4281805745554
 21
35.55316735618577
 31
0.0
  0
INSERT
  5
162
  8
LAYER0014
 62
     7
  2
_OPEN30
 10
-0.5718194254446019
 20
35.55316735618577
 30
0.0
 41
1.50000139391263
 42
1.499998500689492
 50
180.0
  0
INSERT
  5
163
  8
LAYER0014
 62
     7
  2
_OPEN30
 10
50.4281805745554
 20
35.55316735618577
 30
0.0
 41
1.50000139391263
 42
1.499998500689492
 50
360.0
  0
TEXT
  5
164
  8
LAYER0014
 62
     7
 10
21.7281805745554
 20
36.05316735618577
 30
0.0
 40
4.0
  1
51
 41
0.7999999999999998
  7
FDASTYLE1
 72
     5
 11
28.1281805745554
 21
36.05316735618577
 31
0.0
  0
ENDBLK
  5
AE
  8
0
  0
BLOCK
  8
0
  2
_OPEN30
 70
     0
 10
0.0
 20
0.0
 30
0.0
  3
_OPEN30
  1

  0
LINE
  5
B4
  8
0
  6
BYBLOCK
 62
     0
 10
-1.0
 20
0.267949
 30
0.0
 11
0.0
 21
0.0
 31
0.0
  0
LINE
  5
B5
  8
0
  6
BYBLOCK
 62
     0
 10
0.0
 20
0.0
 30
0.0
 11
-1.0
 21
-0.267949
 31
0.0
  0
LINE
  5
B6
  8
0
  6
BYBLOCK
 62
     0
 10
0.0
 20
0.0
 30
0.0
 11
-1.0
 21
0.0
 31
0.0
  0
ENDBLK
  5
B3
  8
0
  0
ENDSEC
  0
SECTION
  2
ENTITIES
  0
LINE
  5
165
  8
ZUWAKU
  6
CONTINUOUS
 62
     3
 10
-277.0
 20
-190.0
 30
0.0
 11
-277.0
 21
190.0
 31
0.0
  0
LINE
  5
166
  8
ZUWAKU
  6
CONTINUOUS
 62
     3
 10
277.0
 20
-190.0
 30
0.0
 11
277.0
 21
190.0
 31
0.0
  0
LINE
  5
167
  8
ZUWAKU
  6
CONTINUOUS
 62
     3
 10
-277.0
 20
-190.0
 30
0.0
 11
277.0
 21
-190.0
 31
0.0
  0
LINE
  5
168
  8
ZUWAKU
  6
CONTINUOUS
 62
     3
 10
-277.0
 20
189.9999999999999
 30
0.0
 11
277.0
 21
189.9999999999999
 31
0.0
  0
LINE
  5
169
  8
ZUWAKU
  6
CONTINUOUS
 62
     3
 10
97.00000000000001
 20
-190.0
 30
0.0
 11
97.00000000000001
 21
-130.0
 31
0.0
  0
LINE
  5
16A
  8
ZUWAKU
  6
CONTINUOUS
 62
     3
 10
97.00000000000001
 20
-176.0
 30
0.0
 11
277.0
 21
-176.0
 31
0.0
  0
LINE
  5
16B
  8
ZUWAKU
  6
CONTINUOUS
 62
     3
 10
146.0
 20
-162.0
 30
0.0
 11
277.0
 21
-162.0
 31
0.0
  0
LINE
  5
16C
  8
ZUWAKU
  6
CONTINUOUS
 62
     3
 10
146.0
 20
-148.0
 30
0.0
 11
277.0
 21
-148.0
 31
0.0
  0
LINE
  5
16D
  8
ZUWAKU
  6
CONTINUOUS
 62
     3
 10
146.0
 20
-138.0
 30
0.0
 11
277.0
 21
-138.0
 31
0.0
  0
LINE
  5
16E
  8
ZUWAKU
  6
CONTINUOUS
 62
     3
 10
146.0
 20
-176.0
 30
0.0
 11
146.0
 21
-130.0
 31
0.0
  0
LINE
  5
16F
  8
ZUWAKU
  6
CONTINUOUS
 62
     3
 10
255.0
 20
-176.0
 30
0.0
 11
255.0
 21
-130.0
 31
0.0
  0
LINE
  5
170
  8
ZUWAKU
  6
CONTINUOUS
 62
     3
 10
171.0
 20
-190.0
 30
0.0
 11
171.0
 21
-176.0
 31
0.0
  0
LINE
  5
171
  8
ZUWAKU
  6
CONTINUOUS
 62
     3
 10
97.00000000000001
 20
-130.0
 30
0.0
 11
277.0
 21
-130.0
 31
0.0
  0
LINE
  5
172
  8
ZUWAKU
  6
CONTINUOUS
 62
     3
 10
226.0
 20
-176.0
 30
0.0
 11
226.0
 21
-148.0
 31
0.0
  0
LINE
  5
173
  8
ZUWAKU
  6
CONTINUOUS
 62
     4
 10
105.0
 20
-172.0
 30
0.0
 11
105.0
 21
-130.0
 31
0.0
  0
LINE
  5
174
  8
ZUWAKU
  6
CONTINUOUS
 62
     4
 10
109.0
 20
-172.0
 30
0.0
 11
109.0
 21
-130.0
 31
0.0
  0
LINE
  5
175
  8
ZUWAKU
  6
CONTINUOUS
 62
     4
 10
121.5
 20
-176.0
 30
0.0
 11
121.5
 21
-130.0
 31
0.0
  0
LINE
  5
176
  8
ZUWAKU
  6
CONTINUOUS
 62
     4
 10
97.00000000000001
 20
-137.0
 30
0.0
 11
146.0
 21
-137.0
 31
0.0
  0
LINE
  5
177
  8
ZUWAKU
  6
CONTINUOUS
 62
     4
 10
97.00000000000001
 20
-144.0
 30
0.0
 11
146.0
 21
-144.0
 31
0.0
  0
LINE
  5
178
  8
ZUWAKU
  6
CONTINUOUS
 62
     4
 10
97.00000000000001
 20
-165.0
 30
0.0
 11
146.0
 21
-165.0
 31
0.0
  0
LINE
  5
179
  8
ZUWAKU
  6
CONTINUOUS
 62
     4
 10
97.00000000000001
 20
-172.0
 30
0.0
 11
146.0
 21
-172.0
 31
0.0
  0
LINE
  5
17A
  8
ZUWAKU
  6
CONTINUOUS
 62
     4
 10
255.0
 20
-166.0
 30
0.0
 11
277.0
 21
-166.0
 31
0.0
  0
LINE
  5
17B
  8
ZUWAKU
  6
CONTINUOUS
 62
     4
 10
153.0
 20
-139.5
 30
0.0
 11
153.0
 21
-130.0
 31
0.0
  0
LINE
  5
17C
  8
ZUWAKU
  6
CONTINUOUS
 62
     4
 10
202.0
 20
-148.0
 30
0.0
 11
202.0
 21
-146.5
 31
0.0
  0
LINE
  5
17D
  8
ZUWAKU
  6
CONTINUOUS
 62
     4
 10
226.0
 20
-148.0
 30
0.0
 11
226.0
 21
-146.5
 31
0.0
  0
LINE
  5
17E
  8
ZUWAKU
  6
CONTINUOUS
 62
     4
 10
243.0
 20
-148.0
 30
0.0
 11
243.0
 21
-146.5
 31
0.0
  0
LINE
  5
17F
  8
ZUWAKU
  6
CONTINUOUS
 62
     4
 10
202.0
 20
-139.5
 30
0.0
 11
202.0
 21
-130.0
 31
0.0
  0
LINE
  5
180
  8
ZUWAKU
  6
CONTINUOUS
 62
     4
 10
226.0
 20
-139.5
 30
0.0
 11
226.0
 21
-130.0
 31
0.0
  0
LINE
  5
181
  8
ZUWAKU
  6
CONTINUOUS
 62
     4
 10
243.0
 20
-139.5
 30
0.0
 11
243.0
 21
-130.0
 31
0.0
  0
LINE
  5
182
  8
ZUWAKU
  6
CONTINUOUS
 62
     4
 10
97.00000000000001
 20
-151.0
 30
0.0
 11
146.0
 21
-151.0
 31
0.0
  0
LINE
  5
183
  8
ZUWAKU
  6
CONTINUOUS
 62
     4
 10
97.00000000000001
 20
-158.0
 30
0.0
 11
146.0
 21
-158.0
 31
0.0
  0
LINE
  5
184
  8
ZUWAKU
  6
CONTINUOUS
 62
     4
 10
101.0
 20
-130.5
 30
0.0
 11
98.00000000000001
 21
-136.5
 31
0.0
  0
LINE
  5
185
  8
ZUWAKU
  6
CONTINUOUS
 62
     4
 10
101.0
 20
-130.5
 30
0.0
 11
104.0
 21
-136.5
 31
0.0
  0
LINE
  5
186
  8
ZUWAKU
  6
CONTINUOUS
 62
     4
 10
98.00000000000001
 20
-136.5
 30
0.0
 11
104.0
 21
-136.5
 31
0.0
  0
LINE
  5
187
  8
ZUWAKU
  6
CONTINUOUS
 62
     4
 10
101.0
 20
-158.5
 30
0.0
 11
98.00000000000001
 21
-164.5
 31
0.0
  0
LINE
  5
188
  8
ZUWAKU
  6
CONTINUOUS
 62
     4
 10
101.0
 20
-158.5
 30
0.0
 11
104.0
 21
-164.5
 31
0.0
  0
LINE
  5
189
  8
ZUWAKU
  6
CONTINUOUS
 62
     4
 10
98.00000000000001
 20
-164.5
 30
0.0
 11
104.0
 21
-164.5
 31
0.0
  0
LINE
  5
18A
  8
ZUWAKU
  6
CONTINUOUS
 62
     4
 10
101.0
 20
-151.5
 30
0.0
 11
98.00000000000001
 21
-157.5
 31
0.0
  0
LINE
  5
18B
  8
ZUWAKU
  6
CONTINUOUS
 62
     4
 10
101.0
 20
-151.5
 30
0.0
 11
104.0
 21
-157.5
 31
0.0
  0
LINE
  5
18C
  8
ZUWAKU
  6
CONTINUOUS
 62
     4
 10
98.00000000000001
 20
-157.5
 30
0.0
 11
104.0
 21
-157.5
 31
0.0
  0
LINE
  5
18D
  8
ZUWAKU
  6
CONTINUOUS
 62
     4
 10
101.0
 20
-144.5
 30
0.0
 11
98.00000000000001
 21
-150.5
 31
0.0
  0
LINE
  5
18E
  8
ZUWAKU
  6
CONTINUOUS
 62
     4
 10
101.0
 20
-144.5
 30
0.0
 11
104.0
 21
-150.5
 31
0.0
  0
LINE
  5
18F
  8
ZUWAKU
  6
CONTINUOUS
 62
     4
 10
98.00000000000001
 20
-150.5
 30
0.0
 11
104.0
 21
-150.5
 31
0.0
  0
LINE
  5
190
  8
ZUWAKU
  6
CONTINUOUS
 62
     4
 10
101.0
 20
-137.5
 30
0.0
 11
98.00000000000001
 21
-143.5
 31
0.0
  0
LINE
  5
191
  8
ZUWAKU
  6
CONTINUOUS
 62
     4
 10
101.0
 20
-137.5
 30
0.0
 11
104.0
 21
-143.5
 31
0.0
  0
LINE
  5
192
  8
ZUWAKU
  6
CONTINUOUS
 62
     4
 10
98.00000000000001
 20
-143.5
 30
0.0
 11
104.0
 21
-143.5
 31
0.0
  0
LINE
  5
193
  8
ZUWAKU
  6
CONTINUOUS
 62
     4
 10
172.6666666666666
 20
-176.0
 30
0.0
 11
172.6666666666666
 21
-162.0
 31
0.0
  0
LINE
  5
194
  8
ZUWAKU
  6
CONTINUOUS
 62
     4
 10
199.3333333333333
 20
-176.0
 30
0.0
 11
199.3333333333333
 21
-161.9509415757253
 31
0.0
  0
LINE
  5
195
  8
ZUWAKU
  6
CONTINUOUS
 62
     4
 10
212.6666666666666
 20
-167.5
 30
0.0
 11
212.6666666666666
 21
-161.9509415757253
 31
0.0
  0
LINE
  5
196
  8
ZUWAKU
  6
CONTINUOUS
 62
     4
 10
226.0
 20
-155.0
 30
0.0
 11
255.0
 21
-155.0
 31
0.0
  0
LINE
  5
197
  8
ZUWAKU
  6
CONTINUOUS
 62
     4
 10
146.0
 20
-166.0
 30
0.0
 11
226.0
 21
-166.0
 31
0.0
  0
TEXT
  5
199
  8
ZUWAKU
 62
     7
 10
148.3132301474747
 20
-130.821188728956
 30
0.0
 40
2.6656
  1
符号
 41
0.8
  7
FDASTYLE0
  0
TEXT
  5
19A
  8
ZUWAKU
 62
     7
 10
162.4141311219058
 20
-135.8245525019963
 30
0.0
 40
4.0
  1
品       名
 41
0.765957446808511
  7
FDASTYLE1
 72
     5
 11
191.2141311219058
 21
-135.8245525019963
 31
0.0
  0
TEXT
  5
19B
  8
ZUWAKU
 62
     7
 10
207.2331564413096
 20
-135.8245525019963
 30
0.0
 40
4.0
  1
材  料
 41
0.7272727272727279
  7
FDASTYLE1
 72
     5
 11
220.0331564413096
 21
-135.8245525019963
 31
0.0
  0
TEXT
  5
19C
  8
ZUWAKU
 62
     7
 10
229.516061684855
 20
-135.8245525019963
 30
0.0
 40
4.0
  1
個 数
 41
0.7058823529411761
  7
FDASTYLE1
 72
     5
 11
239.116061684855
 21
-135.8245525019963
 31
0.0
  0
TEXT
  5
19D
  8
ZUWAKU
 62
     7
 10
245.721810952888
 20
-133.5649080050572
 30
0.0
 40
2.5
  1
単重量
 41
0.6666666666666666
  7
FDASTYLE1
 72
     5
 11
251.721810952888
 21
-133.5649080050572
 31
0.0
  0
TEXT
  5
19E
  8
ZUWAKU
 62
     7
 10
244.7089516236359
 20
-137.3631304897525
 30
0.0
 40
2.5
  1
(kg)
 41
0.8
  7
FDASTYLE1
 72
     5
 11
252.7089516236359
 21
-137.3631304897525
 31
0.0
  0
TEXT
  5
19F
  8
ZUWAKU
 62
     7
 10
259.1421970654778
 20
-135.8245525019963
 30
0.0
 40
4.0
  1
記  事
 41
0.7272727272727279
  7
FDASTYLE1
 72
     5
 11
271.9421970654778
 21
-135.8245525019963
 31
0.0
  0
TEXT
  5
1A0
  8
ZUWAKU
 62
     7
 10
258.8450794551645
 20
-165.4873041997729
 30
0.0
 40
3.0
  1
コード番号
 41
0.6666666666666666
  7
FDASTYLE1
 72
     5
 11
270.8450794551645
 21
-165.4873041997729
 31
0.0
  0
TEXT
  5
1A1
  8
ZUWAKU
 62
     7
 10
101.9119920158317
 20
-175.1879010540338
 30
0.0
 40
2.5
  1
訂 正 来 歴
 41
0.717948717948718
  7
FDASTYLE1
 72
     5
 11
115.9119920158317
 21
-175.1879010540338
 31
0.0
  0
TEXT
  5
1A2
  8
ZUWAKU
 62
     7
 10
125.890334846765
 20
-175.2166697391651
 30
0.0
 40
2.5
  1
工 事 番 号
 41
0.717948717948718
  7
FDASTYLE1
 72
     5
 11
139.890334846765
 21
-175.2166697391651
 31
0.0
  0
TEXT
  5
1A3
  8
ZUWAKU
 62
     7
 10
99.96483784660289
 20
-165.9634530565915
 30
0.0
 40
2.0825
  1
記号
 41
0.8
  7
FDASTYLE0
  0
TEXT
  5
1A4
  8
ZUWAKU
 62
     7
 10
105.9042249067618
 20
-165.9634530565915
 30
0.0
 40
2.0825
  1
理由
 41
0.8
  7
FDASTYLE0
  0
TEXT
  5
1A5
  8
ZUWAKU
 62
     7
 10
111.6193667909843
 20
-169.8786046700178
 30
0.0
 40
3.0
  1
日 付
 41
0.7058823529411754
  7
FDASTYLE1
 72
     5
 11
118.8193667909843
 21
-169.8786046700178
 31
0.0
  0
TEXT
  5
1A6
  8
ZUWAKU
 62
     7
 10
153.4481689819652
 20
-165.7187911464244
 30
0.0
 40
3.0
  1
承   認
 41
0.7407407407407408
  7
FDASTYLE1
 72
     5
 11
165.4481689819652
 21
-165.7187911464244
 31
0.0
  0
TEXT
  5
1A7
  8
ZUWAKU
 62
     7
 10
179.863228033234
 20
-165.4873041997729
 30
0.0
 40
3.0
  1
検   図
 41
0.7407407407407408
  7
FDASTYLE1
 72
     5
 11
191.863228033234
 21
-165.4873041997729
 31
0.0
  0
TEXT
  5
1A8
  8
ZUWAKU
 62
     7
 10
201.4771920983751
 20
-165.4873041997729
 30
0.0
 40
3.0
  1
担  当
 41
0.7272727272727269
  7
FDASTYLE1
 72
     5
 11
211.0771920983751
 21
-165.4873041997729
 31
0.0
  0
TEXT
  5
1A9
  8
ZUWAKU
 62
     7
 10
214.6770574841112
 20
-165.4873041997729
 30
0.0
 40
3.0
  1
製  図
 41
0.7272727272727269
  7
FDASTYLE1
 72
     5
 11
224.2770574841112
 21
-165.4873041997729
 31
0.0
  0
TEXT
  5
1AA
  8
ZUWAKU
 62
     7
 10
226.9462372304199
 20
-153.2184960272417
 30
0.0
 40
3.0
  1
作図
 41
0.6666666666666683
  7
FDASTYLE1
 72
     5
 11
231.7462372304199
 21
-153.2184960272417
 31
0.0
  0
TEXT
  5
1AB
  8
ZUWAKU
 62
     7
 10
228.1036719636776
 20
-160.2371566401815
 30
0.0
 40
4.0
  1
第 三 角 法
 41
0.7179487179487182
  7
FDASTYLE1
 72
     5
 11
250.5036719636776
 21
-160.2371566401815
 31
0.0
  0
TEXT
  5
1AC
  8
ZUWAKU
 62
     7
 10
227.409211123723
 20
-166.413251986379
 30
0.0
 40
3.0
  1
尺度
 41
0.6666666666666683
  7
FDASTYLE1
 72
     5
 11
232.209211123723
 21
-166.413251986379
 31
0.0
  0
TEXT
  5
1AE
  8
ZUWAKU
 62
     3
 10
105.379154370034
 20
-185.9272077185017
 30
0.0
 40
7.0
  1
株式会社 野村製作所
 41
0.5763738641280831
  7
FDASTYLE2
 72
     5
 11
161.379154370034
 21
-185.9272077185017
 31
0.0
  0
TEXT
  5
1B0
  8
ZUWAKU
 62
     3
 10
183.6118217934165
 20
-187.1216685584563
 30
0.0
 40
8.0
  1
２－
 41
0.8244023083264632
  7
FDASTYLE3
 72
     5
 11
199.6118217934165
 21
-187.1216685584563
 31
0.0
  0
TEXT
  5
1B1
  8
ZUWAKU
 62
     3
 10
200.5237794178233
 20
-187.1216685584563
 30
0.0
 40
8.0
  1
D006010
 41
1.555901311402534
  7
FDASTYLE3
 72
     5
 11
256.5237794178233
 21
-187.1216685584563
 31
0.0
  0
TEXT
  5
1B2
  8
ZUWAKU
 62
     6
 10
165.7570051766932
 20
-145.3589000228561
 30
0.0
 40
5.0
  1
外　形　図
 41
0.5833333333333334
  7
FDASTYLE1
 72
     5
 11
183.2570051766932
 21
-145.3589000228561
 31
0.0
  0
TEXT
  5
1B3
  8
ZUWAKU
 62
     6
 10
149.4914865399942
 20
-158.4154457314337
 30
0.0
 40
6.0
  1
AXN33-1-1型ｴｱｰｼﾘﾝﾀﾞ
 41
0.6923076923076923
  7
FDASTYLE1
 72
     5
 11
225.0914865399942
 21
-158.4154457314337
 31
0.0
  0
TEXT
  5
1B4
  8
ZUWAKU
 62
     4
 10
239.3011788906399
 20
-172.297487439201
 30
0.0
 40
3.0
  1
1/1
 41
0.7000000000000013
  7
FDASTYLE1
 72
     5
 11
245.6011788906399
 21
-172.297487439201
 31
0.0
  0
LINE
  5
1B5
  8
0
  6
CENTER
 62
     7
 10
-159.5718194254446
 20
149.0687732826995
 30
0.0
 11
-159.5718194254446
 21
-59.67945669776931
 31
0.0
  0
LINE
  5
1B6
  8
0
  6
CENTER
 62
     7
 10
-265.7419549234915
 20
44.65971566551194
 30
0.0
 11
-55.10537350259304
 21
44.65971566551194
 31
0.0
  0
LINE
  5
1B7
  8
0
  6
CENTER
 62
     7
 10
-90.70367226425199
 20
84.4207493627931
 30
0.0
 11
-75.74154287184095
 21
93.05913895019545
 31
0.0
  0
LINE
  5
1B8
  8
0
  6
CENTER
 62
     7
 10
-243.3922099157085
 20
-3.734020534667835
 30
0.0
 11
-228.6752887615817
 21
4.762798007812634
 31
0.0
  0
LINE
  5
1B9
  8
0
  6
CENTER
 62
     7
 10
-228.6379883444102
 20
84.53508653444452
 30
0.0
 11
-243.1188192643708
 21
92.89559831422967
 31
0.0
  0
LINE
  5
1BA
  8
0
  6
CENTER
 62
     7
 10
-75.87912973800488
 20
-3.660283186014468
 30
0.0
 11
-89.86431784715254
 21
4.414069078389829
 31
0.0
  0
LINE
  5
1BB
  8
0
  6
CENTER
 62
     7
 10
-121.3218019535948
 20
110.9106489169526
 30
0.0
 11
-109.3218029072691
 21
131.6952565829198
 31
0.0
  0
LINE
  5
1BC
  8
0
  6
CENTER
 62
     7
 10
-209.8217971852232
 20
-42.37583654260983
 30
0.0
 11
-197.8218009999205
 21
-21.59123383207965
 31
0.0
  0
LINE
  5
1BD
  8
0
  6
CENTER
 62
     7
 10
-197.8218130311925
 20
110.9106688585247
 30
0.0
 11
-209.8218130311925
 21
131.6952781763042
 31
0.0
  0
LINE
  5
1BE
  8
0
  6
CENTER
 62
     7
 10
-109.3218106470067
 20
-42.37582898963031
 30
0.0
 11
-121.3218063554723
 21
-21.5912271050063
 31
0.0
  0
LINE
  5
1BF
  8
0
  6
CENTER
 62
     7
 10
-194.7650048500478
 20
9.466560371014893
 30
0.0
 11
-199.1698022582673
 21
5.061762962795328
 31
0.0
  0
LINE
  5
1C0
  8
0
  6
CENTER
 62
     7
 10
-215.4772255388348
 20
-11.24566031777216
 30
0.0
 11
-227.3502447678971
 21
-23.11867954683443
 31
0.0
  0
LINE
  5
1C1
  8
0
  6
CENTER
 62
     7
 10
-235.9400217796074
 20
24.19693094813952
 30
0.0
 11
-251.786755762244
 21
19.95081133923246
 31
0.0
  0
LINE
  5
1C2
  8
0
  6
CENTER
 62
     7
 10
-207.1512142992897
 20
31.91086872819993
 30
0.0
 11
-213.6636672397463
 21
30.16586220743317
 31
0.0
  0
LINE
  5
1C3
  8
0
  6
CENTER
 62
     7
 10
-196.1125835184417
 20
23.56288498291029
 30
0.0
 11
-181.47387898225
 21
32.01454513916029
 31
0.0
  0
LINE
  5
1C4
  8
0
  6
CENTER
 62
     7
 10
-122.8618792069847
 20
23.4652203540246
 30
0.0
 11
-137.678787865691
 21
32.01976671022577
 31
0.0
  0
LINE
  5
1C5
  8
0
  6
CENTER
 62
     7
 10
-150.8218038609435
 20
59.81514770711986
 30
0.0
 11
-144.3218029072691
 21
71.07347940606279
 31
0.0
  0
LINE
  5
1C6
  8
0
  6
CENTER
 62
     7
 10
-168.3218026092459
 20
59.81516815976453
 30
0.0
 11
-174.8218064239432
 21
71.07350481414447
 31
0.0
  0
LINE
  5
1C7
  8
0
  6
CENTER
 62
     7
 10
-168.3218406434167
 20
29.50428696231198
 30
0.0
 11
-174.8218406434167
 21
18.2459569151814
 31
0.0
  0
LINE
  5
1C8
  8
0
  6
CENTER
 62
     7
 10
-150.8218356454927
 20
29.5042604978497
 30
0.0
 11
-144.3218356454927
 21
18.24593045071912
 31
0.0
  0
LINE
  5
1C9
  8
0
  6
CENTER
 62
     7
 10
-138.1380111683716
 20
81.78409017144362
 30
0.0
 11
-132.8020209778656
 21
91.02629612420786
 31
0.0
  0
LINE
  5
1CA
  8
0
  6
CENTER
 62
     7
 10
-181.0055700649132
 20
81.78412794764277
 30
0.0
 11
-186.3415609706749
 21
91.02633513926627
 31
0.0
  0
LINE
  5
1CB
  8
0
  6
CENTER
 62
     7
 10
-181.0056345280814
 20
7.535342433222795
 30
0.0
 11
-186.3416216191459
 21
-1.706858151151337
 31
0.0
  0
LINE
  5
1CC
  8
0
  6
CENTER
 62
     7
 10
-138.1380720045227
 20
7.535307317220813
 30
0.0
 11
-132.8020791914123
 21
-1.706903178027361
 31
0.0
  0
CIRCLE
  5
1CD
  8
0
  6
CENTER
 62
     7
 10
-159.5718194254446
 20
44.65971566551194
 30
0.0
 40
88.5
  0
ARC
  5
1CE
  8
0
  6
CENTER
 62
     7
 10
-159.5718194254446
 20
44.65971566551194
 30
0.0
 40
24.0
 50
44.43456745689417
 51
75.56542905222089
  0
ARC
  5
1CF
  8
0
  6
CENTER
 62
     7
 10
-159.5718194254446
 20
44.65971566551194
 30
0.0
 40
24.0
 50
104.4345691265463
 51
135.565430721873
  0
ARC
  5
1D0
  8
0
  6
CENTER
 62
     7
 10
-159.5718194254446
 20
44.65971566551194
 30
0.0
 40
24.0
 50
164.4345639660092
 51
195.5654323915251
  0
ARC
  5
1D1
  8
0
  6
CENTER
 62
     7
 10
-159.5718194254446
 20
44.65971566551194
 30
0.0
 40
24.0
 50
224.434569278127
 51
255.5654240432646
  0
ARC
  5
1D2
  8
0
  6
CENTER
 62
     7
 10
-159.5718194254446
 20
44.65971566551194
 30
0.0
 40
24.0
 50
284.43456411759
 51
315.5654257129167
  0
ARC
  5
1D3
  8
0
  6
CENTER
 62
     7
 10
-159.5718194254446
 20
44.65971566551194
 30
0.0
 40
24.0
 50
344.4345674947894
 51
375.5654256750215
  0
ARC
  5
1D4
  8
0
  6
CENTER
 62
     7
 10
-159.5718194254446
 20
44.65971566551194
 30
0.0
 40
48.0
 50
53.25417558117277
 51
66.25809419478459
  0
ARC
  5
1D5
  8
0
  6
CENTER
 62
     7
 10
-159.5718194254446
 20
44.65971566551194
 30
0.0
 40
48.0
 50
113.2541738357303
 51
126.2580958644367
  0
ARC
  5
1D6
  8
0
  6
CENTER
 62
     7
 10
-159.5718194254446
 20
44.65971566551194
 30
0.0
 40
48.0
 50
173.2541823355716
 51
186.2580975340888
  0
ARC
  5
1D7
  8
0
  6
CENTER
 62
     7
 10
-159.5718194254446
 20
44.65971566551194
 30
0.0
 40
48.0
 50
233.254173987311
 51
246.2580960160174
  0
ARC
  5
1D8
  8
0
  6
CENTER
 62
     7
 10
-159.5718194254446
 20
44.65971566551194
 30
0.0
 40
48.0
 50
293.2541756569631
 51
306.2580976856696
  0
ARC
  5
1D9
  8
0
  6
CENTER
 62
     7
 10
-159.5718194254446
 20
44.65971566551194
 30
0.0
 40
48.0
 50
353.2541764728416
 51
366.2580967940007
  0
LINE
  5
1DA
  8
0
  6
CENTER
 62
     7
 10
-5.305244565825461
 20
44.65971566551194
 30
0.0
 11
57.51401126303196
 21
44.65971566551194
 31
0.0
  0
LINE
  5
1DB
  8
0
  6
CENTER
 62
     7
 10
91.9281805745554
 20
122.2175083290862
 30
0.0
 11
91.9281805745554
 21
86.12924386375413
 31
0.0
  0
LINE
  5
1DC
  8
0
  6
CENTER
 62
     7
 10
82.4281805745554
 20
10.46667684429154
 30
0.0
 11
82.4281805745554
 21
-6.724445329971459
 31
0.0
  0
LINE
  5
1DD
  8
0
  6
CENTER
 62
     7
 10
73.9281805745554
 20
122.2175083290862
 30
0.0
 11
73.9281805745554
 21
86.12924386375413
 31
0.0
  0
LINE
  5
1DE
  8
0
  6
CENTER
 62
     7
 10
40.4281805745554
 20
86.342836393051
 30
0.0
 11
40.4281805745554
 21
72.07649422996506
 31
0.0
  0
LINE
  5
1DF
  8
0
  6
CENTER
 62
     7
 10
31.18939578451634
 20
20.65971757286057
 30
0.0
 11
53.68939578451634
 21
20.65971757286057
 31
0.0
  0
LINE
  5
1E0
  8
0
  6
CENTER
 62
     7
 10
31.9784849873972
 20
68.65971566551194
 30
0.0
 11
53.76811969198704
 21
68.65971566551194
 31
0.0
  0
LINE
  5
1E1
  8
0
  6
CENTER
 62
     7
 10
65.37720858969212
 20
44.65971566551194
 30
0.0
 11
174.1728399983835
 21
44.65971566551194
 31
0.0
  0
LINE
  5
1E2
  8
0
  6
CENTER
 62
     7
 10
181.9736365071726
 20
44.65971566551194
 30
0.0
 11
235.6455725423288
 21
44.65971566551194
 31
0.0
  0
LINE
  5
1E3
  8
0
  6
CENTER
 62
     7
 10
200.2896765462351
 20
-43.84028433448806
 30
0.0
 11
221.4281805745554
 21
-43.84028433448806
 31
0.0
  0
LINE
  5
1E4
  8
0
  6
CONTINUOUS
 62
     7
 10
-81.48519527993679
 20
2.909718526534888
 30
0.0
 11
-84.37195980630398
 21
2.909718526534888
 31
0.0
  0
LINE
  5
1E5
  8
0
  6
CONTINUOUS
 62
     7
 10
-84.37195863066202
 20
2.909719401111133
 30
0.0
 11
-85.81533326445108
 21
0.4097212459029009
 31
0.0
  0
LINE
  5
1E6
  8
0
  6
CONTINUOUS
 62
     7
 10
-84.37194944551177
 20
-2.090288222381801
 30
0.0
 11
-85.81532312562652
 21
0.4097082810140904
 31
0.0
  0
LINE
  5
1E7
  8
0
  6
CONTINUOUS
 62
     7
 10
-81.48519527993679
 20
-2.090282427139428
 30
0.0
 11
-84.37195980630398
 21
-2.090282427139428
 31
0.0
  0
LINE
  5
1E8
  8
0
  6
CONTINUOUS
 62
     7
 10
-80.04182508220859
 20
0.4097155864138671
 30
0.0
 11
-81.48519971599765
 21
-2.090282568794365
 31
0.0
  0
LINE
  5
1E9
  8
0
  6
CONTINUOUS
 62
     7
 10
-81.48519618442245
 20
2.90970828101409
 30
0.0
 11
-80.0418225043077
 21
0.4097117776181989
 31
0.0
  0
LINE
  5
1EA
  8
0
  6
CONTINUOUS
 62
     7
 10
-112.3218233355697
 20
-30.25147622569251
 30
0.0
 11
-115.3218250861692
 21
-28.51942437632728
 31
0.0
  0
LINE
  5
1EB
  8
0
  6
CONTINUOUS
 62
     7
 10
-115.3218022450187
 20
-28.51941238975873
 30
0.0
 11
-118.3218039956182
 21
-30.25146423912396
 31
0.0
  0
LINE
  5
1EC
  8
0
  6
CONTINUOUS
 62
     7
 10
-118.3218194254446
 20
-33.71557806617751
 30
0.0
 11
-118.3218194254446
 21
-30.25147436744705
 31
0.0
  0
LINE
  5
1ED
  8
0
  6
CONTINUOUS
 62
     7
 10
-115.3218233355697
 20
-35.4476285551374
 30
0.0
 11
-118.3218250861692
 21
-33.71557670577217
 31
0.0
  0
LINE
  5
1EE
  8
0
  6
CONTINUOUS
 62
     7
 10
-112.3217993839958
 20
-33.71556967464063
 30
0.0
 11
-115.3218011345953
 21
-35.44762152400587
 31
0.0
  0
LINE
  5
1EF
  8
0
  6
CONTINUOUS
 62
     7
 10
-112.3218194254446
 20
-30.25147436744705
 30
0.0
 11
-112.3218194254446
 21
-33.71557806617751
 31
0.0
  0
LINE
  5
1F0
  8
0
  6
CONTINUOUS
 62
     7
 10
-80.04180298058284
 20
88.90970570855824
 30
0.0
 11
-81.48517761437191
 21
86.40970755335
 31
0.0
  0
LINE
  5
1F1
  8
0
  6
CONTINUOUS
 62
     7
 10
-81.48519229965248
 20
91.40970679916187
 30
0.0
 11
-80.04181766586342
 21
88.90970864395364
 31
0.0
  0
LINE
  5
1F2
  8
0
  6
CONTINUOUS
 62
     7
 10
-84.37195980630398
 20
91.40970803611741
 30
0.0
 11
-81.48519527993679
 21
91.40970803611741
 31
0.0
  0
LINE
  5
1F3
  8
0
  6
CONTINUOUS
 62
     7
 10
-84.37194313628564
 20
91.40971333795277
 30
0.0
 11
-85.8153177700747
 21
88.90971518274453
 31
0.0
  0
LINE
  5
1F4
  8
0
  6
CONTINUOUS
 62
     7
 10
-85.81532254448123
 20
88.90970489181323
 30
0.0
 11
-84.37194791069217
 21
86.409706736605
 31
0.0
  0
LINE
  5
1F5
  8
0
  6
CONTINUOUS
 62
     7
 10
-81.48519527993679
 20
86.40971566551194
 30
0.0
 11
-84.37195980630398
 21
86.40971566551194
 31
0.0
  0
LINE
  5
1F6
  8
0
  6
CONTINUOUS
 62
     7
 10
-158.1284437887926
 20
135.6597048062371
 30
0.0
 11
-156.6850691550035
 21
133.1597066510288
 31
0.0
  0
LINE
  5
1F7
  8
0
  6
CONTINUOUS
 62
     7
 10
-161.0151940592337
 20
135.659715665512
 30
0.0
 11
-158.1284447916555
 21
135.659715665512
 31
0.0
  0
LINE
  5
1F8
  8
0
  6
CONTINUOUS
 62
     7
 10
-162.4585646293868
 20
133.1597151827446
 30
0.0
 11
-161.0151899955977
 21
135.6597133379528
 31
0.0
  0
LINE
  5
1F9
  8
0
  6
CONTINUOUS
 62
     7
 10
-162.4585707299966
 20
133.1597048062371
 30
0.0
 11
-161.0151960962076
 21
130.6597066510288
 31
0.0
  0
LINE
  5
1FA
  8
0
  6
CONTINUOUS
 62
     7
 10
-161.0151940592337
 20
130.659715665512
 30
0.0
 11
-158.1284447916555
 21
130.659715665512
 31
0.0
  0
LINE
  5
1FB
  8
0
  6
CONTINUOUS
 62
     7
 10
-156.6850498398949
 20
133.1597057085583
 30
0.0
 11
-158.128424473684
 21
130.65970755335
 31
0.0
  0
LINE
  5
1FC
  8
0
  6
CONTINUOUS
 62
     7
 10
-115.3217938716948
 20
124.7670482913892
 30
0.0
 11
-112.3218119428434
 21
123.0350078861157
 31
0.0
  0
LINE
  5
1FD
  8
0
  6
CONTINUOUS
 62
     7
 10
-118.3218272065672
 20
123.0350174542631
 30
0.0
 11
-115.3218254559677
 21
124.7670693036283
 31
0.0
  0
LINE
  5
1FE
  8
0
  6
CONTINUOUS
 62
     7
 10
-118.3218194254446
 20
123.0350208412932
 30
0.0
 11
-118.3218194254446
 21
119.5709095131682
 31
0.0
  0
LINE
  5
1FF
  8
0
  6
CONTINUOUS
 62
     7
 10
-118.3217938716948
 20
119.5708959619443
 30
0.0
 11
-115.3218119428434
 21
117.8388555566709
 31
0.0
  0
LINE
  5
200
  8
0
  6
CONTINUOUS
 62
     7
 10
-112.3218254559677
 20
119.5709169741834
 30
0.0
 11
-115.3218272065672
 21
117.8388651248182
 31
0.0
  0
LINE
  5
201
  8
0
  6
CONTINUOUS
 62
     7
 10
-112.3218194254446
 20
123.0350208412932
 30
0.0
 11
-112.3218194254446
 21
119.5709095131682
 31
0.0
  0
LINE
  5
202
  8
0
  6
CONTINUOUS
 62
     7
 10
-237.6584435709524
 20
91.40970803611741
 30
0.0
 11
-234.7716943033743
 21
91.40970803611741
 31
0.0
  0
LINE
  5
203
  8
0
  6
CONTINUOUS
 62
     7
 10
-239.1018137685765
 20
88.90971361650837
 30
0.0
 11
-237.6584391347874
 21
91.4097117717166
 31
0.0
  0
LINE
  5
204
  8
0
  6
CONTINUOUS
 62
     7
 10
-237.6584363482703
 20
86.40971046572609
 30
0.0
 11
-239.1018109820593
 21
88.90970862093433
 31
0.0
  0
LINE
  5
205
  8
0
  6
CONTINUOUS
 62
     7
 10
-237.6584435709524
 20
86.40971566551194
 30
0.0
 11
-234.7716943033743
 21
86.40971566551194
 31
0.0
  0
LINE
  5
206
  8
0
  6
CONTINUOUS
 62
     7
 10
-234.7716736128737
 20
86.40970598711384
 30
0.0
 11
-233.3282989790846
 21
88.90970414232207
 31
0.0
  0
LINE
  5
207
  8
0
  6
CONTINUOUS
 62
     7
 10
-234.7716708263565
 20
91.40971625032886
 30
0.0
 11
-233.3282961925675
 21
88.90971809512062
 31
0.0
  0
LINE
  5
208
  8
0
  6
CONTINUOUS
 62
     7
 10
-206.8218039956182
 20
123.0350294795002
 30
0.0
 11
-203.8218022450187
 21
124.7670813288654
 31
0.0
  0
LINE
  5
209
  8
0
  6
CONTINUOUS
 62
     7
 10
-206.8218194254446
 20
119.5709095131682
 30
0.0
 11
-206.8218194254446
 21
123.0350208412932
 31
0.0
  0
LINE
  5
20A
  8
0
  6
CONTINUOUS
 62
     7
 10
-206.8218060469431
 20
119.5709065693545
 30
0.0
 11
-203.8217976890942
 21
117.838850905292
 31
0.0
  0
LINE
  5
20B
  8
0
  6
CONTINUOUS
 62
     7
 10
-203.8218039956182
 20
117.8388771500553
 30
0.0
 11
-200.8218022450187
 21
119.5709289994205
 31
0.0
  0
LINE
  5
20C
  8
0
  6
CONTINUOUS
 62
     7
 10
-200.8218194254446
 20
123.0350208412932
 30
0.0
 11
-200.8218194254446
 21
119.5709095131682
 31
0.0
  0
LINE
  5
20D
  8
0
  6
CONTINUOUS
 62
     7
 10
-203.82180613635
 20
124.767058743942
 30
0.0
 11
-200.8217977785012
 21
123.0350030798795
 31
0.0
  0
LINE
  5
20E
  8
0
  6
CONTINUOUS
 62
     7
 10
-239.1018131874312
 20
0.4097170057092257
 30
0.0
 11
-237.6584385536421
 21
2.909715160917457
 31
0.0
  0
LINE
  5
20F
  8
0
  6
CONTINUOUS
 62
     7
 10
-237.6584350220669
 20
-2.090289448697732
 30
0.0
 11
-239.101809655856
 21
0.4097087065105001
 31
0.0
  0
LINE
  5
210
  8
0
  6
CONTINUOUS
 62
     7
 10
-234.7716943033743
 20
-2.090282427139428
 30
0.0
 11
-237.6584435709524
 21
-2.090282427139428
 31
0.0
  0
LINE
  5
211
  8
0
  6
CONTINUOUS
 62
     7
 10
-234.7716730317284
 20
-2.090290623685306
 30
0.0
 11
-233.3282983979393
 21
0.4097075315229262
 31
0.0
  0
LINE
  5
212
  8
0
  6
CONTINUOUS
 62
     7
 10
-233.3282948663641
 20
0.4097181806967996
 30
0.0
 11
-234.7716695001532
 21
2.909716335905031
 31
0.0
  0
LINE
  5
213
  8
0
  6
CONTINUOUS
 62
     7
 10
-237.6584435709524
 20
2.909718526534888
 30
0.0
 11
-234.7716943033743
 21
2.909718526534888
 31
0.0
  0
LINE
  5
214
  8
0
  6
CONTINUOUS
 62
     7
 10
-251.0718194254446
 20
42.92766381614671
 30
0.0
 11
-251.0718194254446
 21
46.39176751487717
 31
0.0
  0
LINE
  5
215
  8
0
  6
CONTINUOUS
 62
     7
 10
-248.0717967354199
 20
41.19560569779229
 30
0.0
 11
-251.0718050932688
 21
42.92766136185479
 31
0.0
  0
LINE
  5
216
  8
0
  6
CONTINUOUS
 62
     7
 10
-248.0718105172914
 20
41.1956251498426
 30
0.0
 11
-245.0718153739413
 21
42.92767318451057
 31
0.0
  0
LINE
  5
217
  8
0
  6
CONTINUOUS
 62
     7
 10
-245.0718194254446
 20
42.92766381614671
 30
0.0
 11
-245.0718194254446
 21
46.39176751487717
 31
0.0
  0
LINE
  5
218
  8
0
  6
CONTINUOUS
 62
     7
 10
-248.0718050932688
 20
48.12381369129967
 30
0.0
 11
-245.0717967354199
 21
46.39175802723717
 31
0.0
  0
LINE
  5
219
  8
0
  6
CONTINUOUS
 62
     7
 10
-251.0718105172914
 20
46.39177747928748
 30
0.0
 11
-248.0718153739413
 21
48.12382551395545
 31
0.0
  0
LINE
  5
21A
  8
0
  6
CONTINUOUS
 62
     7
 10
-161.0151896975745
 20
-46.34028440768454
 30
0.0
 11
-162.4585633776892
 21
-43.84028790428864
 31
0.0
  0
LINE
  5
21B
  8
0
  6
CONTINUOUS
 62
     7
 10
-158.1284447916555
 20
-46.3402805197908
 30
0.0
 11
-161.0151940592337
 21
-46.3402805197908
 31
0.0
  0
LINE
  5
21C
  8
0
  6
CONTINUOUS
 62
     7
 10
-156.6850515386273
 20
-43.84029246847707
 30
0.0
 11
-158.1284261724163
 21
-46.34029062368531
 31
0.0
  0
LINE
  5
21D
  8
0
  6
CONTINUOUS
 62
     7
 10
-156.6850495418717
 20
-43.84027677829
 30
0.0
 11
-158.1284232219864
 21
-41.34028027489411
 31
0.0
  0
LINE
  5
21E
  8
0
  6
CONTINUOUS
 62
     7
 10
-158.1284447916555
 20
-41.3402805197908
 30
0.0
 11
-161.0151940592337
 21
-41.3402805197908
 31
0.0
  0
LINE
  5
21F
  8
0
  6
CONTINUOUS
 62
     7
 10
-162.4585663281191
 20
-43.84028299429077
 30
0.0
 11
-161.0151916943301
 21
-41.34028483908254
 31
0.0
  0
LINE
  5
220
  8
0
  6
CONTINUOUS
 62
     7
 10
-203.8218062207975
 20
-35.44762825107922
 30
0.0
 11
-206.8217881496489
 21
-33.71558784580579
 31
0.0
  0
LINE
  5
221
  8
0
  6
CONTINUOUS
 62
     7
 10
-200.8218077445468
 20
-33.71558688930021
 30
0.0
 11
-203.8218028878969
 21
-35.44763492396818
 31
0.0
  0
LINE
  5
222
  8
0
  6
CONTINUOUS
 62
     7
 10
-200.8218194254446
 20
-33.71557806617751
 30
0.0
 11
-200.8218194254446
 21
-30.25147436744705
 31
0.0
  0
LINE
  5
223
  8
0
  6
CONTINUOUS
 62
     7
 10
-200.8218062207975
 20
-30.25147592163434
 30
0.0
 11
-203.8217881496489
 21
-28.5194355163609
 31
0.0
  0
LINE
  5
224
  8
0
  6
CONTINUOUS
 62
     7
 10
-206.8218028878969
 20
-30.2514825945233
 30
0.0
 11
-203.8218077445468
 21
-28.51943455985533
 31
0.0
  0
LINE
  5
225
  8
0
  6
CONTINUOUS
 62
     7
 10
-206.8218194254446
 20
-33.71557806617751
 30
0.0
 11
-206.8218194254446
 21
-30.25147436744705
 31
0.0
  0
CIRCLE
  5
226
  8
0
  6
CONTINUOUS
 62
     7
 10
-115.3218194254446
 20
121.3029575478362
 30
0.0
 40
6.999999523162842
  0
CIRCLE
  5
227
  8
0
  6
CONTINUOUS
 62
     7
 10
-203.8218194254446
 20
121.3029575478362
 30
0.0
 40
6.999999523162842
  0
CIRCLE
  5
228
  8
0
  6
CONTINUOUS
 62
     7
 10
-248.0718194254446
 20
44.65971566551194
 30
0.0
 40
6.999999523162842
  0
CIRCLE
  5
229
  8
0
  6
CONTINUOUS
 62
     7
 10
-203.8218194254446
 20
-31.98353003150955
 30
0.0
 40
6.999999523162842
  0
CIRCLE
  5
22A
  8
0
  6
CONTINUOUS
 62
     7
 10
-115.3218194254446
 20
-31.98353003150955
 30
0.0
 40
6.999999523162842
  0
CIRCLE
  5
22B
  8
0
  6
CONTINUOUS
 62
     7
 10
-82.92856991372585
 20
0.409717572860572
 30
0.0
 40
5.5
  0
CIRCLE
  5
22C
  8
0
  6
CONTINUOUS
 62
     7
 10
-82.92856991372585
 20
88.90971566551194
 30
0.0
 40
5.5
  0
CIRCLE
  5
22D
  8
0
  6
CONTINUOUS
 62
     7
 10
-159.5718194254446
 20
133.159715665512
 30
0.0
 40
5.5
  0
CIRCLE
  5
22E
  8
0
  6
CONTINUOUS
 62
     7
 10
-236.2150689371634
 20
88.90971566551194
 30
0.0
 40
5.5
  0
CIRCLE
  5
22F
  8
0
  6
CONTINUOUS
 62
     7
 10
-236.2150689371634
 20
0.409717572860572
 30
0.0
 40
5.5
  0
CIRCLE
  5
230
  8
0
  6
CONTINUOUS
 62
     7
 10
-159.5718194254446
 20
-43.8402805197908
 30
0.0
 40
5.5
  0
CIRCLE
  5
231
  8
0
  6
CONTINUOUS
 62
     7
 10
-82.92856991372585
 20
0.409717572860572
 30
0.0
 40
4.999999523162842
  0
CIRCLE
  5
232
  8
0
  6
CONTINUOUS
 62
     7
 10
-115.3218194254446
 20
-31.98353003150955
 30
0.0
 40
6.5
  0
CIRCLE
  5
233
  8
0
  6
CONTINUOUS
 62
     7
 10
-82.92856991372585
 20
88.90971566551194
 30
0.0
 40
4.999999523162842
  0
CIRCLE
  5
234
  8
0
  6
CONTINUOUS
 62
     7
 10
-159.5718194254446
 20
133.159715665512
 30
0.0
 40
4.999999523162842
  0
CIRCLE
  5
235
  8
0
  6
CONTINUOUS
 62
     7
 10
-115.3218194254446
 20
121.3029575478362
 30
0.0
 40
6.5
  0
CIRCLE
  5
236
  8
0
  6
CONTINUOUS
 62
     7
 10
-236.2150689371634
 20
88.90971566551194
 30
0.0
 40
4.999999523162842
  0
CIRCLE
  5
237
  8
0
  6
CONTINUOUS
 62
     7
 10
-203.8218194254446
 20
121.3029575478362
 30
0.0
 40
6.5
  0
CIRCLE
  5
238
  8
0
  6
CONTINUOUS
 62
     7
 10
-236.2150689371634
 20
0.409717572860572
 30
0.0
 40
4.999999523162842
  0
CIRCLE
  5
239
  8
0
  6
CONTINUOUS
 62
     7
 10
-248.0718194254446
 20
44.65971566551194
 30
0.0
 40
6.5
  0
CIRCLE
  5
23A
  8
0
  6
CONTINUOUS
 62
     7
 10
-159.5718194254446
 20
-43.8402805197908
 30
0.0
 40
4.999999523162842
  0
CIRCLE
  5
23B
  8
0
  6
CONTINUOUS
 62
     7
 10
-203.8218194254446
 20
-31.98353003150955
 30
0.0
 40
6.5
  0
CIRCLE
  5
23C
  8
0
  6
CONTINUOUS
 62
     7
 10
-159.5718194254446
 20
44.65971566551194
 30
0.0
 40
18.49999809265137
  0
CIRCLE
  5
23D
  8
0
  6
CONTINUOUS
 62
     7
 10
-159.5718194254446
 20
44.65971566551194
 30
0.0
 40
19.5
  0
ARC
  5
23E
  8
0
  6
CONTINUOUS
 62
     7
 10
-159.5718194254446
 20
44.65971566551194
 30
0.0
 40
27.99999809265137
 50
245.166775220622
 51
601.0834659262692
  0
CIRCLE
  5
23F
  8
0
  6
CONTINUOUS
 62
     7
 10
-159.5718194254446
 20
44.65971566551194
 30
0.0
 40
39.0
  0
CIRCLE
  5
240
  8
0
  6
CONTINUOUS
 62
     7
 10
-159.5718194254446
 20
44.65971566551194
 30
0.0
 40
39.5
  0
CIRCLE
  5
241
  8
0
  6
CONTINUOUS
 62
     7
 10
-147.5718194254446
 20
23.87510873191819
 30
0.0
 40
3.0
  0
CIRCLE
  5
242
  8
0
  6
CONTINUOUS
 62
     7
 10
-135.5718194254446
 20
44.65971566551194
 30
0.0
 40
3.0
  0
CIRCLE
  5
243
  8
0
  6
CONTINUOUS
 62
     7
 10
-147.5718194254446
 20
65.44432259910569
 30
0.0
 40
3.0
  0
CIRCLE
  5
244
  8
0
  6
CONTINUOUS
 62
     7
 10
-171.5718194254446
 20
65.44432259910569
 30
0.0
 40
3.0
  0
CIRCLE
  5
245
  8
0
  6
CONTINUOUS
 62
     7
 10
-183.5718194254446
 20
44.65971566551194
 30
0.0
 40
3.0
  0
CIRCLE
  5
246
  8
0
  6
CONTINUOUS
 62
     7
 10
-171.5718194254446
 20
23.87510873191819
 30
0.0
 40
3.0
  0
ARC
  5
247
  8
0
  6
CONTINUOUS
 62
     7
 10
-159.5718194254446
 20
44.65971566551194
 30
0.0
 40
77.49999237060547
 50
0.0
 51
186.1604531497143
  0
ARC
  5
248
  8
0
  6
CONTINUOUS
 62
     7
 10
-159.5718194254446
 20
44.65971566551194
 30
0.0
 40
76.49999237060547
 50
0.0
 51
185.9776772875248
  0
ARC
  5
249
  8
0
  6
CONTINUOUS
 62
     7
 10
-159.5718194254446
 20
44.65971566551194
 30
0.0
 40
76.49999237060547
 50
204.1667069161662
 51
216.3401394135016
  0
ARC
  5
24A
  8
0
  6
CONTINUOUS
 62
     7
 10
-159.5718194254446
 20
44.65971566551194
 30
0.0
 40
77.49999237060547
 50
204.001662225062
 51
216.436335797772
  0
ARC
  5
24B
  8
0
  6
CONTINUOUS
 62
     7
 10
-159.5718194254446
 20
44.65971566551194
 30
0.0
 40
76.49999237060547
 50
234.0492353274572
 51
360.0
  0
ARC
  5
24C
  8
0
  6
CONTINUOUS
 62
     7
 10
-159.5718194254446
 20
44.65971566551194
 30
0.0
 40
77.49999237060547
 50
234.0547267995499
 51
360.0
  0
LINE
  5
24D
  8
0
  6
CONTINUOUS
 62
     7
 10
-68.0718194254446
 20
46.39176751487717
 30
0.0
 11
-68.0718194254446
 21
42.92766381614671
 31
0.0
  0
LINE
  5
24E
  8
0
  6
CONTINUOUS
 62
     7
 10
-71.07182612925047
 20
48.12382067631503
 30
0.0
 11
-68.07182437865097
 21
46.3917688269498
 31
0.0
  0
LINE
  5
24F
  8
0
  6
CONTINUOUS
 62
     7
 10
-71.07181782657315
 20
48.12380922981753
 30
0.0
 11
-74.07181957717265
 21
46.39175738045229
 31
0.0
  0
LINE
  5
250
  8
0
  6
CONTINUOUS
 62
     7
 10
-74.0718194254446
 20
46.39176751487717
 30
0.0
 11
-74.0718194254446
 21
42.92766381614671
 31
0.0
  0
LINE
  5
251
  8
0
  6
CONTINUOUS
 62
     7
 10
-71.07182428924401
 20
41.19561665236232
 30
0.0
 11
-74.0718260398435
 21
42.92766850172755
 31
0.0
  0
LINE
  5
252
  8
0
  6
CONTINUOUS
 62
     7
 10
-68.07181782657315
 20
42.92765690037264
 30
0.0
 11
-71.07181957717265
 21
41.19560505100741
 31
0.0
  0
LINE
  5
253
  8
0
  6
CONTINUOUS
 62
     7
 10
-221.431545377593
 20
-177.1467418540193
 30
0.0
 11
-73.11117947183132
 21
-177.1467418540193
 31
0.0
  0
LINE
  5
254
  8
0
  6
CONTINUOUS
 62
     7
 10
-221.431545377593
 20
-169.5467510092927
 30
0.0
 11
-73.11117947183132
 21
-169.5467510092927
 31
0.0
  0
LINE
  5
255
  8
0
  6
CONTINUOUS
 62
     7
 10
-221.431545377593
 20
-161.9467449057771
 30
0.0
 11
-73.11117947183132
 21
-161.9467449057771
 31
0.0
  0
LINE
  5
256
  8
0
  6
CONTINUOUS
 62
     7
 10
-221.431545377593
 20
-154.3467540610506
 30
0.0
 11
-73.11117947183132
 21
-154.3467540610506
 31
0.0
  0
LINE
  5
257
  8
0
  6
CONTINUOUS
 62
     7
 10
-221.431545377593
 20
-146.7467326987459
 30
0.0
 11
-73.11117947183132
 21
-146.7467326987459
 31
0.0
  0
LINE
  5
258
  8
0
  6
CONTINUOUS
 62
     7
 10
-221.431545377593
 20
-139.1467418540193
 30
0.0
 11
-73.11117947183132
 21
-139.1467418540193
 31
0.0
  0
LINE
  5
259
  8
0
  6
CONTINUOUS
 62
     7
 10
-221.431545377593
 20
-131.5467510092927
 30
0.0
 11
-73.11117947183132
 21
-131.5467510092927
 31
0.0
  0
LINE
  5
25A
  8
0
  6
CONTINUOUS
 62
     7
 10
-221.431545377593
 20
-123.9467449057771
 30
0.0
 11
-73.11117947183132
 21
-123.9467449057771
 31
0.0
  0
LINE
  5
25B
  8
0
  6
CONTINUOUS
 62
     7
 10
-221.431545377593
 20
-116.3467540610506
 30
0.0
 11
-73.11117947183132
 21
-116.3467540610506
 31
0.0
  0
LINE
  5
25C
  8
0
  6
CONTINUOUS
 62
     7
 10
-221.431545377593
 20
-108.7467403281404
 30
0.0
 11
-73.11117947183132
 21
-108.7467403281404
 31
0.0
  0
LINE
  5
25D
  8
0
  6
CONTINUOUS
 62
     7
 10
-221.431545377593
 20
-101.1467418540193
 30
0.0
 11
-73.11117947183132
 21
-101.1467418540193
 31
0.0
  0
LINE
  5
25E
  8
0
  6
CONTINUOUS
 62
     7
 10
-221.431545377593
 20
-93.54674337989822
 30
0.0
 11
-204.2866021402884
 21
-93.54674337989822
 31
0.0
  0
CIRCLE
  5
25F
  8
0
  6
CONTINUOUS
 62
     7
 10
-71.0718194254446
 20
44.65971566551194
 30
0.0
 40
6.999999523162842
  0
CIRCLE
  5
260
  8
0
  6
CONTINUOUS
 62
     7
 10
-71.0718194254446
 20
44.65971566551194
 30
0.0
 40
6.5
  0
LINE
  5
261
  8
0
  6
CONTINUOUS
 62
     7
 10
37.4281805745554
 20
83.3710346352385
 30
0.0
 11
37.4281805745554
 21
73.65971566551194
 31
0.0
  0
LINE
  5
262
  8
0
  6
CONTINUOUS
 62
     7
 10
43.4281805745554
 20
83.65971566551194
 30
0.0
 11
43.4281805745554
 21
73.65971566551194
 31
0.0
  0
LINE
  5
263
  8
0
  6
CONTINUOUS
 62
     7
 10
203.4281805745554
 20
-46.84028433448806
 30
0.0
 11
216.4281805745554
 21
-46.84028433448806
 31
0.0
  0
LINE
  5
264
  8
0
  6
CONTINUOUS
 62
     7
 10
203.4281805745554
 20
-40.84028433448806
 30
0.0
 11
216.4281805745554
 21
-40.84028433448806
 31
0.0
  0
LINE
  5
265
  8
0
  6
CONTINUOUS
 62
     7
 10
208.2942084065867
 20
24.65971566551194
 30
0.0
 11
230.4281805745554
 21
24.65971566551194
 31
0.0
  0
LINE
  5
266
  8
0
  6
CONTINUOUS
 62
     7
 10
208.2942084065867
 20
64.65971566551194
 30
0.0
 11
230.4281805745554
 21
64.65971566551194
 31
0.0
  0
LINE
  5
267
  8
0
  6
CONTINUOUS
 62
     7
 10
34.4281805745554
 20
17.65971757286057
 30
0.0
 11
46.4281805745554
 21
17.65971757286057
 31
0.0
  0
LINE
  5
268
  8
0
  6
CONTINUOUS
 62
     7
 10
46.4281805745554
 20
17.65971757286057
 30
0.0
 11
46.4281805745554
 21
23.65971757286057
 31
0.0
  0
LINE
  5
269
  8
0
  6
CONTINUOUS
 62
     7
 10
34.4281805745554
 20
23.65971757286057
 30
0.0
 11
46.4281805745554
 21
23.65971757286057
 31
0.0
  0
LINE
  5
26A
  8
0
  6
CONTINUOUS
 62
     7
 10
34.4281805745554
 20
65.65971566551194
 30
0.0
 11
46.4281805745554
 21
65.65971566551194
 31
0.0
  0
LINE
  5
26B
  8
0
  6
CONTINUOUS
 62
     7
 10
34.4281805745554
 20
71.65971566551194
 30
0.0
 11
46.4281805745554
 21
71.65971566551194
 31
0.0
  0
LINE
  5
26C
  8
0
  6
CONTINUOUS
 62
     7
 10
34.4281805745554
 20
72.65970803611741
 30
0.0
 11
45.4281805745554
 21
72.65970803611741
 31
0.0
  0
LINE
  5
26D
  8
0
  6
CONTINUOUS
 62
     7
 10
34.4281805745554
 20
16.65972138755784
 30
0.0
 11
45.4281805745554
 21
16.65972138755784
 31
0.0
  0
LINE
  5
26E
  8
0
  6
CONTINUOUS
 62
     7
 10
47.4281805745554
 20
77.40971566551194
 30
0.0
 11
49.99147403158665
 21
77.40971566551194
 31
0.0
  0
LINE
  5
26F
  8
0
  6
CONTINUOUS
 62
     7
 10
47.4281805745554
 20
80.90970803611741
 30
0.0
 11
49.99147403158665
 21
80.90970803611741
 31
0.0
  0
LINE
  5
270
  8
0
  6
CONTINUOUS
 62
     7
 10
47.4281805745554
 20
8.409715665511939
 30
0.0
 11
49.99147403158665
 21
8.409715665511939
 31
0.0
  0
LINE
  5
271
  8
0
  6
CONTINUOUS
 62
     7
 10
47.4281805745554
 20
11.90971566551194
 30
0.0
 11
49.99147403158665
 21
11.90971566551194
 31
0.0
  0
LINE
  5
272
  8
0
  6
CONTINUOUS
 62
     7
 10
37.4281805745554
 20
76.65971566551194
 30
0.0
 11
43.4281805745554
 21
76.65971566551194
 31
0.0
  0
LINE
  5
273
  8
0
  6
CONTINUOUS
 62
     7
 10
208.4281805745554
 20
-17.84028242713943
 30
0.0
 11
208.4281805745554
 21
-67.8508891928865
 31
0.0
  0
LINE
  5
274
  8
0
  6
CONTINUOUS
 62
     7
 10
62.9281805745554
 20
90.65971566551194
 30
0.0
 11
62.9281805745554
 21
77.40971566551194
 31
0.0
  0
LINE
  5
275
  8
0
  6
CONTINUOUS
 62
     7
 10
123.4281882039499
 20
102.159730924301
 30
0.0
 11
123.4281882039499
 21
90.65971566551194
 31
0.0
  0
LINE
  5
276
  8
0
  6
CONTINUOUS
 62
     7
 10
133.4281805745554
 20
142.159715665512
 30
0.0
 11
133.4281805745554
 21
131.159715665512
 31
0.0
  0
LINE
  5
277
  8
0
  6
CONTINUOUS
 62
     7
 10
133.4281805745554
 20
-52.84028433448806
 30
0.0
 11
133.4281805745554
 21
-41.84028433448806
 31
0.0
  0
LINE
  5
278
  8
0
  6
CONTINUOUS
 62
     7
 10
123.4281882039499
 20
-12.84029959327712
 30
0.0
 11
123.4281882039499
 21
-1.340284334488061
 31
0.0
  0
LINE
  5
279
  8
0
  6
CONTINUOUS
 62
     7
 10
67.86600100912571
 20
116.7218952309416
 30
0.0
 11
67.86600100912571
 21
94.65527535789475
 31
0.0
  0
LINE
  5
27A
  8
0
  6
CONTINUOUS
 62
     7
 10
63.52818667807102
 20
93.65971566551194
 30
0.0
 11
73.9281805745554
 21
93.65971566551194
 31
0.0
  0
LINE
  5
27B
  8
0
  6
CONTINUOUS
 62
     7
 10
85.86600100912571
 20
116.7218952309416
 30
0.0
 11
85.86600100912571
 21
94.65527535789475
 31
0.0
  0
LINE
  5
27C
  8
0
  6
CONTINUOUS
 62
     7
 10
81.52818667807102
 20
93.65971566551194
 30
0.0
 11
102.3281744710398
 21
93.65971566551194
 31
0.0
  0
LINE
  5
27D
  8
0
  6
CONTINUOUS
 62
     7
 10
97.99036013998509
 20
116.7218952309416
 30
0.0
 11
97.99036013998509
 21
94.65527535789475
 31
0.0
  0
LINE
  5
27E
  8
0
  6
CONTINUOUS
 62
     7
 10
-0.5718194254446019
 20
63.15971566551194
 30
0.0
 11
53.83010089315891
 21
63.15971566551194
 31
0.0
  0
LINE
  5
27F
  8
0
  6
CONTINUOUS
 62
     7
 10
-0.5718194254446019
 20
26.15971566551194
 30
0.0
 11
53.83008181967259
 21
26.15971566551194
 31
0.0
  0
LINE
  5
280
  8
0
  6
CONTINUOUS
 62
     7
 10
62.9281805745554
 20
-1.340284334488061
 30
0.0
 11
62.9281805745554
 21
11.90971566551194
 31
0.0
  0
ARC
  5
281
  8
0
  6
CONTINUOUS
 62
     7
 10
52.4281805745554
 20
79.15971566551194
 30
0.0
 40
3.0
 50
61.67505092208438
 51
286.5207529646455
  0
ARC
  5
282
  8
0
  6
CONTINUOUS
 62
     7
 10
52.4281805745554
 20
10.15971566551194
 30
0.0
 40
3.0
 50
73.47923656269971
 51
298.3249590958283
  0
ARC
  5
283
  8
0
  6
CONTINUOUS
 62
     7
 10
63.4281805745554
 20
104.6286487709807
 30
0.0
 40
10.96892929077148
 50
269.9999974955218
 51
293.8648833612215
  0
ARC
  5
284
  8
0
  6
CONTINUOUS
 62
     7
 10
63.4281805745554
 20
106.6907825600432
 30
0.0
 40
10.96892929077148
 50
66.13511663877851
 51
90.00000250447816
  0
ARC
  5
285
  8
0
  6
CONTINUOUS
 62
     7
 10
73.9281805745554
 20
97.59750558250413
 30
0.0
 40
20.06221389770508
 50
90.00000250447816
 51
107.5879240323686
  0
ARC
  5
286
  8
0
  6
CONTINUOUS
 62
     7
 10
73.9281805745554
 20
113.7219257485198
 30
0.0
 40
20.06221389770508
 50
252.4120759676314
 51
269.9999974955218
  0
ARC
  5
287
  8
0
  6
CONTINUOUS
 62
     7
 10
81.4281805745554
 20
104.6286487709807
 30
0.0
 40
10.96892929077148
 50
269.9999974955218
 51
293.8648833612215
  0
ARC
  5
288
  8
0
  6
CONTINUOUS
 62
     7
 10
102.4281805745554
 20
106.6907825600432
 30
0.0
 40
10.96892929077148
 50
90.00000250447816
 51
113.8648815399886
  0
ARC
  5
289
  8
0
  6
CONTINUOUS
 62
     7
 10
81.4281805745554
 20
106.6907825600432
 30
0.0
 40
10.96892929077148
 50
66.13511663877851
 51
90.00000250447816
  0
ARC
  5
28A
  8
0
  6
CONTINUOUS
 62
     7
 10
91.9281805745554
 20
97.59750558250413
 30
0.0
 40
20.06221389770508
 50
72.41208097658775
 51
107.5879240323686
  0
ARC
  5
28B
  8
0
  6
CONTINUOUS
 62
     7
 10
91.9281805745554
 20
113.7219257485198
 30
0.0
 40
20.06221389770508
 50
252.4120759676314
 51
287.5879190234123
  0
ARC
  5
28C
  8
0
  6
CONTINUOUS
 62
     7
 10
102.4281805745554
 20
104.6286487709807
 30
0.0
 40
10.96892929077148
 50
246.1351184600113
 51
269.9999974955218
  0
POLYLINE
  5
28D
  8
0
  6
CONTINUOUS
 62
     7
 66
     1
 10
0.0
 20
0.0
 30
0.0
 70
     1
  0
VERTEX
  5
3E3
  8
0
  6
CONTINUOUS
 62
     7
 10
1.0
 20
0.0
 30
0.0
  0
VERTEX
  5
3E4
  8
0
  6
CONTINUOUS
 62
     7
 10
0.9807852804032304
 20
0.1950903220161283
 30
0.0
  0
VERTEX
  5
3E5
  8
0
  6
CONTINUOUS
 62
     7
 10
0.9238795325112867
 20
0.3826834323650898
 30
0.0
  0
VERTEX
  5
3E6
  8
0
  6
CONTINUOUS
 62
     7
 10
0.8314696123025452
 20
0.5555702330196022
 30
0.0
  0
VERTEX
  5
3E7
  8
0
  6
CONTINUOUS
 62
     7
 10
0.7071067811865476
 20
0.7071067811865475
 30
0.0
  0
VERTEX
  5
3E8
  8
0
  6
CONTINUOUS
 62
     7
 10
0.5555702330196023
 20
0.8314696123025452
 30
0.0
  0
VERTEX
  5
3E9
  8
0
  6
CONTINUOUS
 62
     7
 10
0.3826834323650898
 20
0.9238795325112867
 30
0.0
  0
VERTEX
  5
3EA
  8
0
  6
CONTINUOUS
 62
     7
 10
0.1950903220161283
 20
0.9807852804032304
 30
0.0
  0
VERTEX
  5
3EB
  8
0
  6
CONTINUOUS
 62
     7
 10
0.0000000000000001
 20
1.0
 30
0.0
  0
VERTEX
  5
3EC
  8
0
  6
CONTINUOUS
 62
     7
 10
-0.1950903220161282
 20
0.9807852804032304
 30
0.0
  0
VERTEX
  5
3ED
  8
0
  6
CONTINUOUS
 62
     7
 10
-0.3826834323650897
 20
0.9238795325112867
 30
0.0
  0
VERTEX
  5
3EE
  8
0
  6
CONTINUOUS
 62
     7
 10
-0.555570233019602
 20
0.8314696123025455
 30
0.0
  0
VERTEX
  5
3EF
  8
0
  6
CONTINUOUS
 62
     7
 10
-0.7071067811865475
 20
0.7071067811865476
 30
0.0
  0
VERTEX
  5
3F0
  8
0
  6
CONTINUOUS
 62
     7
 10
-0.8314696123025454
 20
0.5555702330196022
 30
0.0
  0
VERTEX
  5
3F1
  8
0
  6
CONTINUOUS
 62
     7
 10
-0.9238795325112869
 20
0.3826834323650895
 30
0.0
  0
VERTEX
  5
3F2
  8
0
  6
CONTINUOUS
 62
     7
 10
-0.9807852804032305
 20
0.1950903220161277
 30
0.0
  0
VERTEX
  5
3F3
  8
0
  6
CONTINUOUS
 62
     7
 10
-1.0
 20
-0.0000000000000008
 30
0.0
  0
VERTEX
  5
3F4
  8
0
  6
CONTINUOUS
 62
     7
 10
-0.9807852804032302
 20
-0.1950903220161292
 30
0.0
  0
VERTEX
  5
3F5
  8
0
  6
CONTINUOUS
 62
     7
 10
-0.9238795325112863
 20
-0.3826834323650909
 30
0.0
  0
VERTEX
  5
3F6
  8
0
  6
CONTINUOUS
 62
     7
 10
-0.8314696123025445
 20
-0.5555702330196034
 30
0.0
  0
VERTEX
  5
3F7
  8
0
  6
CONTINUOUS
 62
     7
 10
-0.7071067811865464
 20
-0.7071067811865487
 30
0.0
  0
VERTEX
  5
3F8
  8
0
  6
CONTINUOUS
 62
     7
 10
-0.5555702330196007
 20
-0.8314696123025462
 30
0.0
  0
VERTEX
  5
3F9
  8
0
  6
CONTINUOUS
 62
     7
 10
-0.3826834323650879
 20
-0.9238795325112875
 30
0.0
  0
VERTEX
  5
3FA
  8
0
  6
CONTINUOUS
 62
     7
 10
-0.1950903220161261
 20
-0.9807852804032309
 30
0.0
  0
VERTEX
  5
3FB
  8
0
  6
CONTINUOUS
 62
     7
 10
0.0000000000000025
 20
-1.0
 30
0.0
  0
VERTEX
  5
3FC
  8
0
  6
CONTINUOUS
 62
     7
 10
0.1950903220161309
 20
-0.9807852804032299
 30
0.0
  0
VERTEX
  5
3FD
  8
0
  6
CONTINUOUS
 62
     7
 10
0.3826834323650925
 20
-0.9238795325112856
 30
0.0
  0
VERTEX
  5
3FE
  8
0
  6
CONTINUOUS
 62
     7
 10
0.5555702330196048
 20
-0.8314696123025435
 30
0.0
  0
VERTEX
  5
3FF
  8
0
  6
CONTINUOUS
 62
     7
 10
0.7071067811865499
 20
-0.7071067811865451
 30
0.0
  0
VERTEX
  5
400
  8
0
  6
CONTINUOUS
 62
     7
 10
0.8314696123025472
 20
-0.5555702330195993
 30
0.0
  0
VERTEX
  5
401
  8
0
  6
CONTINUOUS
 62
     7
 10
0.9238795325112882
 20
-0.3826834323650863
 30
0.0
  0
VERTEX
  5
402
  8
0
  6
CONTINUOUS
 62
     7
 10
0.9807852804032312
 20
-0.1950903220161244
 30
0.0
  0
SEQEND
  5
403
  8
0
  6
CONTINUOUS
 62
     7
  0
POLYLINE
  5
28E
  8
0
  6
CONTINUOUS
 62
     7
 66
     1
 10
0.0
 20
0.0
 30
0.0
 70
     1
  0
VERTEX
  5
405
  8
0
  6
CONTINUOUS
 62
     7
 10
147.1281927815867
 20
23.15971566551194
 30
0.0
  0
VERTEX
  5
406
  8
0
  6
CONTINUOUS
 62
     7
 10
147.1261314269652
 20
23.22252918604147
 30
0.0
  0
VERTEX
  5
407
  8
0
  6
CONTINUOUS
 62
     7
 10
147.1199509794171
 20
23.28523251031182
 30
0.0
  0
VERTEX
  5
408
  8
0
  6
CONTINUOUS
 62
     7
 10
147.1096622815476
 20
23.34771563538548
 30
0.0
  0
VERTEX
  5
409
  8
0
  6
CONTINUOUS
 62
     7
 10
147.0952833832289
 20
23.40986894462916
 30
0.0
  0
VERTEX
  5
40A
  8
0
  6
CONTINUOUS
 62
     7
 10
147.0768395099346
 20
23.47158340001862
 30
0.0
  0
VERTEX
  5
40B
  8
0
  6
CONTINUOUS
 62
     7
 10
147.0543630184858
 20
23.53275073342838
 30
0.0
  0
VERTEX
  5
40C
  8
0
  6
CONTINUOUS
 62
     7
 10
147.0278933402859
 20
23.59326363657085
 30
0.0
  0
VERTEX
  5
40D
  8
0
  6
CONTINUOUS
 62
     7
 10
146.997476912145
 20
23.65301594925149
 30
0.0
  0
VERTEX
  5
40E
  8
0
  6
CONTINUOUS
 62
     7
 10
146.9631670948137
 20
23.71190284560989
 30
0.0
  0
VERTEX
  5
40F
  8
0
  6
CONTINUOUS
 62
     7
 10
146.9250240793701
 20
23.76982101801993
 30
0.0
  0
VERTEX
  5
410
  8
0
  6
CONTINUOUS
 62
     7
 10
146.8831147816244
 20
23.82666885832648
 30
0.0
  0
VERTEX
  5
411
  8
0
  6
CONTINUOUS
 62
     7
 10
146.8375127247256
 20
23.88234663610062
 30
0.0
  0
VERTEX
  5
412
  8
0
  6
CONTINUOUS
 62
     7
 10
146.7882979101773
 20
23.93675667360069
 30
0.0
  0
VERTEX
  5
413
  8
0
  6
CONTINUOUS
 62
     7
 10
146.7355566774876
 20
23.98980351713226
 30
0.0
  0
VERTEX
  5
414
  8
0
  6
CONTINUOUS
 62
     7
 10
146.6793815527
 20
24.04139410450635
 30
0.0
  0
VERTEX
  5
415
  8
0
  6
CONTINUOUS
 62
     7
 10
146.619871086072
 20
24.09143792830209
 30
0.0
  0
VERTEX
  5
416
  8
0
  6
CONTINUOUS
 62
     7
 10
146.5571296791838
 20
24.13984719464754
 30
0.0
  0
VERTEX
  5
417
  8
0
  6
CONTINUOUS
 62
     7
 10
146.4912674017828
 20
24.18653697723996
 30
0.0
  0
VERTEX
  5
418
  8
0
  6
CONTINUOUS
 62
     7
 10
146.4223997986836
 20
24.23142536633539
 30
0.0
  0
VERTEX
  5
419
  8
0
  6
CONTINUOUS
 62
     7
 10
146.3506476870635
 20
24.27443361244616
 30
0.0
  0
VERTEX
  5
41A
  8
0
  6
CONTINUOUS
 62
     7
 10
146.2761369445077
 20
24.31548626449431
 30
0.0
  0
VERTEX
  5
41B
  8
0
  6
CONTINUOUS
 62
     7
 10
146.1989982881778
 20
24.35451130217836
 30
0.0
  0
VERTEX
  5
41C
  8
0
  6
CONTINUOUS
 62
     7
 10
146.1193670454886
 20
24.39144026232141
 30
0.0
  0
VERTEX
  5
41D
  8
0
  6
CONTINUOUS
 62
     7
 10
146.0373829166989
 20
24.42620835897882
 30
0.0
  0
VERTEX
  5
41E
  8
0
  6
CONTINUOUS
 62
     7
 10
145.9531897298288
 20
24.45875459709478
 30
0.0
  0
VERTEX
  5
41F
  8
0
  6
CONTINUOUS
 62
     7
 10
145.8669351883373
 20
24.48902187950835
 30
0.0
  0
VERTEX
  5
420
  8
0
  6
CONTINUOUS
 62
     7
 10
145.7787706119995
 20
24.51695710712129
 30
0.0
  0
VERTEX
  5
421
  8
0
  6
CONTINUOUS
 62
     7
 10
145.6888506714409
 20
24.5425112720519
 30
0.0
  0
VERTEX
  5
422
  8
0
  6
CONTINUOUS
 62
     7
 10
145.5973331167922
 20
24.56563954361154
 30
0.0
  0
VERTEX
  5
423
  8
0
  6
CONTINUOUS
 62
     7
 10
145.5043785009422
 20
24.58630134695284
 30
0.0
  0
VERTEX
  5
424
  8
0
  6
CONTINUOUS
 62
     7
 10
145.4101498978732
 20
24.60446043425183
 30
0.0
  0
VERTEX
  5
425
  8
0
  6
CONTINUOUS
 62
     7
 10
145.3148126165742
 20
24.62008494829887
 30
0.0
  0
VERTEX
  5
426
  8
0
  6
CONTINUOUS
 62
     7
 10
145.2185339110323
 20
24.6331474783871
 30
0.0
  0
VERTEX
  5
427
  8
0
  6
CONTINUOUS
 62
     7
 10
145.1214826868127
 20
24.64362510840004
 30
0.0
  0
VERTEX
  5
428
  8
0
  6
CONTINUOUS
 62
     7
 10
145.0238292047411
 20
24.65149945701434
 30
0.0
  0
VERTEX
  5
429
  8
0
  6
CONTINUOUS
 62
     7
 10
144.9257447822078
 20
24.65675670994681
 30
0.0
  0
VERTEX
  5
42A
  8
0
  6
CONTINUOUS
 62
     7
 10
144.8274014926193
 20
24.65938764418937
 30
0.0
  0
VERTEX
  5
42B
  8
0
  6
CONTINUOUS
 62
     7
 10
144.7289718635228
 20
24.65938764418937
 30
0.0
  0
VERTEX
  5
42C
  8
0
  6
CONTINUOUS
 62
     7
 10
144.6306285739342
 20
24.65675670994681
 30
0.0
  0
VERTEX
  5
42D
  8
0
  6
CONTINUOUS
 62
     7
 10
144.5325441514009
 20
24.65149945701434
 30
0.0
  0
VERTEX
  5
42E
  8
0
  6
CONTINUOUS
 62
     7
 10
144.4348906693293
 20
24.64362510840004
 30
0.0
  0
VERTEX
  5
42F
  8
0
  6
CONTINUOUS
 62
     7
 10
144.3378394451098
 20
24.6331474783871
 30
0.0
  0
VERTEX
  5
430
  8
0
  6
CONTINUOUS
 62
     7
 10
144.2415607395679
 20
24.62008494829887
 30
0.0
  0
VERTEX
  5
431
  8
0
  6
CONTINUOUS
 62
     7
 10
144.1462234582688
 20
24.60446043425183
 30
0.0
  0
VERTEX
  5
432
  8
0
  6
CONTINUOUS
 62
     7
 10
144.0519948551998
 20
24.58630134695284
 30
0.0
  0
VERTEX
  5
433
  8
0
  6
CONTINUOUS
 62
     7
 10
143.9590402393498
 20
24.56563954361154
 30
0.0
  0
VERTEX
  5
434
  8
0
  6
CONTINUOUS
 62
     7
 10
143.8675226847011
 20
24.5425112720519
 30
0.0
  0
VERTEX
  5
435
  8
0
  6
CONTINUOUS
 62
     7
 10
143.7776027441425
 20
24.51695710712129
 30
0.0
  0
VERTEX
  5
436
  8
0
  6
CONTINUOUS
 62
     7
 10
143.6894381678048
 20
24.48902187950835
 30
0.0
  0
VERTEX
  5
437
  8
0
  6
CONTINUOUS
 62
     7
 10
143.6031836263132
 20
24.45875459709478
 30
0.0
  0
VERTEX
  5
438
  8
0
  6
CONTINUOUS
 62
     7
 10
143.5189904394432
 20
24.42620835897882
 30
0.0
  0
VERTEX
  5
439
  8
0
  6
CONTINUOUS
 62
     7
 10
143.4370063106534
 20
24.39144026232141
 30
0.0
  0
VERTEX
  5
43A
  8
0
  6
CONTINUOUS
 62
     7
 10
143.3573750679643
 20
24.35451130217836
 30
0.0
  0
VERTEX
  5
43B
  8
0
  6
CONTINUOUS
 62
     7
 10
143.2802364116343
 20
24.31548626449431
 30
0.0
  0
VERTEX
  5
43C
  8
0
  6
CONTINUOUS
 62
     7
 10
143.2057256690786
 20
24.27443361244616
 30
0.0
  0
VERTEX
  5
43D
  8
0
  6
CONTINUOUS
 62
     7
 10
143.1339735574585
 20
24.23142536633539
 30
0.0
  0
VERTEX
  5
43E
  8
0
  6
CONTINUOUS
 62
     7
 10
143.0651059543593
 20
24.18653697723996
 30
0.0
  0
VERTEX
  5
43F
  8
0
  6
CONTINUOUS
 62
     7
 10
142.9992436769582
 20
24.13984719464754
 30
0.0
  0
VERTEX
  5
440
  8
0
  6
CONTINUOUS
 62
     7
 10
142.93650227007
 20
24.09143792830209
 30
0.0
  0
VERTEX
  5
441
  8
0
  6
CONTINUOUS
 62
     7
 10
142.876991803442
 20
24.04139410450635
 30
0.0
  0
VERTEX
  5
442
  8
0
  6
CONTINUOUS
 62
     7
 10
142.8208166786545
 20
23.98980351713226
 30
0.0
  0
VERTEX
  5
443
  8
0
  6
CONTINUOUS
 62
     7
 10
142.7680754459647
 20
23.93675667360069
 30
0.0
  0
VERTEX
  5
444
  8
0
  6
CONTINUOUS
 62
     7
 10
142.7188606314164
 20
23.88234663610062
 30
0.0
  0
VERTEX
  5
445
  8
0
  6
CONTINUOUS
 62
     7
 10
142.6732585745177
 20
23.82666885832648
 30
0.0
  0
VERTEX
  5
446
  8
0
  6
CONTINUOUS
 62
     7
 10
142.6313492767719
 20
23.76982101801993
 30
0.0
  0
VERTEX
  5
447
  8
0
  6
CONTINUOUS
 62
     7
 10
142.5932062613283
 20
23.71190284560989
 30
0.0
  0
VERTEX
  5
448
  8
0
  6
CONTINUOUS
 62
     7
 10
142.558896443997
 20
23.65301594925149
 30
0.0
  0
VERTEX
  5
449
  8
0
  6
CONTINUOUS
 62
     7
 10
142.5284800158562
 20
23.59326363657085
 30
0.0
  0
VERTEX
  5
44A
  8
0
  6
CONTINUOUS
 62
     7
 10
142.5020103376563
 20
23.53275073342838
 30
0.0
  0
VERTEX
  5
44B
  8
0
  6
CONTINUOUS
 62
     7
 10
142.4795338462074
 20
23.47158340001862
 30
0.0
  0
VERTEX
  5
44C
  8
0
  6
CONTINUOUS
 62
     7
 10
142.4610899729131
 20
23.40986894462916
 30
0.0
  0
VERTEX
  5
44D
  8
0
  6
CONTINUOUS
 62
     7
 10
142.4467110745944
 20
23.34771563538548
 30
0.0
  0
VERTEX
  5
44E
  8
0
  6
CONTINUOUS
 62
     7
 10
142.436422376725
 20
23.28523251031182
 30
0.0
  0
VERTEX
  5
44F
  8
0
  6
CONTINUOUS
 62
     7
 10
142.4302419291769
 20
23.22252918604147
 30
0.0
  0
VERTEX
  5
450
  8
0
  6
CONTINUOUS
 62
     7
 10
142.4281805745554
 20
23.15971566551194
 30
0.0
  0
VERTEX
  5
451
  8
0
  6
CONTINUOUS
 62
     7
 10
142.4302419291769
 20
23.0969021449824
 30
0.0
  0
VERTEX
  5
452
  8
0
  6
CONTINUOUS
 62
     7
 10
142.436422376725
 20
23.03419882071205
 30
0.0
  0
VERTEX
  5
453
  8
0
  6
CONTINUOUS
 62
     7
 10
142.4467110745944
 20
22.9717156956384
 30
0.0
  0
VERTEX
  5
454
  8
0
  6
CONTINUOUS
 62
     7
 10
142.4610899729131
 20
22.90956238639471
 30
0.0
  0
VERTEX
  5
455
  8
0
  6
CONTINUOUS
 62
     7
 10
142.4795338462074
 20
22.84784793100526
 30
0.0
  0
VERTEX
  5
456
  8
0
  6
CONTINUOUS
 62
     7
 10
142.5020103376563
 20
22.7866805975955
 30
0.0
  0
VERTEX
  5
457
  8
0
  6
CONTINUOUS
 62
     7
 10
142.5284800158562
 20
22.72616769445303
 30
0.0
  0
VERTEX
  5
458
  8
0
  6
CONTINUOUS
 62
     7
 10
142.558896443997
 20
22.66641538177239
 30
0.0
  0
VERTEX
  5
459
  8
0
  6
CONTINUOUS
 62
     7
 10
142.5932062613283
 20
22.60752848541399
 30
0.0
  0
VERTEX
  5
45A
  8
0
  6
CONTINUOUS
 62
     7
 10
142.6313492767719
 20
22.54961031300395
 30
0.0
  0
VERTEX
  5
45B
  8
0
  6
CONTINUOUS
 62
     7
 10
142.6732585745177
 20
22.49276247269739
 30
0.0
  0
VERTEX
  5
45C
  8
0
  6
CONTINUOUS
 62
     7
 10
142.7188606314164
 20
22.43708469492326
 30
0.0
  0
VERTEX
  5
45D
  8
0
  6
CONTINUOUS
 62
     7
 10
142.7680754459647
 20
22.38267465742319
 30
0.0
  0
VERTEX
  5
45E
  8
0
  6
CONTINUOUS
 62
     7
 10
142.8208166786545
 20
22.32962781389161
 30
0.0
  0
VERTEX
  5
45F
  8
0
  6
CONTINUOUS
 62
     7
 10
142.876991803442
 20
22.27803722651753
 30
0.0
  0
VERTEX
  5
460
  8
0
  6
CONTINUOUS
 62
     7
 10
142.93650227007
 20
22.22799340272179
 30
0.0
  0
VERTEX
  5
461
  8
0
  6
CONTINUOUS
 62
     7
 10
142.9992436769583
 20
22.17958413637633
 30
0.0
  0
VERTEX
  5
462
  8
0
  6
CONTINUOUS
 62
     7
 10
143.0651059543593
 20
22.13289435378391
 30
0.0
  0
VERTEX
  5
463
  8
0
  6
CONTINUOUS
 62
     7
 10
143.1339735574585
 20
22.08800596468849
 30
0.0
  0
VERTEX
  5
464
  8
0
  6
CONTINUOUS
 62
     7
 10
143.2057256690786
 20
22.04499771857771
 30
0.0
  0
VERTEX
  5
465
  8
0
  6
CONTINUOUS
 62
     7
 10
143.2802364116343
 20
22.00394506652956
 30
0.0
  0
VERTEX
  5
466
  8
0
  6
CONTINUOUS
 62
     7
 10
143.3573750679643
 20
21.96492002884552
 30
0.0
  0
VERTEX
  5
467
  8
0
  6
CONTINUOUS
 62
     7
 10
143.4370063106534
 20
21.92799106870247
 30
0.0
  0
VERTEX
  5
468
  8
0
  6
CONTINUOUS
 62
     7
 10
143.5189904394432
 20
21.89322297204506
 30
0.0
  0
VERTEX
  5
469
  8
0
  6
CONTINUOUS
 62
     7
 10
143.6031836263132
 20
21.86067673392909
 30
0.0
  0
VERTEX
  5
46A
  8
0
  6
CONTINUOUS
 62
     7
 10
143.6894381678048
 20
21.83040945151552
 30
0.0
  0
VERTEX
  5
46B
  8
0
  6
CONTINUOUS
 62
     7
 10
143.7776027441425
 20
21.80247422390259
 30
0.0
  0
VERTEX
  5
46C
  8
0
  6
CONTINUOUS
 62
     7
 10
143.8675226847012
 20
21.77692005897197
 30
0.0
  0
VERTEX
  5
46D
  8
0
  6
CONTINUOUS
 62
     7
 10
143.9590402393498
 20
21.75379178741234
 30
0.0
  0
VERTEX
  5
46E
  8
0
  6
CONTINUOUS
 62
     7
 10
144.0519948551998
 20
21.73312998407103
 30
0.0
  0
VERTEX
  5
46F
  8
0
  6
CONTINUOUS
 62
     7
 10
144.1462234582688
 20
21.71497089677205
 30
0.0
  0
VERTEX
  5
470
  8
0
  6
CONTINUOUS
 62
     7
 10
144.2415607395679
 20
21.699346382725
 30
0.0
  0
VERTEX
  5
471
  8
0
  6
CONTINUOUS
 62
     7
 10
144.3378394451098
 20
21.68628385263678
 30
0.0
  0
VERTEX
  5
472
  8
0
  6
CONTINUOUS
 62
     7
 10
144.4348906693293
 20
21.67580622262384
 30
0.0
  0
VERTEX
  5
473
  8
0
  6
CONTINUOUS
 62
     7
 10
144.5325441514009
 20
21.66793187400954
 30
0.0
  0
VERTEX
  5
474
  8
0
  6
CONTINUOUS
 62
     7
 10
144.6306285739342
 20
21.66267462107707
 30
0.0
  0
VERTEX
  5
475
  8
0
  6
CONTINUOUS
 62
     7
 10
144.7289718635228
 20
21.66004368683451
 30
0.0
  0
VERTEX
  5
476
  8
0
  6
CONTINUOUS
 62
     7
 10
144.8274014926193
 20
21.66004368683451
 30
0.0
  0
VERTEX
  5
477
  8
0
  6
CONTINUOUS
 62
     7
 10
144.9257447822078
 20
21.66267462107707
 30
0.0
  0
VERTEX
  5
478
  8
0
  6
CONTINUOUS
 62
     7
 10
145.0238292047411
 20
21.66793187400954
 30
0.0
  0
VERTEX
  5
479
  8
0
  6
CONTINUOUS
 62
     7
 10
145.1214826868128
 20
21.67580622262384
 30
0.0
  0
VERTEX
  5
47A
  8
0
  6
CONTINUOUS
 62
     7
 10
145.2185339110323
 20
21.68628385263678
 30
0.0
  0
VERTEX
  5
47B
  8
0
  6
CONTINUOUS
 62
     7
 10
145.3148126165742
 20
21.699346382725
 30
0.0
  0
VERTEX
  5
47C
  8
0
  6
CONTINUOUS
 62
     7
 10
145.4101498978732
 20
21.71497089677205
 30
0.0
  0
VERTEX
  5
47D
  8
0
  6
CONTINUOUS
 62
     7
 10
145.5043785009422
 20
21.73312998407104
 30
0.0
  0
VERTEX
  5
47E
  8
0
  6
CONTINUOUS
 62
     7
 10
145.5973331167922
 20
21.75379178741234
 30
0.0
  0
VERTEX
  5
47F
  8
0
  6
CONTINUOUS
 62
     7
 10
145.6888506714409
 20
21.77692005897198
 30
0.0
  0
VERTEX
  5
480
  8
0
  6
CONTINUOUS
 62
     7
 10
145.7787706119995
 20
21.80247422390259
 30
0.0
  0
VERTEX
  5
481
  8
0
  6
CONTINUOUS
 62
     7
 10
145.8669351883373
 20
21.83040945151553
 30
0.0
  0
VERTEX
  5
482
  8
0
  6
CONTINUOUS
 62
     7
 10
145.9531897298288
 20
21.8606767339291
 30
0.0
  0
VERTEX
  5
483
  8
0
  6
CONTINUOUS
 62
     7
 10
146.0373829166989
 20
21.89322297204506
 30
0.0
  0
VERTEX
  5
484
  8
0
  6
CONTINUOUS
 62
     7
 10
146.1193670454886
 20
21.92799106870248
 30
0.0
  0
VERTEX
  5
485
  8
0
  6
CONTINUOUS
 62
     7
 10
146.1989982881778
 20
21.96492002884552
 30
0.0
  0
VERTEX
  5
486
  8
0
  6
CONTINUOUS
 62
     7
 10
146.2761369445077
 20
22.00394506652957
 30
0.0
  0
VERTEX
  5
487
  8
0
  6
CONTINUOUS
 62
     7
 10
146.3506476870635
 20
22.04499771857772
 30
0.0
  0
VERTEX
  5
488
  8
0
  6
CONTINUOUS
 62
     7
 10
146.4223997986836
 20
22.0880059646885
 30
0.0
  0
VERTEX
  5
489
  8
0
  6
CONTINUOUS
 62
     7
 10
146.4912674017828
 20
22.13289435378392
 30
0.0
  0
VERTEX
  5
48A
  8
0
  6
CONTINUOUS
 62
     7
 10
146.5571296791838
 20
22.17958413637634
 30
0.0
  0
VERTEX
  5
48B
  8
0
  6
CONTINUOUS
 62
     7
 10
146.619871086072
 20
22.22799340272179
 30
0.0
  0
VERTEX
  5
48C
  8
0
  6
CONTINUOUS
 62
     7
 10
146.6793815527
 20
22.27803722651754
 30
0.0
  0
VERTEX
  5
48D
  8
0
  6
CONTINUOUS
 62
     7
 10
146.7355566774876
 20
22.32962781389162
 30
0.0
  0
VERTEX
  5
48E
  8
0
  6
CONTINUOUS
 62
     7
 10
146.7882979101773
 20
22.3826746574232
 30
0.0
  0
VERTEX
  5
48F
  8
0
  6
CONTINUOUS
 62
     7
 10
146.8375127247256
 20
22.43708469492327
 30
0.0
  0
VERTEX
  5
490
  8
0
  6
CONTINUOUS
 62
     7
 10
146.8831147816244
 20
22.4927624726974
 30
0.0
  0
VERTEX
  5
491
  8
0
  6
CONTINUOUS
 62
     7
 10
146.9250240793701
 20
22.54961031300396
 30
0.0
  0
VERTEX
  5
492
  8
0
  6
CONTINUOUS
 62
     7
 10
146.9631670948137
 20
22.607528485414
 30
0.0
  0
VERTEX
  5
493
  8
0
  6
CONTINUOUS
 62
     7
 10
146.997476912145
 20
22.6664153817724
 30
0.0
  0
VERTEX
  5
494
  8
0
  6
CONTINUOUS
 62
     7
 10
147.0278933402859
 20
22.72616769445304
 30
0.0
  0
VERTEX
  5
495
  8
0
  6
CONTINUOUS
 62
     7
 10
147.0543630184858
 20
22.78668059759551
 30
0.0
  0
VERTEX
  5
496
  8
0
  6
CONTINUOUS
 62
     7
 10
147.0768395099346
 20
22.84784793100527
 30
0.0
  0
VERTEX
  5
497
  8
0
  6
CONTINUOUS
 62
     7
 10
147.0952833832289
 20
22.90956238639473
 30
0.0
  0
VERTEX
  5
498
  8
0
  6
CONTINUOUS
 62
     7
 10
147.1096622815476
 20
22.97171569563841
 30
0.0
  0
VERTEX
  5
499
  8
0
  6
CONTINUOUS
 62
     7
 10
147.1199509794171
 20
23.03419882071206
 30
0.0
  0
VERTEX
  5
49A
  8
0
  6
CONTINUOUS
 62
     7
 10
147.1261314269652
 20
23.09690214498241
 30
0.0
  0
SEQEND
  5
404
  8
0
  6
CONTINUOUS
 62
     7
  0
POLYLINE
  5
28F
  8
0
  6
CONTINUOUS
 62
     7
 66
     1
 10
0.0
 20
0.0
 30
0.0
 70
     1
  0
VERTEX
  5
49B
  8
0
  6
CONTINUOUS
 62
     7
 10
1.0
 20
0.0
 30
0.0
  0
VERTEX
  5
49C
  8
0
  6
CONTINUOUS
 62
     7
 10
0.9807852804032304
 20
0.1950903220161283
 30
0.0
  0
VERTEX
  5
49D
  8
0
  6
CONTINUOUS
 62
     7
 10
0.9238795325112867
 20
0.3826834323650898
 30
0.0
  0
VERTEX
  5
49E
  8
0
  6
CONTINUOUS
 62
     7
 10
0.8314696123025452
 20
0.5555702330196022
 30
0.0
  0
VERTEX
  5
49F
  8
0
  6
CONTINUOUS
 62
     7
 10
0.7071067811865476
 20
0.7071067811865475
 30
0.0
  0
VERTEX
  5
4A0
  8
0
  6
CONTINUOUS
 62
     7
 10
0.5555702330196023
 20
0.8314696123025452
 30
0.0
  0
VERTEX
  5
4A1
  8
0
  6
CONTINUOUS
 62
     7
 10
0.3826834323650898
 20
0.9238795325112867
 30
0.0
  0
VERTEX
  5
4A2
  8
0
  6
CONTINUOUS
 62
     7
 10
0.1950903220161283
 20
0.9807852804032304
 30
0.0
  0
VERTEX
  5
4A3
  8
0
  6
CONTINUOUS
 62
     7
 10
0.0000000000000001
 20
1.0
 30
0.0
  0
VERTEX
  5
4A4
  8
0
  6
CONTINUOUS
 62
     7
 10
-0.1950903220161282
 20
0.9807852804032304
 30
0.0
  0
VERTEX
  5
4A5
  8
0
  6
CONTINUOUS
 62
     7
 10
-0.3826834323650897
 20
0.9238795325112867
 30
0.0
  0
VERTEX
  5
4A6
  8
0
  6
CONTINUOUS
 62
     7
 10
-0.555570233019602
 20
0.8314696123025455
 30
0.0
  0
VERTEX
  5
4A7
  8
0
  6
CONTINUOUS
 62
     7
 10
-0.7071067811865475
 20
0.7071067811865476
 30
0.0
  0
VERTEX
  5
4A8
  8
0
  6
CONTINUOUS
 62
     7
 10
-0.8314696123025454
 20
0.5555702330196022
 30
0.0
  0
VERTEX
  5
4A9
  8
0
  6
CONTINUOUS
 62
     7
 10
-0.9238795325112869
 20
0.3826834323650895
 30
0.0
  0
VERTEX
  5
4AA
  8
0
  6
CONTINUOUS
 62
     7
 10
-0.9807852804032305
 20
0.1950903220161277
 30
0.0
  0
VERTEX
  5
4AB
  8
0
  6
CONTINUOUS
 62
     7
 10
-1.0
 20
-0.0000000000000008
 30
0.0
  0
VERTEX
  5
4AC
  8
0
  6
CONTINUOUS
 62
     7
 10
-0.9807852804032302
 20
-0.1950903220161292
 30
0.0
  0
VERTEX
  5
4AD
  8
0
  6
CONTINUOUS
 62
     7
 10
-0.9238795325112863
 20
-0.3826834323650909
 30
0.0
  0
VERTEX
  5
4AE
  8
0
  6
CONTINUOUS
 62
     7
 10
-0.8314696123025445
 20
-0.5555702330196034
 30
0.0
  0
VERTEX
  5
4AF
  8
0
  6
CONTINUOUS
 62
     7
 10
-0.7071067811865464
 20
-0.7071067811865487
 30
0.0
  0
VERTEX
  5
4B0
  8
0
  6
CONTINUOUS
 62
     7
 10
-0.5555702330196007
 20
-0.8314696123025462
 30
0.0
  0
VERTEX
  5
4B1
  8
0
  6
CONTINUOUS
 62
     7
 10
-0.3826834323650879
 20
-0.9238795325112875
 30
0.0
  0
VERTEX
  5
4B2
  8
0
  6
CONTINUOUS
 62
     7
 10
-0.1950903220161261
 20
-0.9807852804032309
 30
0.0
  0
VERTEX
  5
4B3
  8
0
  6
CONTINUOUS
 62
     7
 10
0.0000000000000025
 20
-1.0
 30
0.0
  0
VERTEX
  5
4B4
  8
0
  6
CONTINUOUS
 62
     7
 10
0.1950903220161309
 20
-0.9807852804032299
 30
0.0
  0
VERTEX
  5
4B5
  8
0
  6
CONTINUOUS
 62
     7
 10
0.3826834323650925
 20
-0.9238795325112856
 30
0.0
  0
VERTEX
  5
4B6
  8
0
  6
CONTINUOUS
 62
     7
 10
0.5555702330196048
 20
-0.8314696123025435
 30
0.0
  0
VERTEX
  5
4B7
  8
0
  6
CONTINUOUS
 62
     7
 10
0.7071067811865499
 20
-0.7071067811865451
 30
0.0
  0
VERTEX
  5
4B8
  8
0
  6
CONTINUOUS
 62
     7
 10
0.8314696123025472
 20
-0.5555702330195993
 30
0.0
  0
VERTEX
  5
4B9
  8
0
  6
CONTINUOUS
 62
     7
 10
0.9238795325112882
 20
-0.3826834323650863
 30
0.0
  0
VERTEX
  5
4BA
  8
0
  6
CONTINUOUS
 62
     7
 10
0.9807852804032312
 20
-0.1950903220161244
 30
0.0
  0
SEQEND
  5
4BB
  8
0
  6
CONTINUOUS
 62
     7
  0
POLYLINE
  5
290
  8
0
  6
CONTINUOUS
 62
     7
 66
     1
 10
0.0
 20
0.0
 30
0.0
 70
     1
  0
VERTEX
  5
4BD
  8
0
  6
CONTINUOUS
 62
     7
 10
147.1281927815867
 20
66.15971948020921
 30
0.0
  0
VERTEX
  5
4BE
  8
0
  6
CONTINUOUS
 62
     7
 10
147.1261314269652
 20
66.22253304067448
 30
0.0
  0
VERTEX
  5
4BF
  8
0
  6
CONTINUOUS
 62
     7
 10
147.1199509794171
 20
66.2852364048105
 30
0.0
  0
VERTEX
  5
4C0
  8
0
  6
CONTINUOUS
 62
     7
 10
147.1096622815476
 20
66.34771956960984
 30
0.0
  0
VERTEX
  5
4C1
  8
0
  6
CONTINUOUS
 62
     7
 10
147.0952833832289
 20
66.4098729183695
 30
0.0
  0
VERTEX
  5
4C2
  8
0
  6
CONTINUOUS
 62
     7
 10
147.0768395099346
 20
66.47158741299592
 30
0.0
  0
VERTEX
  5
4C3
  8
0
  6
CONTINUOUS
 62
     7
 10
147.0543630184858
 20
66.5327547852948
 30
0.0
  0
VERTEX
  5
4C4
  8
0
  6
CONTINUOUS
 62
     7
 10
147.0278933402859
 20
66.59326772691031
 30
0.0
  0
VERTEX
  5
4C5
  8
0
  6
CONTINUOUS
 62
     7
 10
146.997476912145
 20
66.65302007758042
 30
0.0
  0
VERTEX
  5
4C6
  8
0
  6
CONTINUOUS
 62
     7
 10
146.9631670948137
 20
66.71190701137809
 30
0.0
  0
VERTEX
  5
4C7
  8
0
  6
CONTINUOUS
 62
     7
 10
146.9250240793701
 20
66.76982522061148
 30
0.0
  0
VERTEX
  5
4C8
  8
0
  6
CONTINUOUS
 62
     7
 10
146.8831147816244
 20
66.82667309706089
 30
0.0
  0
VERTEX
  5
4C9
  8
0
  6
CONTINUOUS
 62
     7
 10
146.8375127247256
 20
66.882350910234
 30
0.0
  0
VERTEX
  5
4CA
  8
0
  6
CONTINUOUS
 62
     7
 10
146.7882979101773
 20
66.936760982327
 30
0.0
  0
VERTEX
  5
4CB
  8
0
  6
CONTINUOUS
 62
     7
 10
146.7355566774876
 20
66.98980785958483
 30
0.0
  0
VERTEX
  5
4CC
  8
0
  6
CONTINUOUS
 62
     7
 10
146.6793815527
 20
67.04139847975931
 30
0.0
  0
VERTEX
  5
4CD
  8
0
  6
CONTINUOUS
 62
     7
 10
146.619871086072
 20
67.09144233537204
 30
0.0
  0
VERTEX
  5
4CE
  8
0
  6
CONTINUOUS
 62
     7
 10
146.5571296791838
 20
67.13985163249527
 30
0.0
  0
VERTEX
  5
4CF
  8
0
  6
CONTINUOUS
 62
     7
 10
146.4912674017828
 20
67.18654144477222
 30
0.0
  0
VERTEX
  5
4D0
  8
0
  6
CONTINUOUS
 62
     7
 10
146.4223997986836
 20
67.2314298624069
 30
0.0
  0
VERTEX
  5
4D1
  8
0
  6
CONTINUOUS
 62
     7
 10
146.3506476870635
 20
67.27443813586156
 30
0.0
  0
VERTEX
  5
4D2
  8
0
  6
CONTINUOUS
 62
     7
 10
146.2761369445077
 20
67.31549081401028
 30
0.0
  0
VERTEX
  5
4D3
  8
0
  6
CONTINUOUS
 62
     7
 10
146.1989982881778
 20
67.35451587650574
 30
0.0
  0
VERTEX
  5
4D4
  8
0
  6
CONTINUOUS
 62
     7
 10
146.1193670454886
 20
67.39144486012758
 30
0.0
  0
VERTEX
  5
4D5
  8
0
  6
CONTINUOUS
 62
     7
 10
146.0373829166989
 20
67.42621297888994
 30
0.0
  0
VERTEX
  5
4D6
  8
0
  6
CONTINUOUS
 62
     7
 10
145.9531897298288
 20
67.45875923769823
 30
0.0
  0
VERTEX
  5
4D7
  8
0
  6
CONTINUOUS
 62
     7
 10
145.8669351883373
 20
67.48902653935521
 30
0.0
  0
VERTEX
  5
4D8
  8
0
  6
CONTINUOUS
 62
     7
 10
145.7787706119995
 20
67.51696178472888
 30
0.0
  0
VERTEX
  5
4D9
  8
0
  6
CONTINUOUS
 62
     7
 10
145.6888506714409
 20
67.54251596590638
 30
0.0
  0
VERTEX
  5
4DA
  8
0
  6
CONTINUOUS
 62
     7
 10
145.5973331167922
 20
67.56564425217056
 30
0.0
  0
VERTEX
  5
4DB
  8
0
  6
CONTINUOUS
 62
     7
 10
145.5043785009422
 20
67.58630606864828
 30
0.0
  0
VERTEX
  5
4DC
  8
0
  6
CONTINUOUS
 62
     7
 10
145.4101498978732
 20
67.60446516749249
 30
0.0
  0
VERTEX
  5
4DD
  8
0
  6
CONTINUOUS
 62
     7
 10
145.3148126165742
 20
67.62008969147334
 30
0.0
  0
VERTEX
  5
4DE
  8
0
  6
CONTINUOUS
 62
     7
 10
145.2185339110323
 20
67.63315222986648
 30
0.0
  0
VERTEX
  5
4DF
  8
0
  6
CONTINUOUS
 62
     7
 10
145.1214826868127
 20
67.64362986654092
 30
0.0
  0
VERTEX
  5
4E0
  8
0
  6
CONTINUOUS
 62
     7
 10
145.0238292047411
 20
67.6515042201616
 30
0.0
  0
VERTEX
  5
4E1
  8
0
  6
CONTINUOUS
 62
     7
 10
144.9257447822078
 20
67.65676147643653
 30
0.0
  0
VERTEX
  5
4E2
  8
0
  6
CONTINUOUS
 62
     7
 10
144.8274014926193
 20
67.65939241235179
 30
0.0
  0
VERTEX
  5
4E3
  8
0
  6
CONTINUOUS
 62
     7
 10
144.7289718635228
 20
67.65939241235179
 30
0.0
  0
VERTEX
  5
4E4
  8
0
  6
CONTINUOUS
 62
     7
 10
144.6306285739342
 20
67.65676147643653
 30
0.0
  0
VERTEX
  5
4E5
  8
0
  6
CONTINUOUS
 62
     7
 10
144.5325441514009
 20
67.6515042201616
 30
0.0
  0
VERTEX
  5
4E6
  8
0
  6
CONTINUOUS
 62
     7
 10
144.4348906693293
 20
67.64362986654092
 30
0.0
  0
VERTEX
  5
4E7
  8
0
  6
CONTINUOUS
 62
     7
 10
144.3378394451098
 20
67.63315222986648
 30
0.0
  0
VERTEX
  5
4E8
  8
0
  6
CONTINUOUS
 62
     7
 10
144.2415607395679
 20
67.62008969147334
 30
0.0
  0
VERTEX
  5
4E9
  8
0
  6
CONTINUOUS
 62
     7
 10
144.1462234582688
 20
67.60446516749249
 30
0.0
  0
VERTEX
  5
4EA
  8
0
  6
CONTINUOUS
 62
     7
 10
144.0519948551998
 20
67.58630606864828
 30
0.0
  0
VERTEX
  5
4EB
  8
0
  6
CONTINUOUS
 62
     7
 10
143.9590402393498
 20
67.56564425217056
 30
0.0
  0
VERTEX
  5
4EC
  8
0
  6
CONTINUOUS
 62
     7
 10
143.8675226847011
 20
67.54251596590638
 30
0.0
  0
VERTEX
  5
4ED
  8
0
  6
CONTINUOUS
 62
     7
 10
143.7776027441425
 20
67.51696178472888
 30
0.0
  0
VERTEX
  5
4EE
  8
0
  6
CONTINUOUS
 62
     7
 10
143.6894381678048
 20
67.48902653935521
 30
0.0
  0
VERTEX
  5
4EF
  8
0
  6
CONTINUOUS
 62
     7
 10
143.6031836263132
 20
67.45875923769823
 30
0.0
  0
VERTEX
  5
4F0
  8
0
  6
CONTINUOUS
 62
     7
 10
143.5189904394432
 20
67.42621297888994
 30
0.0
  0
VERTEX
  5
4F1
  8
0
  6
CONTINUOUS
 62
     7
 10
143.4370063106534
 20
67.39144486012758
 30
0.0
  0
VERTEX
  5
4F2
  8
0
  6
CONTINUOUS
 62
     7
 10
143.3573750679643
 20
67.35451587650574
 30
0.0
  0
VERTEX
  5
4F3
  8
0
  6
CONTINUOUS
 62
     7
 10
143.2802364116343
 20
67.31549081401028
 30
0.0
  0
VERTEX
  5
4F4
  8
0
  6
CONTINUOUS
 62
     7
 10
143.2057256690786
 20
67.27443813586156
 30
0.0
  0
VERTEX
  5
4F5
  8
0
  6
CONTINUOUS
 62
     7
 10
143.1339735574585
 20
67.2314298624069
 30
0.0
  0
VERTEX
  5
4F6
  8
0
  6
CONTINUOUS
 62
     7
 10
143.0651059543593
 20
67.18654144477222
 30
0.0
  0
VERTEX
  5
4F7
  8
0
  6
CONTINUOUS
 62
     7
 10
142.9992436769582
 20
67.13985163249525
 30
0.0
  0
VERTEX
  5
4F8
  8
0
  6
CONTINUOUS
 62
     7
 10
142.93650227007
 20
67.09144233537204
 30
0.0
  0
VERTEX
  5
4F9
  8
0
  6
CONTINUOUS
 62
     7
 10
142.876991803442
 20
67.04139847975931
 30
0.0
  0
VERTEX
  5
4FA
  8
0
  6
CONTINUOUS
 62
     7
 10
142.8208166786545
 20
66.98980785958483
 30
0.0
  0
VERTEX
  5
4FB
  8
0
  6
CONTINUOUS
 62
     7
 10
142.7680754459647
 20
66.936760982327
 30
0.0
  0
VERTEX
  5
4FC
  8
0
  6
CONTINUOUS
 62
     7
 10
142.7188606314164
 20
66.88235091023398
 30
0.0
  0
VERTEX
  5
4FD
  8
0
  6
CONTINUOUS
 62
     7
 10
142.6732585745177
 20
66.82667309706089
 30
0.0
  0
VERTEX
  5
4FE
  8
0
  6
CONTINUOUS
 62
     7
 10
142.6313492767719
 20
66.76982522061148
 30
0.0
  0
VERTEX
  5
4FF
  8
0
  6
CONTINUOUS
 62
     7
 10
142.5932062613283
 20
66.71190701137809
 30
0.0
  0
VERTEX
  5
500
  8
0
  6
CONTINUOUS
 62
     7
 10
142.558896443997
 20
66.65302007758042
 30
0.0
  0
VERTEX
  5
501
  8
0
  6
CONTINUOUS
 62
     7
 10
142.5284800158562
 20
66.59326772691031
 30
0.0
  0
VERTEX
  5
502
  8
0
  6
CONTINUOUS
 62
     7
 10
142.5020103376563
 20
66.5327547852948
 30
0.0
  0
VERTEX
  5
503
  8
0
  6
CONTINUOUS
 62
     7
 10
142.4795338462074
 20
66.47158741299592
 30
0.0
  0
VERTEX
  5
504
  8
0
  6
CONTINUOUS
 62
     7
 10
142.4610899729131
 20
66.4098729183695
 30
0.0
  0
VERTEX
  5
505
  8
0
  6
CONTINUOUS
 62
     7
 10
142.4467110745944
 20
66.34771956960984
 30
0.0
  0
VERTEX
  5
506
  8
0
  6
CONTINUOUS
 62
     7
 10
142.436422376725
 20
66.28523640481049
 30
0.0
  0
VERTEX
  5
507
  8
0
  6
CONTINUOUS
 62
     7
 10
142.4302419291769
 20
66.22253304067448
 30
0.0
  0
VERTEX
  5
508
  8
0
  6
CONTINUOUS
 62
     7
 10
142.4281805745554
 20
66.15971948020921
 30
0.0
  0
VERTEX
  5
509
  8
0
  6
CONTINUOUS
 62
     7
 10
142.4302419291769
 20
66.09690591974393
 30
0.0
  0
VERTEX
  5
50A
  8
0
  6
CONTINUOUS
 62
     7
 10
142.436422376725
 20
66.03420255560791
 30
0.0
  0
VERTEX
  5
50B
  8
0
  6
CONTINUOUS
 62
     7
 10
142.4467110745944
 20
65.97171939080857
 30
0.0
  0
VERTEX
  5
50C
  8
0
  6
CONTINUOUS
 62
     7
 10
142.4610899729131
 20
65.90956604204891
 30
0.0
  0
VERTEX
  5
50D
  8
0
  6
CONTINUOUS
 62
     7
 10
142.4795338462074
 20
65.84785154742248
 30
0.0
  0
VERTEX
  5
50E
  8
0
  6
CONTINUOUS
 62
     7
 10
142.5020103376563
 20
65.7866841751236
 30
0.0
  0
VERTEX
  5
50F
  8
0
  6
CONTINUOUS
 62
     7
 10
142.5284800158562
 20
65.7261712335081
 30
0.0
  0
VERTEX
  5
510
  8
0
  6
CONTINUOUS
 62
     7
 10
142.558896443997
 20
65.66641888283797
 30
0.0
  0
VERTEX
  5
511
  8
0
  6
CONTINUOUS
 62
     7
 10
142.5932062613283
 20
65.60753194904032
 30
0.0
  0
VERTEX
  5
512
  8
0
  6
CONTINUOUS
 62
     7
 10
142.6313492767719
 20
65.54961373980692
 30
0.0
  0
VERTEX
  5
513
  8
0
  6
CONTINUOUS
 62
     7
 10
142.6732585745177
 20
65.49276586335751
 30
0.0
  0
VERTEX
  5
514
  8
0
  6
CONTINUOUS
 62
     7
 10
142.7188606314164
 20
65.43708805018441
 30
0.0
  0
VERTEX
  5
515
  8
0
  6
CONTINUOUS
 62
     7
 10
142.7680754459647
 20
65.38267797809139
 30
0.0
  0
VERTEX
  5
516
  8
0
  6
CONTINUOUS
 62
     7
 10
142.8208166786545
 20
65.32963110083357
 30
0.0
  0
VERTEX
  5
517
  8
0
  6
CONTINUOUS
 62
     7
 10
142.876991803442
 20
65.2780404806591
 30
0.0
  0
VERTEX
  5
518
  8
0
  6
CONTINUOUS
 62
     7
 10
142.93650227007
 20
65.22799662504637
 30
0.0
  0
VERTEX
  5
519
  8
0
  6
CONTINUOUS
 62
     7
 10
142.9992436769583
 20
65.17958732792314
 30
0.0
  0
VERTEX
  5
51A
  8
0
  6
CONTINUOUS
 62
     7
 10
143.0651059543593
 20
65.13289751564618
 30
0.0
  0
VERTEX
  5
51B
  8
0
  6
CONTINUOUS
 62
     7
 10
143.1339735574585
 20
65.08800909801151
 30
0.0
  0
VERTEX
  5
51C
  8
0
  6
CONTINUOUS
 62
     7
 10
143.2057256690786
 20
65.04500082455684
 30
0.0
  0
VERTEX
  5
51D
  8
0
  6
CONTINUOUS
 62
     7
 10
143.2802364116343
 20
65.00394814640814
 30
0.0
  0
VERTEX
  5
51E
  8
0
  6
CONTINUOUS
 62
     7
 10
143.3573750679643
 20
64.96492308391265
 30
0.0
  0
VERTEX
  5
51F
  8
0
  6
CONTINUOUS
 62
     7
 10
143.4370063106534
 20
64.92799410029083
 30
0.0
  0
VERTEX
  5
520
  8
0
  6
CONTINUOUS
 62
     7
 10
143.5189904394432
 20
64.89322598152846
 30
0.0
  0
VERTEX
  5
521
  8
0
  6
CONTINUOUS
 62
     7
 10
143.6031836263132
 20
64.86067972272018
 30
0.0
  0
VERTEX
  5
522
  8
0
  6
CONTINUOUS
 62
     7
 10
143.6894381678048
 20
64.8304124210632
 30
0.0
  0
VERTEX
  5
523
  8
0
  6
CONTINUOUS
 62
     7
 10
143.7776027441425
 20
64.80247717568953
 30
0.0
  0
VERTEX
  5
524
  8
0
  6
CONTINUOUS
 62
     7
 10
143.8675226847012
 20
64.77692299451203
 30
0.0
  0
VERTEX
  5
525
  8
0
  6
CONTINUOUS
 62
     7
 10
143.9590402393498
 20
64.75379470824784
 30
0.0
  0
VERTEX
  5
526
  8
0
  6
CONTINUOUS
 62
     7
 10
144.0519948551998
 20
64.73313289177013
 30
0.0
  0
VERTEX
  5
527
  8
0
  6
CONTINUOUS
 62
     7
 10
144.1462234582688
 20
64.71497379292592
 30
0.0
  0
VERTEX
  5
528
  8
0
  6
CONTINUOUS
 62
     7
 10
144.2415607395679
 20
64.69934926894507
 30
0.0
  0
VERTEX
  5
529
  8
0
  6
CONTINUOUS
 62
     7
 10
144.3378394451098
 20
64.68628673055193
 30
0.0
  0
VERTEX
  5
52A
  8
0
  6
CONTINUOUS
 62
     7
 10
144.4348906693293
 20
64.67580909387749
 30
0.0
  0
VERTEX
  5
52B
  8
0
  6
CONTINUOUS
 62
     7
 10
144.5325441514009
 20
64.66793474025681
 30
0.0
  0
VERTEX
  5
52C
  8
0
  6
CONTINUOUS
 62
     7
 10
144.6306285739342
 20
64.66267748398188
 30
0.0
  0
VERTEX
  5
52D
  8
0
  6
CONTINUOUS
 62
     7
 10
144.7289718635228
 20
64.66004654806662
 30
0.0
  0
VERTEX
  5
52E
  8
0
  6
CONTINUOUS
 62
     7
 10
144.8274014926193
 20
64.66004654806662
 30
0.0
  0
VERTEX
  5
52F
  8
0
  6
CONTINUOUS
 62
     7
 10
144.9257447822078
 20
64.66267748398188
 30
0.0
  0
VERTEX
  5
530
  8
0
  6
CONTINUOUS
 62
     7
 10
145.0238292047411
 20
64.66793474025681
 30
0.0
  0
VERTEX
  5
531
  8
0
  6
CONTINUOUS
 62
     7
 10
145.1214826868128
 20
64.67580909387749
 30
0.0
  0
VERTEX
  5
532
  8
0
  6
CONTINUOUS
 62
     7
 10
145.2185339110323
 20
64.68628673055193
 30
0.0
  0
VERTEX
  5
533
  8
0
  6
CONTINUOUS
 62
     7
 10
145.3148126165742
 20
64.69934926894507
 30
0.0
  0
VERTEX
  5
534
  8
0
  6
CONTINUOUS
 62
     7
 10
145.4101498978732
 20
64.71497379292592
 30
0.0
  0
VERTEX
  5
535
  8
0
  6
CONTINUOUS
 62
     7
 10
145.5043785009422
 20
64.73313289177013
 30
0.0
  0
VERTEX
  5
536
  8
0
  6
CONTINUOUS
 62
     7
 10
145.5973331167922
 20
64.75379470824785
 30
0.0
  0
VERTEX
  5
537
  8
0
  6
CONTINUOUS
 62
     7
 10
145.6888506714409
 20
64.77692299451203
 30
0.0
  0
VERTEX
  5
538
  8
0
  6
CONTINUOUS
 62
     7
 10
145.7787706119995
 20
64.80247717568953
 30
0.0
  0
VERTEX
  5
539
  8
0
  6
CONTINUOUS
 62
     7
 10
145.8669351883373
 20
64.8304124210632
 30
0.0
  0
VERTEX
  5
53A
  8
0
  6
CONTINUOUS
 62
     7
 10
145.9531897298288
 20
64.86067972272018
 30
0.0
  0
VERTEX
  5
53B
  8
0
  6
CONTINUOUS
 62
     7
 10
146.0373829166989
 20
64.89322598152847
 30
0.0
  0
VERTEX
  5
53C
  8
0
  6
CONTINUOUS
 62
     7
 10
146.1193670454886
 20
64.92799410029083
 30
0.0
  0
VERTEX
  5
53D
  8
0
  6
CONTINUOUS
 62
     7
 10
146.1989982881778
 20
64.96492308391267
 30
0.0
  0
VERTEX
  5
53E
  8
0
  6
CONTINUOUS
 62
     7
 10
146.2761369445077
 20
65.00394814640815
 30
0.0
  0
VERTEX
  5
53F
  8
0
  6
CONTINUOUS
 62
     7
 10
146.3506476870635
 20
65.04500082455685
 30
0.0
  0
VERTEX
  5
540
  8
0
  6
CONTINUOUS
 62
     7
 10
146.4223997986836
 20
65.08800909801151
 30
0.0
  0
VERTEX
  5
541
  8
0
  6
CONTINUOUS
 62
     7
 10
146.4912674017828
 20
65.13289751564619
 30
0.0
  0
VERTEX
  5
542
  8
0
  6
CONTINUOUS
 62
     7
 10
146.5571296791838
 20
65.17958732792316
 30
0.0
  0
VERTEX
  5
543
  8
0
  6
CONTINUOUS
 62
     7
 10
146.619871086072
 20
65.22799662504637
 30
0.0
  0
VERTEX
  5
544
  8
0
  6
CONTINUOUS
 62
     7
 10
146.6793815527
 20
65.2780404806591
 30
0.0
  0
VERTEX
  5
545
  8
0
  6
CONTINUOUS
 62
     7
 10
146.7355566774876
 20
65.32963110083358
 30
0.0
  0
VERTEX
  5
546
  8
0
  6
CONTINUOUS
 62
     7
 10
146.7882979101773
 20
65.38267797809141
 30
0.0
  0
VERTEX
  5
547
  8
0
  6
CONTINUOUS
 62
     7
 10
146.8375127247256
 20
65.43708805018443
 30
0.0
  0
VERTEX
  5
548
  8
0
  6
CONTINUOUS
 62
     7
 10
146.8831147816244
 20
65.49276586335752
 30
0.0
  0
VERTEX
  5
549
  8
0
  6
CONTINUOUS
 62
     7
 10
146.9250240793701
 20
65.54961373980693
 30
0.0
  0
VERTEX
  5
54A
  8
0
  6
CONTINUOUS
 62
     7
 10
146.9631670948137
 20
65.60753194904034
 30
0.0
  0
VERTEX
  5
54B
  8
0
  6
CONTINUOUS
 62
     7
 10
146.997476912145
 20
65.66641888283799
 30
0.0
  0
VERTEX
  5
54C
  8
0
  6
CONTINUOUS
 62
     7
 10
147.0278933402859
 20
65.7261712335081
 30
0.0
  0
VERTEX
  5
54D
  8
0
  6
CONTINUOUS
 62
     7
 10
147.0543630184858
 20
65.78668417512361
 30
0.0
  0
VERTEX
  5
54E
  8
0
  6
CONTINUOUS
 62
     7
 10
147.0768395099346
 20
65.84785154742249
 30
0.0
  0
VERTEX
  5
54F
  8
0
  6
CONTINUOUS
 62
     7
 10
147.0952833832289
 20
65.90956604204892
 30
0.0
  0
VERTEX
  5
550
  8
0
  6
CONTINUOUS
 62
     7
 10
147.1096622815476
 20
65.97171939080859
 30
0.0
  0
VERTEX
  5
551
  8
0
  6
CONTINUOUS
 62
     7
 10
147.1199509794171
 20
66.03420255560792
 30
0.0
  0
VERTEX
  5
552
  8
0
  6
CONTINUOUS
 62
     7
 10
147.1261314269652
 20
66.09690591974395
 30
0.0
  0
SEQEND
  5
4BC
  8
0
  6
CONTINUOUS
 62
     7
  0
POLYLINE
  5
291
  8
0
  6
CONTINUOUS
 62
     7
 66
     1
 10
0.0
 20
0.0
 30
0.0
 70
     1
  0
VERTEX
  5
553
  8
0
  6
CONTINUOUS
 62
     7
 10
1.0
 20
0.0
 30
0.0
  0
VERTEX
  5
554
  8
0
  6
CONTINUOUS
 62
     7
 10
0.9807852804032304
 20
0.1950903220161283
 30
0.0
  0
VERTEX
  5
555
  8
0
  6
CONTINUOUS
 62
     7
 10
0.9238795325112867
 20
0.3826834323650898
 30
0.0
  0
VERTEX
  5
556
  8
0
  6
CONTINUOUS
 62
     7
 10
0.8314696123025452
 20
0.5555702330196022
 30
0.0
  0
VERTEX
  5
557
  8
0
  6
CONTINUOUS
 62
     7
 10
0.7071067811865476
 20
0.7071067811865475
 30
0.0
  0
VERTEX
  5
558
  8
0
  6
CONTINUOUS
 62
     7
 10
0.5555702330196023
 20
0.8314696123025452
 30
0.0
  0
VERTEX
  5
559
  8
0
  6
CONTINUOUS
 62
     7
 10
0.3826834323650898
 20
0.9238795325112867
 30
0.0
  0
VERTEX
  5
55A
  8
0
  6
CONTINUOUS
 62
     7
 10
0.1950903220161283
 20
0.9807852804032304
 30
0.0
  0
VERTEX
  5
55B
  8
0
  6
CONTINUOUS
 62
     7
 10
0.0000000000000001
 20
1.0
 30
0.0
  0
VERTEX
  5
55C
  8
0
  6
CONTINUOUS
 62
     7
 10
-0.1950903220161282
 20
0.9807852804032304
 30
0.0
  0
VERTEX
  5
55D
  8
0
  6
CONTINUOUS
 62
     7
 10
-0.3826834323650897
 20
0.9238795325112867
 30
0.0
  0
VERTEX
  5
55E
  8
0
  6
CONTINUOUS
 62
     7
 10
-0.555570233019602
 20
0.8314696123025455
 30
0.0
  0
VERTEX
  5
55F
  8
0
  6
CONTINUOUS
 62
     7
 10
-0.7071067811865475
 20
0.7071067811865476
 30
0.0
  0
VERTEX
  5
560
  8
0
  6
CONTINUOUS
 62
     7
 10
-0.8314696123025454
 20
0.5555702330196022
 30
0.0
  0
VERTEX
  5
561
  8
0
  6
CONTINUOUS
 62
     7
 10
-0.9238795325112869
 20
0.3826834323650895
 30
0.0
  0
VERTEX
  5
562
  8
0
  6
CONTINUOUS
 62
     7
 10
-0.9807852804032305
 20
0.1950903220161277
 30
0.0
  0
VERTEX
  5
563
  8
0
  6
CONTINUOUS
 62
     7
 10
-1.0
 20
-0.0000000000000008
 30
0.0
  0
VERTEX
  5
564
  8
0
  6
CONTINUOUS
 62
     7
 10
-0.9807852804032302
 20
-0.1950903220161292
 30
0.0
  0
VERTEX
  5
565
  8
0
  6
CONTINUOUS
 62
     7
 10
-0.9238795325112863
 20
-0.3826834323650909
 30
0.0
  0
VERTEX
  5
566
  8
0
  6
CONTINUOUS
 62
     7
 10
-0.8314696123025445
 20
-0.5555702330196034
 30
0.0
  0
VERTEX
  5
567
  8
0
  6
CONTINUOUS
 62
     7
 10
-0.7071067811865464
 20
-0.7071067811865487
 30
0.0
  0
VERTEX
  5
568
  8
0
  6
CONTINUOUS
 62
     7
 10
-0.5555702330196007
 20
-0.8314696123025462
 30
0.0
  0
VERTEX
  5
569
  8
0
  6
CONTINUOUS
 62
     7
 10
-0.3826834323650879
 20
-0.9238795325112875
 30
0.0
  0
VERTEX
  5
56A
  8
0
  6
CONTINUOUS
 62
     7
 10
-0.1950903220161261
 20
-0.9807852804032309
 30
0.0
  0
VERTEX
  5
56B
  8
0
  6
CONTINUOUS
 62
     7
 10
0.0000000000000025
 20
-1.0
 30
0.0
  0
VERTEX
  5
56C
  8
0
  6
CONTINUOUS
 62
     7
 10
0.1950903220161309
 20
-0.9807852804032299
 30
0.0
  0
VERTEX
  5
56D
  8
0
  6
CONTINUOUS
 62
     7
 10
0.3826834323650925
 20
-0.9238795325112856
 30
0.0
  0
VERTEX
  5
56E
  8
0
  6
CONTINUOUS
 62
     7
 10
0.5555702330196048
 20
-0.8314696123025435
 30
0.0
  0
VERTEX
  5
56F
  8
0
  6
CONTINUOUS
 62
     7
 10
0.7071067811865499
 20
-0.7071067811865451
 30
0.0
  0
VERTEX
  5
570
  8
0
  6
CONTINUOUS
 62
     7
 10
0.8314696123025472
 20
-0.5555702330195993
 30
0.0
  0
VERTEX
  5
571
  8
0
  6
CONTINUOUS
 62
     7
 10
0.9238795325112882
 20
-0.3826834323650863
 30
0.0
  0
VERTEX
  5
572
  8
0
  6
CONTINUOUS
 62
     7
 10
0.9807852804032312
 20
-0.1950903220161244
 30
0.0
  0
SEQEND
  5
573
  8
0
  6
CONTINUOUS
 62
     7
  0
POLYLINE
  5
292
  8
0
  6
CONTINUOUS
 62
     7
 66
     1
 10
0.0
 20
0.0
 30
0.0
 70
     1
  0
VERTEX
  5
575
  8
0
  6
CONTINUOUS
 62
     7
 10
199.1281927815867
 20
70.15971566551194
 30
0.0
  0
VERTEX
  5
576
  8
0
  6
CONTINUOUS
 62
     7
 10
199.1261314269652
 20
70.22252914610574
 30
0.0
  0
VERTEX
  5
577
  8
0
  6
CONTINUOUS
 62
     7
 10
199.1199509794171
 20
70.28523243051042
 30
0.0
  0
VERTEX
  5
578
  8
0
  6
CONTINUOUS
 62
     7
 10
199.1096622815476
 20
70.3477155158584
 30
0.0
  0
VERTEX
  5
579
  8
0
  6
CONTINUOUS
 62
     7
 10
199.0952833832289
 20
70.4098687855861
 30
0.0
  0
VERTEX
  5
57A
  8
0
  6
CONTINUOUS
 62
     7
 10
199.0768395099346
 20
70.47158320173858
 30
0.0
  0
VERTEX
  5
57B
  8
0
  6
CONTINUOUS
 62
     7
 10
199.0543630184858
 20
70.53275049625923
 30
0.0
  0
VERTEX
  5
57C
  8
0
  6
CONTINUOUS
 62
     7
 10
199.0278933402859
 20
70.59326336092865
 30
0.0
  0
VERTEX
  5
57D
  8
0
  6
CONTINUOUS
 62
     7
 10
198.997476912145
 20
70.65301563561981
 30
0.0
  0
VERTEX
  5
57E
  8
0
  6
CONTINUOUS
 62
     7
 10
198.9631670948137
 20
70.71190249453896
 30
0.0
  0
VERTEX
  5
57F
  8
0
  6
CONTINUOUS
 62
     7
 10
198.9250240793701
 20
70.76982063012564
 30
0.0
  0
VERTEX
  5
580
  8
0
  6
CONTINUOUS
 62
     7
 10
198.8831147816244
 20
70.82666843428933
 30
0.0
  0
VERTEX
  5
581
  8
0
  6
CONTINUOUS
 62
     7
 10
198.8375127247256
 20
70.88234617666451
 30
0.0
  0
VERTEX
  5
582
  8
0
  6
CONTINUOUS
 62
     7
 10
198.7882979101773
 20
70.93675617957163
 30
0.0
  0
VERTEX
  5
583
  8
0
  6
CONTINUOUS
 62
     7
 10
198.7355566774876
 20
70.98980298937696
 30
0.0
  0
VERTEX
  5
584
  8
0
  6
CONTINUOUS
 62
     7
 10
198.6793815527
 20
71.04139354395065
 30
0.0
  0
VERTEX
  5
585
  8
0
  6
CONTINUOUS
 62
     7
 10
198.619871086072
 20
71.0914373359294
 30
0.0
  0
VERTEX
  5
586
  8
0
  6
CONTINUOUS
 62
     7
 10
198.5571296791838
 20
71.1398465714971
 30
0.0
  0
VERTEX
  5
587
  8
0
  6
CONTINUOUS
 62
     7
 10
198.4912674017828
 20
71.18653632440497
 30
0.0
  0
VERTEX
  5
588
  8
0
  6
CONTINUOUS
 62
     7
 10
198.4223997986836
 20
71.23142468496114
 30
0.0
  0
VERTEX
  5
589
  8
0
  6
CONTINUOUS
 62
     7
 10
198.3506476870635
 20
71.27443290372803
 30
0.0
  0
VERTEX
  5
58A
  8
0
  6
CONTINUOUS
 62
     7
 10
198.2761369445077
 20
71.31548552967563
 30
0.0
  0
VERTEX
  5
58B
  8
0
  6
CONTINUOUS
 62
     7
 10
198.1989982881778
 20
71.35451054254823
 30
0.0
  0
VERTEX
  5
58C
  8
0
  6
CONTINUOUS
 62
     7
 10
198.1193670454886
 20
71.39143947921249
 30
0.0
  0
VERTEX
  5
58D
  8
0
  6
CONTINUOUS
 62
     7
 10
198.0373829166989
 20
71.42620755376497
 30
0.0
  0
VERTEX
  5
58E
  8
0
  6
CONTINUOUS
 62
     7
 10
197.9531897298288
 20
71.4587537711886
 30
0.0
  0
VERTEX
  5
58F
  8
0
  6
CONTINUOUS
 62
     7
 10
197.8669351883373
 20
71.48902103435876
 30
0.0
  0
VERTEX
  5
590
  8
0
  6
CONTINUOUS
 62
     7
 10
197.7787706119995
 20
71.51695624421097
 30
0.0
  0
VERTEX
  5
591
  8
0
  6
CONTINUOUS
 62
     7
 10
197.6888506714409
 20
71.54251039289468
 30
0.0
  0
VERTEX
  5
592
  8
0
  6
CONTINUOUS
 62
     7
 10
197.5973331167922
 20
71.56563864974977
 30
0.0
  0
VERTEX
  5
593
  8
0
  6
CONTINUOUS
 62
     7
 10
197.5043785009422
 20
71.58630043995467
 30
0.0
  0
VERTEX
  5
594
  8
0
  6
CONTINUOUS
 62
     7
 10
197.4101498978732
 20
71.60445951570843
 30
0.0
  0
VERTEX
  5
595
  8
0
  6
CONTINUOUS
 62
     7
 10
197.3148126165742
 20
71.62008401982168
 30
0.0
  0
VERTEX
  5
596
  8
0
  6
CONTINUOUS
 62
     7
 10
197.2185339110323
 20
71.63314654160497
 30
0.0
  0
VERTEX
  5
597
  8
0
  6
CONTINUOUS
 62
     7
 10
197.1214826868127
 20
71.64362416495642
 30
0.0
  0
VERTEX
  5
598
  8
0
  6
CONTINUOUS
 62
     7
 10
197.0238292047411
 20
71.65149850856435
 30
0.0
  0
VERTEX
  5
599
  8
0
  6
CONTINUOUS
 62
     7
 10
196.9257447822078
 20
71.65675575815435
 30
0.0
  0
VERTEX
  5
59A
  8
0
  6
CONTINUOUS
 62
     7
 10
196.8274014926193
 20
71.65938669072421
 30
0.0
  0
VERTEX
  5
59B
  8
0
  6
CONTINUOUS
 62
     7
 10
196.7289718635228
 20
71.65938669072421
 30
0.0
  0
VERTEX
  5
59C
  8
0
  6
CONTINUOUS
 62
     7
 10
196.6306285739342
 20
71.65675575815435
 30
0.0
  0
VERTEX
  5
59D
  8
0
  6
CONTINUOUS
 62
     7
 10
196.5325441514009
 20
71.65149850856435
 30
0.0
  0
VERTEX
  5
59E
  8
0
  6
CONTINUOUS
 62
     7
 10
196.4348906693293
 20
71.64362416495642
 30
0.0
  0
VERTEX
  5
59F
  8
0
  6
CONTINUOUS
 62
     7
 10
196.3378394451098
 20
71.63314654160497
 30
0.0
  0
VERTEX
  5
5A0
  8
0
  6
CONTINUOUS
 62
     7
 10
196.2415607395679
 20
71.62008401982168
 30
0.0
  0
VERTEX
  5
5A1
  8
0
  6
CONTINUOUS
 62
     7
 10
196.1462234582688
 20
71.60445951570843
 30
0.0
  0
VERTEX
  5
5A2
  8
0
  6
CONTINUOUS
 62
     7
 10
196.0519948551998
 20
71.58630043995467
 30
0.0
  0
VERTEX
  5
5A3
  8
0
  6
CONTINUOUS
 62
     7
 10
195.9590402393498
 20
71.56563864974977
 30
0.0
  0
VERTEX
  5
5A4
  8
0
  6
CONTINUOUS
 62
     7
 10
195.8675226847011
 20
71.54251039289468
 30
0.0
  0
VERTEX
  5
5A5
  8
0
  6
CONTINUOUS
 62
     7
 10
195.7776027441425
 20
71.51695624421097
 30
0.0
  0
VERTEX
  5
5A6
  8
0
  6
CONTINUOUS
 62
     7
 10
195.6894381678048
 20
71.48902103435876
 30
0.0
  0
VERTEX
  5
5A7
  8
0
  6
CONTINUOUS
 62
     7
 10
195.6031836263132
 20
71.4587537711886
 30
0.0
  0
VERTEX
  5
5A8
  8
0
  6
CONTINUOUS
 62
     7
 10
195.5189904394432
 20
71.42620755376497
 30
0.0
  0
VERTEX
  5
5A9
  8
0
  6
CONTINUOUS
 62
     7
 10
195.4370063106534
 20
71.39143947921249
 30
0.0
  0
VERTEX
  5
5AA
  8
0
  6
CONTINUOUS
 62
     7
 10
195.3573750679643
 20
71.35451054254823
 30
0.0
  0
VERTEX
  5
5AB
  8
0
  6
CONTINUOUS
 62
     7
 10
195.2802364116343
 20
71.31548552967563
 30
0.0
  0
VERTEX
  5
5AC
  8
0
  6
CONTINUOUS
 62
     7
 10
195.2057256690786
 20
71.27443290372803
 30
0.0
  0
VERTEX
  5
5AD
  8
0
  6
CONTINUOUS
 62
     7
 10
195.1339735574585
 20
71.23142468496114
 30
0.0
  0
VERTEX
  5
5AE
  8
0
  6
CONTINUOUS
 62
     7
 10
195.0651059543593
 20
71.18653632440497
 30
0.0
  0
VERTEX
  5
5AF
  8
0
  6
CONTINUOUS
 62
     7
 10
194.9992436769582
 20
71.1398465714971
 30
0.0
  0
VERTEX
  5
5B0
  8
0
  6
CONTINUOUS
 62
     7
 10
194.93650227007
 20
71.0914373359294
 30
0.0
  0
VERTEX
  5
5B1
  8
0
  6
CONTINUOUS
 62
     7
 10
194.876991803442
 20
71.04139354395065
 30
0.0
  0
VERTEX
  5
5B2
  8
0
  6
CONTINUOUS
 62
     7
 10
194.8208166786545
 20
70.98980298937696
 30
0.0
  0
VERTEX
  5
5B3
  8
0
  6
CONTINUOUS
 62
     7
 10
194.7680754459647
 20
70.93675617957163
 30
0.0
  0
VERTEX
  5
5B4
  8
0
  6
CONTINUOUS
 62
     7
 10
194.7188606314164
 20
70.88234617666451
 30
0.0
  0
VERTEX
  5
5B5
  8
0
  6
CONTINUOUS
 62
     7
 10
194.6732585745177
 20
70.82666843428933
 30
0.0
  0
VERTEX
  5
5B6
  8
0
  6
CONTINUOUS
 62
     7
 10
194.6313492767719
 20
70.76982063012564
 30
0.0
  0
VERTEX
  5
5B7
  8
0
  6
CONTINUOUS
 62
     7
 10
194.5932062613283
 20
70.71190249453895
 30
0.0
  0
VERTEX
  5
5B8
  8
0
  6
CONTINUOUS
 62
     7
 10
194.558896443997
 20
70.65301563561981
 30
0.0
  0
VERTEX
  5
5B9
  8
0
  6
CONTINUOUS
 62
     7
 10
194.5284800158562
 20
70.59326336092865
 30
0.0
  0
VERTEX
  5
5BA
  8
0
  6
CONTINUOUS
 62
     7
 10
194.5020103376563
 20
70.53275049625923
 30
0.0
  0
VERTEX
  5
5BB
  8
0
  6
CONTINUOUS
 62
     7
 10
194.4795338462074
 20
70.47158320173858
 30
0.0
  0
VERTEX
  5
5BC
  8
0
  6
CONTINUOUS
 62
     7
 10
194.4610899729131
 20
70.40986878558609
 30
0.0
  0
VERTEX
  5
5BD
  8
0
  6
CONTINUOUS
 62
     7
 10
194.4467110745944
 20
70.3477155158584
 30
0.0
  0
VERTEX
  5
5BE
  8
0
  6
CONTINUOUS
 62
     7
 10
194.436422376725
 20
70.28523243051041
 30
0.0
  0
VERTEX
  5
5BF
  8
0
  6
CONTINUOUS
 62
     7
 10
194.4302419291769
 20
70.22252914610574
 30
0.0
  0
VERTEX
  5
5C0
  8
0
  6
CONTINUOUS
 62
     7
 10
194.4281805745554
 20
70.15971566551194
 30
0.0
  0
VERTEX
  5
5C1
  8
0
  6
CONTINUOUS
 62
     7
 10
194.4302419291769
 20
70.09690218491814
 30
0.0
  0
VERTEX
  5
5C2
  8
0
  6
CONTINUOUS
 62
     7
 10
194.436422376725
 20
70.03419890051346
 30
0.0
  0
VERTEX
  5
5C3
  8
0
  6
CONTINUOUS
 62
     7
 10
194.4467110745944
 20
69.97171581516548
 30
0.0
  0
VERTEX
  5
5C4
  8
0
  6
CONTINUOUS
 62
     7
 10
194.4610899729131
 20
69.90956254543778
 30
0.0
  0
VERTEX
  5
5C5
  8
0
  6
CONTINUOUS
 62
     7
 10
194.4795338462074
 20
69.8478481292853
 30
0.0
  0
VERTEX
  5
5C6
  8
0
  6
CONTINUOUS
 62
     7
 10
194.5020103376563
 20
69.78668083476465
 30
0.0
  0
VERTEX
  5
5C7
  8
0
  6
CONTINUOUS
 62
     7
 10
194.5284800158562
 20
69.72616797009523
 30
0.0
  0
VERTEX
  5
5C8
  8
0
  6
CONTINUOUS
 62
     7
 10
194.558896443997
 20
69.66641569540406
 30
0.0
  0
VERTEX
  5
5C9
  8
0
  6
CONTINUOUS
 62
     7
 10
194.5932062613283
 20
69.60752883648492
 30
0.0
  0
VERTEX
  5
5CA
  8
0
  6
CONTINUOUS
 62
     7
 10
194.6313492767719
 20
69.54961070089824
 30
0.0
  0
VERTEX
  5
5CB
  8
0
  6
CONTINUOUS
 62
     7
 10
194.6732585745177
 20
69.49276289673455
 30
0.0
  0
VERTEX
  5
5CC
  8
0
  6
CONTINUOUS
 62
     7
 10
194.7188606314164
 20
69.43708515435937
 30
0.0
  0
VERTEX
  5
5CD
  8
0
  6
CONTINUOUS
 62
     7
 10
194.7680754459647
 20
69.38267515145225
 30
0.0
  0
VERTEX
  5
5CE
  8
0
  6
CONTINUOUS
 62
     7
 10
194.8208166786545
 20
69.32962834164692
 30
0.0
  0
VERTEX
  5
5CF
  8
0
  6
CONTINUOUS
 62
     7
 10
194.876991803442
 20
69.27803778707323
 30
0.0
  0
VERTEX
  5
5D0
  8
0
  6
CONTINUOUS
 62
     7
 10
194.93650227007
 20
69.22799399509447
 30
0.0
  0
VERTEX
  5
5D1
  8
0
  6
CONTINUOUS
 62
     7
 10
194.9992436769583
 20
69.17958475952678
 30
0.0
  0
VERTEX
  5
5D2
  8
0
  6
CONTINUOUS
 62
     7
 10
195.0651059543593
 20
69.13289500661891
 30
0.0
  0
VERTEX
  5
5D3
  8
0
  6
CONTINUOUS
 62
     7
 10
195.1339735574585
 20
69.08800664606274
 30
0.0
  0
VERTEX
  5
5D4
  8
0
  6
CONTINUOUS
 62
     7
 10
195.2057256690786
 20
69.04499842729584
 30
0.0
  0
VERTEX
  5
5D5
  8
0
  6
CONTINUOUS
 62
     7
 10
195.2802364116343
 20
69.00394580134825
 30
0.0
  0
VERTEX
  5
5D6
  8
0
  6
CONTINUOUS
 62
     7
 10
195.3573750679643
 20
68.96492078847564
 30
0.0
  0
VERTEX
  5
5D7
  8
0
  6
CONTINUOUS
 62
     7
 10
195.4370063106534
 20
68.92799185181139
 30
0.0
  0
VERTEX
  5
5D8
  8
0
  6
CONTINUOUS
 62
     7
 10
195.5189904394432
 20
68.89322377725891
 30
0.0
  0
VERTEX
  5
5D9
  8
0
  6
CONTINUOUS
 62
     7
 10
195.6031836263132
 20
68.86067755983528
 30
0.0
  0
VERTEX
  5
5DA
  8
0
  6
CONTINUOUS
 62
     7
 10
195.6894381678048
 20
68.83041029666512
 30
0.0
  0
VERTEX
  5
5DB
  8
0
  6
CONTINUOUS
 62
     7
 10
195.7776027441425
 20
68.80247508681291
 30
0.0
  0
VERTEX
  5
5DC
  8
0
  6
CONTINUOUS
 62
     7
 10
195.8675226847012
 20
68.77692093812918
 30
0.0
  0
VERTEX
  5
5DD
  8
0
  6
CONTINUOUS
 62
     7
 10
195.9590402393498
 20
68.75379268127411
 30
0.0
  0
VERTEX
  5
5DE
  8
0
  6
CONTINUOUS
 62
     7
 10
196.0519948551998
 20
68.73313089106921
 30
0.0
  0
VERTEX
  5
5DF
  8
0
  6
CONTINUOUS
 62
     7
 10
196.1462234582688
 20
68.71497181531545
 30
0.0
  0
VERTEX
  5
5E0
  8
0
  6
CONTINUOUS
 62
     7
 10
196.2415607395679
 20
68.6993473112022
 30
0.0
  0
VERTEX
  5
5E1
  8
0
  6
CONTINUOUS
 62
     7
 10
196.3378394451098
 20
68.68628478941891
 30
0.0
  0
VERTEX
  5
5E2
  8
0
  6
CONTINUOUS
 62
     7
 10
196.4348906693293
 20
68.67580716606746
 30
0.0
  0
VERTEX
  5
5E3
  8
0
  6
CONTINUOUS
 62
     7
 10
196.5325441514009
 20
68.66793282245953
 30
0.0
  0
VERTEX
  5
5E4
  8
0
  6
CONTINUOUS
 62
     7
 10
196.6306285739342
 20
68.66267557286953
 30
0.0
  0
VERTEX
  5
5E5
  8
0
  6
CONTINUOUS
 62
     7
 10
196.7289718635228
 20
68.66004464029967
 30
0.0
  0
VERTEX
  5
5E6
  8
0
  6
CONTINUOUS
 62
     7
 10
196.8274014926193
 20
68.66004464029967
 30
0.0
  0
VERTEX
  5
5E7
  8
0
  6
CONTINUOUS
 62
     7
 10
196.9257447822078
 20
68.66267557286953
 30
0.0
  0
VERTEX
  5
5E8
  8
0
  6
CONTINUOUS
 62
     7
 10
197.0238292047411
 20
68.66793282245953
 30
0.0
  0
VERTEX
  5
5E9
  8
0
  6
CONTINUOUS
 62
     7
 10
197.1214826868128
 20
68.67580716606746
 30
0.0
  0
VERTEX
  5
5EA
  8
0
  6
CONTINUOUS
 62
     7
 10
197.2185339110323
 20
68.68628478941891
 30
0.0
  0
VERTEX
  5
5EB
  8
0
  6
CONTINUOUS
 62
     7
 10
197.3148126165742
 20
68.6993473112022
 30
0.0
  0
VERTEX
  5
5EC
  8
0
  6
CONTINUOUS
 62
     7
 10
197.4101498978732
 20
68.71497181531545
 30
0.0
  0
VERTEX
  5
5ED
  8
0
  6
CONTINUOUS
 62
     7
 10
197.5043785009422
 20
68.73313089106921
 30
0.0
  0
VERTEX
  5
5EE
  8
0
  6
CONTINUOUS
 62
     7
 10
197.5973331167922
 20
68.75379268127411
 30
0.0
  0
VERTEX
  5
5EF
  8
0
  6
CONTINUOUS
 62
     7
 10
197.6888506714409
 20
68.77692093812919
 30
0.0
  0
VERTEX
  5
5F0
  8
0
  6
CONTINUOUS
 62
     7
 10
197.7787706119995
 20
68.80247508681292
 30
0.0
  0
VERTEX
  5
5F1
  8
0
  6
CONTINUOUS
 62
     7
 10
197.8669351883373
 20
68.83041029666512
 30
0.0
  0
VERTEX
  5
5F2
  8
0
  6
CONTINUOUS
 62
     7
 10
197.9531897298288
 20
68.86067755983528
 30
0.0
  0
VERTEX
  5
5F3
  8
0
  6
CONTINUOUS
 62
     7
 10
198.0373829166989
 20
68.89322377725893
 30
0.0
  0
VERTEX
  5
5F4
  8
0
  6
CONTINUOUS
 62
     7
 10
198.1193670454886
 20
68.92799185181139
 30
0.0
  0
VERTEX
  5
5F5
  8
0
  6
CONTINUOUS
 62
     7
 10
198.1989982881778
 20
68.96492078847565
 30
0.0
  0
VERTEX
  5
5F6
  8
0
  6
CONTINUOUS
 62
     7
 10
198.2761369445077
 20
69.00394580134827
 30
0.0
  0
VERTEX
  5
5F7
  8
0
  6
CONTINUOUS
 62
     7
 10
198.3506476870635
 20
69.04499842729585
 30
0.0
  0
VERTEX
  5
5F8
  8
0
  6
CONTINUOUS
 62
     7
 10
198.4223997986836
 20
69.08800664606274
 30
0.0
  0
VERTEX
  5
5F9
  8
0
  6
CONTINUOUS
 62
     7
 10
198.4912674017828
 20
69.13289500661891
 30
0.0
  0
VERTEX
  5
5FA
  8
0
  6
CONTINUOUS
 62
     7
 10
198.5571296791838
 20
69.17958475952679
 30
0.0
  0
VERTEX
  5
5FB
  8
0
  6
CONTINUOUS
 62
     7
 10
198.619871086072
 20
69.22799399509448
 30
0.0
  0
VERTEX
  5
5FC
  8
0
  6
CONTINUOUS
 62
     7
 10
198.6793815527
 20
69.27803778707323
 30
0.0
  0
VERTEX
  5
5FD
  8
0
  6
CONTINUOUS
 62
     7
 10
198.7355566774876
 20
69.32962834164692
 30
0.0
  0
VERTEX
  5
5FE
  8
0
  6
CONTINUOUS
 62
     7
 10
198.7882979101773
 20
69.38267515145225
 30
0.0
  0
VERTEX
  5
5FF
  8
0
  6
CONTINUOUS
 62
     7
 10
198.8375127247256
 20
69.43708515435938
 30
0.0
  0
VERTEX
  5
600
  8
0
  6
CONTINUOUS
 62
     7
 10
198.8831147816244
 20
69.49276289673456
 30
0.0
  0
VERTEX
  5
601
  8
0
  6
CONTINUOUS
 62
     7
 10
198.9250240793701
 20
69.54961070089824
 30
0.0
  0
VERTEX
  5
602
  8
0
  6
CONTINUOUS
 62
     7
 10
198.9631670948137
 20
69.60752883648493
 30
0.0
  0
VERTEX
  5
603
  8
0
  6
CONTINUOUS
 62
     7
 10
198.997476912145
 20
69.66641569540407
 30
0.0
  0
VERTEX
  5
604
  8
0
  6
CONTINUOUS
 62
     7
 10
199.0278933402859
 20
69.72616797009523
 30
0.0
  0
VERTEX
  5
605
  8
0
  6
CONTINUOUS
 62
     7
 10
199.0543630184858
 20
69.78668083476467
 30
0.0
  0
VERTEX
  5
606
  8
0
  6
CONTINUOUS
 62
     7
 10
199.0768395099346
 20
69.84784812928531
 30
0.0
  0
VERTEX
  5
607
  8
0
  6
CONTINUOUS
 62
     7
 10
199.0952833832289
 20
69.90956254543779
 30
0.0
  0
VERTEX
  5
608
  8
0
  6
CONTINUOUS
 62
     7
 10
199.1096622815476
 20
69.9717158151655
 30
0.0
  0
VERTEX
  5
609
  8
0
  6
CONTINUOUS
 62
     7
 10
199.1199509794171
 20
70.03419890051347
 30
0.0
  0
VERTEX
  5
60A
  8
0
  6
CONTINUOUS
 62
     7
 10
199.1261314269652
 20
70.09690218491815
 30
0.0
  0
SEQEND
  5
574
  8
0
  6
CONTINUOUS
 62
     7
  0
POLYLINE
  5
293
  8
0
  6
CONTINUOUS
 62
     7
 66
     1
 10
0.0
 20
0.0
 30
0.0
 70
     1
  0
VERTEX
  5
60B
  8
0
  6
CONTINUOUS
 62
     7
 10
1.0
 20
0.0
 30
0.0
  0
VERTEX
  5
60C
  8
0
  6
CONTINUOUS
 62
     7
 10
0.9807852804032304
 20
0.1950903220161283
 30
0.0
  0
VERTEX
  5
60D
  8
0
  6
CONTINUOUS
 62
     7
 10
0.9238795325112867
 20
0.3826834323650898
 30
0.0
  0
VERTEX
  5
60E
  8
0
  6
CONTINUOUS
 62
     7
 10
0.8314696123025452
 20
0.5555702330196022
 30
0.0
  0
VERTEX
  5
60F
  8
0
  6
CONTINUOUS
 62
     7
 10
0.7071067811865476
 20
0.7071067811865475
 30
0.0
  0
VERTEX
  5
610
  8
0
  6
CONTINUOUS
 62
     7
 10
0.5555702330196023
 20
0.8314696123025452
 30
0.0
  0
VERTEX
  5
611
  8
0
  6
CONTINUOUS
 62
     7
 10
0.3826834323650898
 20
0.9238795325112867
 30
0.0
  0
VERTEX
  5
612
  8
0
  6
CONTINUOUS
 62
     7
 10
0.1950903220161283
 20
0.9807852804032304
 30
0.0
  0
VERTEX
  5
613
  8
0
  6
CONTINUOUS
 62
     7
 10
0.0000000000000001
 20
1.0
 30
0.0
  0
VERTEX
  5
614
  8
0
  6
CONTINUOUS
 62
     7
 10
-0.1950903220161282
 20
0.9807852804032304
 30
0.0
  0
VERTEX
  5
615
  8
0
  6
CONTINUOUS
 62
     7
 10
-0.3826834323650897
 20
0.9238795325112867
 30
0.0
  0
VERTEX
  5
616
  8
0
  6
CONTINUOUS
 62
     7
 10
-0.555570233019602
 20
0.8314696123025455
 30
0.0
  0
VERTEX
  5
617
  8
0
  6
CONTINUOUS
 62
     7
 10
-0.7071067811865475
 20
0.7071067811865476
 30
0.0
  0
VERTEX
  5
618
  8
0
  6
CONTINUOUS
 62
     7
 10
-0.8314696123025454
 20
0.5555702330196022
 30
0.0
  0
VERTEX
  5
619
  8
0
  6
CONTINUOUS
 62
     7
 10
-0.9238795325112869
 20
0.3826834323650895
 30
0.0
  0
VERTEX
  5
61A
  8
0
  6
CONTINUOUS
 62
     7
 10
-0.9807852804032305
 20
0.1950903220161277
 30
0.0
  0
VERTEX
  5
61B
  8
0
  6
CONTINUOUS
 62
     7
 10
-1.0
 20
-0.0000000000000008
 30
0.0
  0
VERTEX
  5
61C
  8
0
  6
CONTINUOUS
 62
     7
 10
-0.9807852804032302
 20
-0.1950903220161292
 30
0.0
  0
VERTEX
  5
61D
  8
0
  6
CONTINUOUS
 62
     7
 10
-0.9238795325112863
 20
-0.3826834323650909
 30
0.0
  0
VERTEX
  5
61E
  8
0
  6
CONTINUOUS
 62
     7
 10
-0.8314696123025445
 20
-0.5555702330196034
 30
0.0
  0
VERTEX
  5
61F
  8
0
  6
CONTINUOUS
 62
     7
 10
-0.7071067811865464
 20
-0.7071067811865487
 30
0.0
  0
VERTEX
  5
620
  8
0
  6
CONTINUOUS
 62
     7
 10
-0.5555702330196007
 20
-0.8314696123025462
 30
0.0
  0
VERTEX
  5
621
  8
0
  6
CONTINUOUS
 62
     7
 10
-0.3826834323650879
 20
-0.9238795325112875
 30
0.0
  0
VERTEX
  5
622
  8
0
  6
CONTINUOUS
 62
     7
 10
-0.1950903220161261
 20
-0.9807852804032309
 30
0.0
  0
VERTEX
  5
623
  8
0
  6
CONTINUOUS
 62
     7
 10
0.0000000000000025
 20
-1.0
 30
0.0
  0
VERTEX
  5
624
  8
0
  6
CONTINUOUS
 62
     7
 10
0.1950903220161309
 20
-0.9807852804032299
 30
0.0
  0
VERTEX
  5
625
  8
0
  6
CONTINUOUS
 62
     7
 10
0.3826834323650925
 20
-0.9238795325112856
 30
0.0
  0
VERTEX
  5
626
  8
0
  6
CONTINUOUS
 62
     7
 10
0.5555702330196048
 20
-0.8314696123025435
 30
0.0
  0
VERTEX
  5
627
  8
0
  6
CONTINUOUS
 62
     7
 10
0.7071067811865499
 20
-0.7071067811865451
 30
0.0
  0
VERTEX
  5
628
  8
0
  6
CONTINUOUS
 62
     7
 10
0.8314696123025472
 20
-0.5555702330195993
 30
0.0
  0
VERTEX
  5
629
  8
0
  6
CONTINUOUS
 62
     7
 10
0.9238795325112882
 20
-0.3826834323650863
 30
0.0
  0
VERTEX
  5
62A
  8
0
  6
CONTINUOUS
 62
     7
 10
0.9807852804032312
 20
-0.1950903220161244
 30
0.0
  0
SEQEND
  5
62B
  8
0
  6
CONTINUOUS
 62
     7
  0
POLYLINE
  5
294
  8
0
  6
CONTINUOUS
 62
     7
 66
     1
 10
0.0
 20
0.0
 30
0.0
 70
     1
  0
VERTEX
  5
62D
  8
0
  6
CONTINUOUS
 62
     7
 10
199.1281927815867
 20
19.15971757286057
 30
0.0
  0
VERTEX
  5
62E
  8
0
  6
CONTINUOUS
 62
     7
 10
199.1261314269652
 20
19.22253105345437
 30
0.0
  0
VERTEX
  5
62F
  8
0
  6
CONTINUOUS
 62
     7
 10
199.1199509794171
 20
19.28523433785905
 30
0.0
  0
VERTEX
  5
630
  8
0
  6
CONTINUOUS
 62
     7
 10
199.1096622815476
 20
19.34771742320703
 30
0.0
  0
VERTEX
  5
631
  8
0
  6
CONTINUOUS
 62
     7
 10
199.0952833832289
 20
19.40987069293472
 30
0.0
  0
VERTEX
  5
632
  8
0
  6
CONTINUOUS
 62
     7
 10
199.0768395099346
 20
19.47158510908721
 30
0.0
  0
VERTEX
  5
633
  8
0
  6
CONTINUOUS
 62
     7
 10
199.0543630184858
 20
19.53275240360786
 30
0.0
  0
VERTEX
  5
634
  8
0
  6
CONTINUOUS
 62
     7
 10
199.0278933402859
 20
19.59326526827728
 30
0.0
  0
VERTEX
  5
635
  8
0
  6
CONTINUOUS
 62
     7
 10
198.997476912145
 20
19.65301754296845
 30
0.0
  0
VERTEX
  5
636
  8
0
  6
CONTINUOUS
 62
     7
 10
198.9631670948137
 20
19.71190440188759
 30
0.0
  0
VERTEX
  5
637
  8
0
  6
CONTINUOUS
 62
     7
 10
198.9250240793701
 20
19.76982253747427
 30
0.0
  0
VERTEX
  5
638
  8
0
  6
CONTINUOUS
 62
     7
 10
198.8831147816244
 20
19.82667034163796
 30
0.0
  0
VERTEX
  5
639
  8
0
  6
CONTINUOUS
 62
     7
 10
198.8375127247256
 20
19.88234808401315
 30
0.0
  0
VERTEX
  5
63A
  8
0
  6
CONTINUOUS
 62
     7
 10
198.7882979101773
 20
19.93675808692027
 30
0.0
  0
VERTEX
  5
63B
  8
0
  6
CONTINUOUS
 62
     7
 10
198.7355566774876
 20
19.98980489672559
 30
0.0
  0
VERTEX
  5
63C
  8
0
  6
CONTINUOUS
 62
     7
 10
198.6793815527
 20
20.04139545129928
 30
0.0
  0
VERTEX
  5
63D
  8
0
  6
CONTINUOUS
 62
     7
 10
198.619871086072
 20
20.09143924327804
 30
0.0
  0
VERTEX
  5
63E
  8
0
  6
CONTINUOUS
 62
     7
 10
198.5571296791838
 20
20.13984847884573
 30
0.0
  0
VERTEX
  5
63F
  8
0
  6
CONTINUOUS
 62
     7
 10
198.4912674017828
 20
20.18653823175361
 30
0.0
  0
VERTEX
  5
640
  8
0
  6
CONTINUOUS
 62
     7
 10
198.4223997986836
 20
20.23142659230978
 30
0.0
  0
VERTEX
  5
641
  8
0
  6
CONTINUOUS
 62
     7
 10
198.3506476870635
 20
20.27443481107666
 30
0.0
  0
VERTEX
  5
642
  8
0
  6
CONTINUOUS
 62
     7
 10
198.2761369445077
 20
20.31548743702426
 30
0.0
  0
VERTEX
  5
643
  8
0
  6
CONTINUOUS
 62
     7
 10
198.1989982881778
 20
20.35451244989687
 30
0.0
  0
VERTEX
  5
644
  8
0
  6
CONTINUOUS
 62
     7
 10
198.1193670454886
 20
20.39144138656113
 30
0.0
  0
VERTEX
  5
645
  8
0
  6
CONTINUOUS
 62
     7
 10
198.0373829166989
 20
20.42620946111359
 30
0.0
  0
VERTEX
  5
646
  8
0
  6
CONTINUOUS
 62
     7
 10
197.9531897298288
 20
20.45875567853723
 30
0.0
  0
VERTEX
  5
647
  8
0
  6
CONTINUOUS
 62
     7
 10
197.8669351883373
 20
20.48902294170739
 30
0.0
  0
VERTEX
  5
648
  8
0
  6
CONTINUOUS
 62
     7
 10
197.7787706119995
 20
20.5169581515596
 30
0.0
  0
VERTEX
  5
649
  8
0
  6
CONTINUOUS
 62
     7
 10
197.6888506714409
 20
20.54251230024332
 30
0.0
  0
VERTEX
  5
64A
  8
0
  6
CONTINUOUS
 62
     7
 10
197.5973331167922
 20
20.56564055709841
 30
0.0
  0
VERTEX
  5
64B
  8
0
  6
CONTINUOUS
 62
     7
 10
197.5043785009422
 20
20.5863023473033
 30
0.0
  0
VERTEX
  5
64C
  8
0
  6
CONTINUOUS
 62
     7
 10
197.4101498978732
 20
20.60446142305706
 30
0.0
  0
VERTEX
  5
64D
  8
0
  6
CONTINUOUS
 62
     7
 10
197.3148126165742
 20
20.62008592717031
 30
0.0
  0
VERTEX
  5
64E
  8
0
  6
CONTINUOUS
 62
     7
 10
197.2185339110323
 20
20.63314844895361
 30
0.0
  0
VERTEX
  5
64F
  8
0
  6
CONTINUOUS
 62
     7
 10
197.1214826868127
 20
20.64362607230505
 30
0.0
  0
VERTEX
  5
650
  8
0
  6
CONTINUOUS
 62
     7
 10
197.0238292047411
 20
20.65150041591298
 30
0.0
  0
VERTEX
  5
651
  8
0
  6
CONTINUOUS
 62
     7
 10
196.9257447822078
 20
20.65675766550298
 30
0.0
  0
VERTEX
  5
652
  8
0
  6
CONTINUOUS
 62
     7
 10
196.8274014926193
 20
20.65938859807284
 30
0.0
  0
VERTEX
  5
653
  8
0
  6
CONTINUOUS
 62
     7
 10
196.7289718635228
 20
20.65938859807284
 30
0.0
  0
VERTEX
  5
654
  8
0
  6
CONTINUOUS
 62
     7
 10
196.6306285739342
 20
20.65675766550298
 30
0.0
  0
VERTEX
  5
655
  8
0
  6
CONTINUOUS
 62
     7
 10
196.5325441514009
 20
20.65150041591298
 30
0.0
  0
VERTEX
  5
656
  8
0
  6
CONTINUOUS
 62
     7
 10
196.4348906693293
 20
20.64362607230505
 30
0.0
  0
VERTEX
  5
657
  8
0
  6
CONTINUOUS
 62
     7
 10
196.3378394451098
 20
20.63314844895361
 30
0.0
  0
VERTEX
  5
658
  8
0
  6
CONTINUOUS
 62
     7
 10
196.2415607395679
 20
20.62008592717031
 30
0.0
  0
VERTEX
  5
659
  8
0
  6
CONTINUOUS
 62
     7
 10
196.1462234582688
 20
20.60446142305706
 30
0.0
  0
VERTEX
  5
65A
  8
0
  6
CONTINUOUS
 62
     7
 10
196.0519948551998
 20
20.5863023473033
 30
0.0
  0
VERTEX
  5
65B
  8
0
  6
CONTINUOUS
 62
     7
 10
195.9590402393498
 20
20.56564055709841
 30
0.0
  0
VERTEX
  5
65C
  8
0
  6
CONTINUOUS
 62
     7
 10
195.8675226847011
 20
20.54251230024332
 30
0.0
  0
VERTEX
  5
65D
  8
0
  6
CONTINUOUS
 62
     7
 10
195.7776027441425
 20
20.5169581515596
 30
0.0
  0
VERTEX
  5
65E
  8
0
  6
CONTINUOUS
 62
     7
 10
195.6894381678048
 20
20.48902294170739
 30
0.0
  0
VERTEX
  5
65F
  8
0
  6
CONTINUOUS
 62
     7
 10
195.6031836263132
 20
20.45875567853723
 30
0.0
  0
VERTEX
  5
660
  8
0
  6
CONTINUOUS
 62
     7
 10
195.5189904394432
 20
20.42620946111359
 30
0.0
  0
VERTEX
  5
661
  8
0
  6
CONTINUOUS
 62
     7
 10
195.4370063106534
 20
20.39144138656113
 30
0.0
  0
VERTEX
  5
662
  8
0
  6
CONTINUOUS
 62
     7
 10
195.3573750679643
 20
20.35451244989687
 30
0.0
  0
VERTEX
  5
663
  8
0
  6
CONTINUOUS
 62
     7
 10
195.2802364116343
 20
20.31548743702426
 30
0.0
  0
VERTEX
  5
664
  8
0
  6
CONTINUOUS
 62
     7
 10
195.2057256690786
 20
20.27443481107666
 30
0.0
  0
VERTEX
  5
665
  8
0
  6
CONTINUOUS
 62
     7
 10
195.1339735574585
 20
20.23142659230978
 30
0.0
  0
VERTEX
  5
666
  8
0
  6
CONTINUOUS
 62
     7
 10
195.0651059543593
 20
20.18653823175361
 30
0.0
  0
VERTEX
  5
667
  8
0
  6
CONTINUOUS
 62
     7
 10
194.9992436769582
 20
20.13984847884573
 30
0.0
  0
VERTEX
  5
668
  8
0
  6
CONTINUOUS
 62
     7
 10
194.93650227007
 20
20.09143924327804
 30
0.0
  0
VERTEX
  5
669
  8
0
  6
CONTINUOUS
 62
     7
 10
194.876991803442
 20
20.04139545129928
 30
0.0
  0
VERTEX
  5
66A
  8
0
  6
CONTINUOUS
 62
     7
 10
194.8208166786545
 20
19.98980489672559
 30
0.0
  0
VERTEX
  5
66B
  8
0
  6
CONTINUOUS
 62
     7
 10
194.7680754459647
 20
19.93675808692026
 30
0.0
  0
VERTEX
  5
66C
  8
0
  6
CONTINUOUS
 62
     7
 10
194.7188606314164
 20
19.88234808401314
 30
0.0
  0
VERTEX
  5
66D
  8
0
  6
CONTINUOUS
 62
     7
 10
194.6732585745177
 20
19.82667034163796
 30
0.0
  0
VERTEX
  5
66E
  8
0
  6
CONTINUOUS
 62
     7
 10
194.6313492767719
 20
19.76982253747427
 30
0.0
  0
VERTEX
  5
66F
  8
0
  6
CONTINUOUS
 62
     7
 10
194.5932062613283
 20
19.71190440188759
 30
0.0
  0
VERTEX
  5
670
  8
0
  6
CONTINUOUS
 62
     7
 10
194.558896443997
 20
19.65301754296845
 30
0.0
  0
VERTEX
  5
671
  8
0
  6
CONTINUOUS
 62
     7
 10
194.5284800158562
 20
19.59326526827728
 30
0.0
  0
VERTEX
  5
672
  8
0
  6
CONTINUOUS
 62
     7
 10
194.5020103376563
 20
19.53275240360785
 30
0.0
  0
VERTEX
  5
673
  8
0
  6
CONTINUOUS
 62
     7
 10
194.4795338462074
 20
19.47158510908721
 30
0.0
  0
VERTEX
  5
674
  8
0
  6
CONTINUOUS
 62
     7
 10
194.4610899729131
 20
19.40987069293472
 30
0.0
  0
VERTEX
  5
675
  8
0
  6
CONTINUOUS
 62
     7
 10
194.4467110745944
 20
19.34771742320703
 30
0.0
  0
VERTEX
  5
676
  8
0
  6
CONTINUOUS
 62
     7
 10
194.436422376725
 20
19.28523433785904
 30
0.0
  0
VERTEX
  5
677
  8
0
  6
CONTINUOUS
 62
     7
 10
194.4302419291769
 20
19.22253105345437
 30
0.0
  0
VERTEX
  5
678
  8
0
  6
CONTINUOUS
 62
     7
 10
194.4281805745554
 20
19.15971757286057
 30
0.0
  0
VERTEX
  5
679
  8
0
  6
CONTINUOUS
 62
     7
 10
194.4302419291769
 20
19.09690409226677
 30
0.0
  0
VERTEX
  5
67A
  8
0
  6
CONTINUOUS
 62
     7
 10
194.436422376725
 20
19.0342008078621
 30
0.0
  0
VERTEX
  5
67B
  8
0
  6
CONTINUOUS
 62
     7
 10
194.4467110745944
 20
18.97171772251411
 30
0.0
  0
VERTEX
  5
67C
  8
0
  6
CONTINUOUS
 62
     7
 10
194.4610899729131
 20
18.90956445278642
 30
0.0
  0
VERTEX
  5
67D
  8
0
  6
CONTINUOUS
 62
     7
 10
194.4795338462074
 20
18.84785003663393
 30
0.0
  0
VERTEX
  5
67E
  8
0
  6
CONTINUOUS
 62
     7
 10
194.5020103376563
 20
18.78668274211329
 30
0.0
  0
VERTEX
  5
67F
  8
0
  6
CONTINUOUS
 62
     7
 10
194.5284800158562
 20
18.72616987744386
 30
0.0
  0
VERTEX
  5
680
  8
0
  6
CONTINUOUS
 62
     7
 10
194.558896443997
 20
18.6664176027527
 30
0.0
  0
VERTEX
  5
681
  8
0
  6
CONTINUOUS
 62
     7
 10
194.5932062613283
 20
18.60753074383355
 30
0.0
  0
VERTEX
  5
682
  8
0
  6
CONTINUOUS
 62
     7
 10
194.6313492767719
 20
18.54961260824687
 30
0.0
  0
VERTEX
  5
683
  8
0
  6
CONTINUOUS
 62
     7
 10
194.6732585745177
 20
18.49276480408318
 30
0.0
  0
VERTEX
  5
684
  8
0
  6
CONTINUOUS
 62
     7
 10
194.7188606314164
 20
18.437087061708
 30
0.0
  0
VERTEX
  5
685
  8
0
  6
CONTINUOUS
 62
     7
 10
194.7680754459647
 20
18.38267705880087
 30
0.0
  0
VERTEX
  5
686
  8
0
  6
CONTINUOUS
 62
     7
 10
194.8208166786545
 20
18.32963024899555
 30
0.0
  0
VERTEX
  5
687
  8
0
  6
CONTINUOUS
 62
     7
 10
194.876991803442
 20
18.27803969442186
 30
0.0
  0
VERTEX
  5
688
  8
0
  6
CONTINUOUS
 62
     7
 10
194.93650227007
 20
18.2279959024431
 30
0.0
  0
VERTEX
  5
689
  8
0
  6
CONTINUOUS
 62
     7
 10
194.9992436769583
 20
18.17958666687541
 30
0.0
  0
VERTEX
  5
68A
  8
0
  6
CONTINUOUS
 62
     7
 10
195.0651059543593
 20
18.13289691396754
 30
0.0
  0
VERTEX
  5
68B
  8
0
  6
CONTINUOUS
 62
     7
 10
195.1339735574585
 20
18.08800855341136
 30
0.0
  0
VERTEX
  5
68C
  8
0
  6
CONTINUOUS
 62
     7
 10
195.2057256690786
 20
18.04500033464448
 30
0.0
  0
VERTEX
  5
68D
  8
0
  6
CONTINUOUS
 62
     7
 10
195.2802364116343
 20
18.00394770869688
 30
0.0
  0
VERTEX
  5
68E
  8
0
  6
CONTINUOUS
 62
     7
 10
195.3573750679643
 20
17.96492269582427
 30
0.0
  0
VERTEX
  5
68F
  8
0
  6
CONTINUOUS
 62
     7
 10
195.4370063106534
 20
17.92799375916001
 30
0.0
  0
VERTEX
  5
690
  8
0
  6
CONTINUOUS
 62
     7
 10
195.5189904394432
 20
17.89322568460755
 30
0.0
  0
VERTEX
  5
691
  8
0
  6
CONTINUOUS
 62
     7
 10
195.6031836263132
 20
17.86067946718391
 30
0.0
  0
VERTEX
  5
692
  8
0
  6
CONTINUOUS
 62
     7
 10
195.6894381678048
 20
17.83041220401375
 30
0.0
  0
VERTEX
  5
693
  8
0
  6
CONTINUOUS
 62
     7
 10
195.7776027441425
 20
17.80247699416154
 30
0.0
  0
VERTEX
  5
694
  8
0
  6
CONTINUOUS
 62
     7
 10
195.8675226847012
 20
17.77692284547782
 30
0.0
  0
VERTEX
  5
695
  8
0
  6
CONTINUOUS
 62
     7
 10
195.9590402393498
 20
17.75379458862273
 30
0.0
  0
VERTEX
  5
696
  8
0
  6
CONTINUOUS
 62
     7
 10
196.0519948551998
 20
17.73313279841784
 30
0.0
  0
VERTEX
  5
697
  8
0
  6
CONTINUOUS
 62
     7
 10
196.1462234582688
 20
17.71497372266408
 30
0.0
  0
VERTEX
  5
698
  8
0
  6
CONTINUOUS
 62
     7
 10
196.2415607395679
 20
17.69934921855083
 30
0.0
  0
VERTEX
  5
699
  8
0
  6
CONTINUOUS
 62
     7
 10
196.3378394451098
 20
17.68628669676754
 30
0.0
  0
VERTEX
  5
69A
  8
0
  6
CONTINUOUS
 62
     7
 10
196.4348906693293
 20
17.67580907341609
 30
0.0
  0
VERTEX
  5
69B
  8
0
  6
CONTINUOUS
 62
     7
 10
196.5325441514009
 20
17.66793472980816
 30
0.0
  0
VERTEX
  5
69C
  8
0
  6
CONTINUOUS
 62
     7
 10
196.6306285739342
 20
17.66267748021816
 30
0.0
  0
VERTEX
  5
69D
  8
0
  6
CONTINUOUS
 62
     7
 10
196.7289718635228
 20
17.6600465476483
 30
0.0
  0
VERTEX
  5
69E
  8
0
  6
CONTINUOUS
 62
     7
 10
196.8274014926193
 20
17.6600465476483
 30
0.0
  0
VERTEX
  5
69F
  8
0
  6
CONTINUOUS
 62
     7
 10
196.9257447822078
 20
17.66267748021816
 30
0.0
  0
VERTEX
  5
6A0
  8
0
  6
CONTINUOUS
 62
     7
 10
197.0238292047411
 20
17.66793472980816
 30
0.0
  0
VERTEX
  5
6A1
  8
0
  6
CONTINUOUS
 62
     7
 10
197.1214826868128
 20
17.67580907341609
 30
0.0
  0
VERTEX
  5
6A2
  8
0
  6
CONTINUOUS
 62
     7
 10
197.2185339110323
 20
17.68628669676754
 30
0.0
  0
VERTEX
  5
6A3
  8
0
  6
CONTINUOUS
 62
     7
 10
197.3148126165742
 20
17.69934921855083
 30
0.0
  0
VERTEX
  5
6A4
  8
0
  6
CONTINUOUS
 62
     7
 10
197.4101498978732
 20
17.71497372266409
 30
0.0
  0
VERTEX
  5
6A5
  8
0
  6
CONTINUOUS
 62
     7
 10
197.5043785009422
 20
17.73313279841785
 30
0.0
  0
VERTEX
  5
6A6
  8
0
  6
CONTINUOUS
 62
     7
 10
197.5973331167922
 20
17.75379458862274
 30
0.0
  0
VERTEX
  5
6A7
  8
0
  6
CONTINUOUS
 62
     7
 10
197.6888506714409
 20
17.77692284547782
 30
0.0
  0
VERTEX
  5
6A8
  8
0
  6
CONTINUOUS
 62
     7
 10
197.7787706119995
 20
17.80247699416155
 30
0.0
  0
VERTEX
  5
6A9
  8
0
  6
CONTINUOUS
 62
     7
 10
197.8669351883373
 20
17.83041220401375
 30
0.0
  0
VERTEX
  5
6AA
  8
0
  6
CONTINUOUS
 62
     7
 10
197.9531897298288
 20
17.86067946718392
 30
0.0
  0
VERTEX
  5
6AB
  8
0
  6
CONTINUOUS
 62
     7
 10
198.0373829166989
 20
17.89322568460755
 30
0.0
  0
VERTEX
  5
6AC
  8
0
  6
CONTINUOUS
 62
     7
 10
198.1193670454886
 20
17.92799375916002
 30
0.0
  0
VERTEX
  5
6AD
  8
0
  6
CONTINUOUS
 62
     7
 10
198.1989982881778
 20
17.96492269582428
 30
0.0
  0
VERTEX
  5
6AE
  8
0
  6
CONTINUOUS
 62
     7
 10
198.2761369445077
 20
18.00394770869689
 30
0.0
  0
VERTEX
  5
6AF
  8
0
  6
CONTINUOUS
 62
     7
 10
198.3506476870635
 20
18.04500033464448
 30
0.0
  0
VERTEX
  5
6B0
  8
0
  6
CONTINUOUS
 62
     7
 10
198.4223997986836
 20
18.08800855341137
 30
0.0
  0
VERTEX
  5
6B1
  8
0
  6
CONTINUOUS
 62
     7
 10
198.4912674017828
 20
18.13289691396755
 30
0.0
  0
VERTEX
  5
6B2
  8
0
  6
CONTINUOUS
 62
     7
 10
198.5571296791838
 20
18.17958666687542
 30
0.0
  0
VERTEX
  5
6B3
  8
0
  6
CONTINUOUS
 62
     7
 10
198.619871086072
 20
18.22799590244311
 30
0.0
  0
VERTEX
  5
6B4
  8
0
  6
CONTINUOUS
 62
     7
 10
198.6793815527
 20
18.27803969442187
 30
0.0
  0
VERTEX
  5
6B5
  8
0
  6
CONTINUOUS
 62
     7
 10
198.7355566774876
 20
18.32963024899556
 30
0.0
  0
VERTEX
  5
6B6
  8
0
  6
CONTINUOUS
 62
     7
 10
198.7882979101773
 20
18.38267705880088
 30
0.0
  0
VERTEX
  5
6B7
  8
0
  6
CONTINUOUS
 62
     7
 10
198.8375127247256
 20
18.43708706170801
 30
0.0
  0
VERTEX
  5
6B8
  8
0
  6
CONTINUOUS
 62
     7
 10
198.8831147816244
 20
18.49276480408319
 30
0.0
  0
VERTEX
  5
6B9
  8
0
  6
CONTINUOUS
 62
     7
 10
198.9250240793701
 20
18.54961260824688
 30
0.0
  0
VERTEX
  5
6BA
  8
0
  6
CONTINUOUS
 62
     7
 10
198.9631670948137
 20
18.60753074383356
 30
0.0
  0
VERTEX
  5
6BB
  8
0
  6
CONTINUOUS
 62
     7
 10
198.997476912145
 20
18.66641760275271
 30
0.0
  0
VERTEX
  5
6BC
  8
0
  6
CONTINUOUS
 62
     7
 10
199.0278933402859
 20
18.72616987744387
 30
0.0
  0
VERTEX
  5
6BD
  8
0
  6
CONTINUOUS
 62
     7
 10
199.0543630184858
 20
18.7866827421133
 30
0.0
  0
VERTEX
  5
6BE
  8
0
  6
CONTINUOUS
 62
     7
 10
199.0768395099346
 20
18.84785003663394
 30
0.0
  0
VERTEX
  5
6BF
  8
0
  6
CONTINUOUS
 62
     7
 10
199.0952833832289
 20
18.90956445278643
 30
0.0
  0
VERTEX
  5
6C0
  8
0
  6
CONTINUOUS
 62
     7
 10
199.1096622815476
 20
18.97171772251413
 30
0.0
  0
VERTEX
  5
6C1
  8
0
  6
CONTINUOUS
 62
     7
 10
199.1199509794171
 20
19.03420080786211
 30
0.0
  0
VERTEX
  5
6C2
  8
0
  6
CONTINUOUS
 62
     7
 10
199.1261314269652
 20
19.09690409226678
 30
0.0
  0
SEQEND
  5
62C
  8
0
  6
CONTINUOUS
 62
     7
  0
LINE
  5
295
  8
0
  6
DASHED2
 62
     7
 10
-124.6162926928087
 20
27.36488719538998
 30
0.0
 11
-133.3005771411427
 21
32.37876124934506
 31
0.0
  0
LINE
  5
296
  8
0
  6
DASHED2
 62
     7
 10
-127.1162946001573
 20
23.03475695056123
 30
0.0
 11
-135.8005790484913
 21
28.04863100451631
 31
0.0
  0
LINE
  5
297
  8
0
  6
DASHED2
 62
     7
 10
-124.3968993791973
 20
27.81556626362008
 30
0.0
 11
-133.0918281062518
 21
32.83558579487008
 31
0.0
  0
LINE
  5
298
  8
0
  6
DASHED2
 62
     7
 10
-127.3968993791973
 20
22.6194139341752
 30
0.0
 11
-136.0918281062518
 21
27.6394334654252
 31
0.0
  0
LINE
  5
299
  8
0
  6
DASHED2
 62
     7
 10
-157.0718041666555
 20
83.57950021141038
 30
0.0
 11
-157.0718041666555
 21
73.55175973289475
 31
0.0
  0
LINE
  5
29A
  8
0
  6
DASHED2
 62
     7
 10
-156.5718194254446
 20
83.54416085594163
 30
0.0
 11
-156.5718194254446
 21
73.50412942283616
 31
0.0
  0
LINE
  5
29B
  8
0
  6
DASHED2
 62
     7
 10
-162.5718194254446
 20
83.54416085594163
 30
0.0
 11
-162.5718194254446
 21
73.50412942283616
 31
0.0
  0
LINE
  5
29C
  8
0
  6
DASHED2
 62
     7
 10
-162.0718194254446
 20
83.57950021141038
 30
0.0
 11
-162.0718194254446
 21
73.55175973289475
 31
0.0
  0
LINE
  5
29D
  8
0
  6
DASHED2
 62
     7
 10
-194.5273165014619
 20
27.36488184870437
 30
0.0
 11
-185.843051874876
 21
32.37874445856765
 31
0.0
  0
LINE
  5
29E
  8
0
  6
DASHED2
 62
     7
 10
-194.7467155371192
 20
27.81557082780851
 30
0.0
 11
-186.0518132390621
 21
32.83557510026945
 31
0.0
  0
LINE
  5
29F
  8
0
  6
DASHED2
 62
     7
 10
-191.7467155371192
 20
22.61941849836363
 30
0.0
 11
-183.0518132390621
 21
27.63942277082457
 31
0.0
  0
LINE
  5
2A0
  8
0
  6
DASHED2
 62
     7
 10
-192.0273203161592
 20
23.03476151474966
 30
0.0
 11
-183.3430556895733
 21
28.04862412461294
 31
0.0
  0
LINE
  5
2A1
  8
0
  6
DASHED2
 62
     7
 10
-154.5718194254446
 20
4.605003846816871
 30
0.0
 11
-154.5718194254446
 21
-1.067737566299584
 31
0.0
  0
LINE
  5
2A2
  8
0
  6
DASHED2
 62
     7
 10
-153.5718194254446
 20
4.579532636337135
 30
0.0
 11
-153.5718194254446
 21
-0.9473008979035882
 31
0.0
  0
LINE
  5
2A3
  8
0
  6
DASHED2
 62
     7
 10
-165.5718194254446
 20
4.630475057296607
 30
0.0
 11
-165.5718194254446
 21
-0.9473008979035882
 31
0.0
  0
LINE
  5
2A4
  8
0
  6
DASHED2
 62
     7
 10
-164.5718194254446
 20
4.579532636337135
 30
0.0
 11
-164.5718194254446
 21
-1.067737566299584
 31
0.0
  0
ARC
  5
2A5
  8
0
  6
DASHED2
 62
     7
 10
-159.5718194254446
 20
44.65971566551194
 30
0.0
 40
46.0
 50
250.9685564676842
 51
289.0314385233594
  0
LINE
  5
2A6
  8
0
  6
DASHED2
 62
     7
 10
87.4281805745554
 20
6.659715665511939
 30
0.0
 11
87.4281805745554
 21
-1.340284334488061
 31
0.0
  0
LINE
  5
2A7
  8
0
  6
DASHED2
 62
     7
 10
88.4281805745554
 20
6.659715665511939
 30
0.0
 11
88.4281805745554
 21
-1.340284334488061
 31
0.0
  0
LINE
  5
2A8
  8
0
  6
DASHED2
 62
     7
 10
76.4281805745554
 20
6.659715665511939
 30
0.0
 11
76.4281805745554
 21
-1.340284334488061
 31
0.0
  0
LINE
  5
2A9
  8
0
  6
DASHED2
 62
     7
 10
77.4281805745554
 20
6.659715665511939
 30
0.0
 11
77.4281805745554
 21
-1.340284334488061
 31
0.0
  0
LINE
  5
2AA
  8
0
  6
CONTINUOUS
 62
     4
 10
-191.0820420054047
 20
-1.699718935125603
 30
0.0
 11
-205.9312841561882
 21
13.14952321565794
 31
0.0
  0
LINE
  5
2AB
  8
0
  6
CONTINUOUS
 62
     4
 10
-191.0820420054047
 20
-1.699718935125603
 30
0.0
 11
-208.052604463443
 21
-18.67028139316393
 31
0.0
  0
LINE
  5
2AC
  8
0
  6
CONTINUOUS
 62
     4
 10
-205.9312625770022
 20
13.14950163647187
 30
0.0
 11
-222.9018250350405
 21
-3.821060821566462
 31
0.0
  0
LINE
  5
2AD
  8
0
  6
CONTINUOUS
 62
     4
 10
-219.8526752540015
 20
-8.196488957547118
 30
0.0
 11
-212.4280541786098
 21
-15.62111003293889
 31
0.0
  0
LINE
  5
2AE
  8
0
  6
CONTINUOUS
 62
     4
 10
-199.1698022582673
 20
5.061762962795328
 30
0.0
 11
-215.4772255388348
 21
-11.24566031777216
 31
0.0
  0
LINE
  5
2AF
  8
0
  6
CONTINUOUS
 62
     4
 10
-210.0401875772577
 20
20.26637091110329
 30
0.0
 11
-233.222421821426
 21
14.05470991456637
 31
0.0
  0
LINE
  5
2B0
  8
0
  6
CONTINUOUS
 62
     4
 10
-215.4753874936205
 20
40.5508129782496
 30
0.0
 11
-238.6576217377888
 21
34.33915198171268
 31
0.0
  0
LINE
  5
2B1
  8
0
  6
CONTINUOUS
 62
     4
 10
-238.2046719852888
 20
29.0253196262132
 30
0.0
 11
-235.4870720271074
 21
18.88309859264005
 31
0.0
  0
LINE
  5
2B2
  8
0
  6
CONTINUOUS
 62
     4
 10
-213.6636672397463
 20
30.16586220743317
 30
0.0
 11
-235.9400217796074
 21
24.19693094813952
 31
0.0
  0
LINE
  5
2B3
  8
0
  6
CONTINUOUS
 62
     4
 10
-210.0401875772577
 20
20.26637091110329
 30
0.0
 11
-215.4753874936205
 21
40.5508129782496
 31
0.0
  0
LINE
  5
2B4
  8
0
  6
CONTINUOUS
 62
     4
 10
-212.4623078931604
 20
41.25463919369337
 30
0.0
 11
-215.4495059841834
 21
40.45422187086329
 31
0.0
  0
LINE
  5
2B5
  8
0
  6
CONTINUOUS
 62
     4
 10
-207.0788857345301
 20
21.16337539205448
 30
0.0
 11
-210.0660690866949
 21
20.3629620184896
 31
0.0
  0
LINE
  5
2B6
  8
0
  6
CONTINUOUS
 62
     4
 10
-188.9659762299575
 20
0.5577552466269111
 30
0.0
 11
-191.1527462085574
 21
-1.62901473197293
 31
0.0
  0
LINE
  5
2B7
  8
0
  6
CONTINUOUS
 62
     4
 10
-203.6737883952497
 20
15.26556741191904
 30
0.0
 11
-205.8605583738495
 21
13.0787974333192
 31
0.0
  0
CIRCLE
  5
2B8
  8
0
  6
CONTINUOUS
 62
     4
 10
-159.5718194254446
 20
44.65971566551194
 30
0.0
 40
97.5
  0
ARC
  5
2B9
  8
0
  6
CONTINUOUS
 62
     4
 10
-212.9414025553274
 20
-1.285259233780053
 30
0.0
 40
15.16383075714111
 50
24.74379973073877
 51
65.25620106619211
  0
ARC
  5
2BA
  8
0
  6
CONTINUOUS
 62
     4
 10
-205.5167962320852
 20
-8.709871279068139
 30
0.0
 40
15.16383075714111
 50
24.74379973073877
 51
65.25620106619211
  0
ARC
  5
2BB
  8
0
  6
CONTINUOUS
 62
     4
 10
-209.1302300699759
 20
2.525929464034888
 30
0.0
 40
15.16383075714111
 50
204.7438032595189
 51
245.2561960572358
  0
ARC
  5
2BC
  8
0
  6
CONTINUOUS
 62
     4
 10
-201.7055932291555
 20
-4.898689256973412
 30
0.0
 40
15.16383075714111
 50
204.7438032595189
 51
245.2561960572358
  0
ARC
  5
2BD
  8
0
  6
CONTINUOUS
 62
     4
 10
-223.5575677164602
 20
32.94999696128831
 30
0.0
 40
15.16383075714111
 50
174.7438056124163
 51
215.2561984101332
  0
ARC
  5
2BE
  8
0
  6
CONTINUOUS
 62
     4
 10
-220.8399621256399
 20
22.80776978843674
 30
0.0
 40
15.16383075714111
 50
174.7438056124163
 51
215.2561984101332
  0
ARC
  5
2BF
  8
0
  6
CONTINUOUS
 62
     4
 10
-228.7637292154837
 20
31.55499841087327
 30
0.0
 40
15.16383075714111
 50
354.7437993227995
 51
395.2562002313661
  0
ARC
  5
2C0
  8
0
  6
CONTINUOUS
 62
     4
 10
-226.0461236246634
 20
21.41278077476487
 30
0.0
 40
15.16383075714111
 50
354.7437993227995
 51
395.2562002313661
  0
CIRCLE
  5
2C1
  8
0
  6
CONTINUOUS
 62
     4
 10
-159.5718194254446
 20
44.65971566551194
 30
0.0
 40
16.5
  0
CIRCLE
  5
2C2
  8
0
  6
CONTINUOUS
 62
     4
 10
-159.5718194254446
 20
44.65971566551194
 30
0.0
 40
19.99999809265137
  0
ARC
  5
2C3
  8
0
  6
CONTINUOUS
 62
     4
 10
-159.5718194254446
 20
44.65971566551194
 30
0.0
 40
29.0
 50
245.9763233919977
 51
600.7853418293765
  0
CIRCLE
  5
2C4
  8
0
  6
CONTINUOUS
 62
     4
 10
-147.5718194254446
 20
65.44432259910569
 30
0.0
 40
2.249999761581421
  0
CIRCLE
  5
2C5
  8
0
  6
CONTINUOUS
 62
     4
 10
-171.5718194254446
 20
65.44432259910569
 30
0.0
 40
2.249999761581421
  0
CIRCLE
  5
2C6
  8
0
  6
CONTINUOUS
 62
     4
 10
-183.5718194254446
 20
44.65971566551194
 30
0.0
 40
2.249999761581421
  0
CIRCLE
  5
2C7
  8
0
  6
CONTINUOUS
 62
     4
 10
-171.5718194254446
 20
23.87510873191819
 30
0.0
 40
2.249999761581421
  0
CIRCLE
  5
2C8
  8
0
  6
CONTINUOUS
 62
     4
 10
-147.5718194254446
 20
23.87510682456956
 30
0.0
 40
2.249999761581421
  0
CIRCLE
  5
2C9
  8
0
  6
CONTINUOUS
 62
     4
 10
-135.5718194254446
 20
44.65971566551194
 30
0.0
 40
2.249999761581421
  0
ARC
  5
2CA
  8
0
  6
CONTINUOUS
 62
     4
 10
-159.5718194254446
 20
44.65971566551194
 30
0.0
 40
57.50001525878906
 50
205.5217208248483
 51
214.4782571665128
  0
ARC
  5
2CB
  8
0
  6
CONTINUOUS
 62
     4
 10
-159.5718194254446
 20
44.65971566551194
 30
0.0
 40
57.50001525878906
 50
235.5217148294852
 51
512.2617871668341
  0
ARC
  5
2CC
  8
0
  6
CONTINUOUS
 62
     4
 10
-159.5718194254446
 20
44.65971566551194
 30
0.0
 40
53.0
 50
299.9999505190237
 51
507.5852795855315
  0
CIRCLE
  5
2CD
  8
0
  6
CONTINUOUS
 62
     4
 10
-135.5717889078665
 20
86.22891427391038
 30
0.0
 40
3.0
  0
CIRCLE
  5
2CE
  8
0
  6
CONTINUOUS
 62
     4
 10
-135.5717889078665
 20
86.22891427391038
 30
0.0
 40
2.099999904632568
  0
CIRCLE
  5
2CF
  8
0
  6
CONTINUOUS
 62
     4
 10
-183.5717889078665
 20
86.22896005027756
 30
0.0
 40
2.099999904632568
  0
CIRCLE
  5
2D0
  8
0
  6
CONTINUOUS
 62
     4
 10
-183.5717889078665
 20
86.22896005027756
 30
0.0
 40
3.0
  0
CIRCLE
  5
2D1
  8
0
  6
CONTINUOUS
 62
     4
 10
-207.5718194254446
 20
44.65975762718186
 30
0.0
 40
2.099999904632568
  0
CIRCLE
  5
2D2
  8
0
  6
CONTINUOUS
 62
     4
 10
-207.5718194254446
 20
44.65975762718186
 30
0.0
 40
3.0
  0
CIRCLE
  5
2D3
  8
0
  6
CONTINUOUS
 62
     4
 10
-183.5718499430227
 20
3.090517057113502
 30
0.0
 40
2.099999904632568
  0
CIRCLE
  5
2D4
  8
0
  6
CONTINUOUS
 62
     4
 10
-183.5718499430227
 20
3.090517057113502
 30
0.0
 40
3.0
  0
CIRCLE
  5
2D5
  8
0
  6
CONTINUOUS
 62
     4
 10
-135.5718499430227
 20
3.090473188094947
 30
0.0
 40
2.099999904632568
  0
CIRCLE
  5
2D6
  8
0
  6
CONTINUOUS
 62
     4
 10
-135.5718499430227
 20
3.090473188094947
 30
0.0
 40
3.0
  0
CIRCLE
  5
2D7
  8
0
  6
CONTINUOUS
 62
     4
 10
-111.5718194254446
 20
44.65967370384202
 30
0.0
 40
2.099999904632568
  0
CIRCLE
  5
2D8
  8
0
  6
CONTINUOUS
 62
     4
 10
-111.5718194254446
 20
44.65967370384202
 30
0.0
 40
3.0
  0
ARC
  5
2D9
  8
0
  6
CONTINUOUS
 62
     4
 10
-159.5718194254446
 20
44.65971566551194
 30
0.0
 40
57.50001525878906
 50
161.9184588795599
 51
184.4782458590319
  0
ARC
  5
2DA
  8
0
  6
CONTINUOUS
 62
     4
 10
-159.5718194254446
 20
44.65971566551194
 30
0.0
 40
53.0
 50
158.6883941191692
 51
297.2413905651408
  0
LINE
  5
2DB
  8
0
  6
CONTINUOUS
 62
     4
 10
132.4281805745554
 20
19.12956048362717
 30
0.0
 11
132.4281805745554
 21
-51.84028433448806
 31
0.0
  0
LINE
  5
2DC
  8
0
  6
CONTINUOUS
 62
     4
 10
132.4281805745554
 20
70.18987084739671
 30
0.0
 11
132.4281805745554
 21
141.159715665512
 31
0.0
  0
LINE
  5
2DD
  8
0
  6
CONTINUOUS
 62
     4
 10
89.4281805745554
 20
24.15972138755784
 30
0.0
 11
138.9281805745554
 21
24.15972138755784
 31
0.0
  0
LINE
  5
2DE
  8
0
  6
CONTINUOUS
 62
     4
 10
142.4281805745554
 20
21.65971375816331
 30
0.0
 11
147.1281927815867
 21
21.65971375816331
 31
0.0
  0
LINE
  5
2DF
  8
0
  6
CONTINUOUS
 62
     4
 10
142.4281805745554
 20
67.65971948020921
 30
0.0
 11
147.1281927815867
 21
67.65971948020921
 31
0.0
  0
LINE
  5
2E0
  8
0
  6
CONTINUOUS
 62
     4
 10
34.4281805745554
 20
65.15971185081467
 30
0.0
 11
47.4281805745554
 21
65.15971185081467
 31
0.0
  0
LINE
  5
2E1
  8
0
  6
CONTINUOUS
 62
     4
 10
147.1281927815867
 20
67.65971948020921
 30
0.0
 11
147.1281927815867
 21
64.65971566551194
 31
0.0
  0
LINE
  5
2E2
  8
0
  6
CONTINUOUS
 62
     4
 10
34.4281805745554
 20
24.15972138755784
 30
0.0
 11
47.4281805745554
 21
24.15972138755784
 31
0.0
  0
LINE
  5
2E3
  8
0
  6
CONTINUOUS
 62
     4
 10
142.4281805745554
 20
67.65971948020921
 30
0.0
 11
142.4281805745554
 21
64.65971566551194
 31
0.0
  0
LINE
  5
2E4
  8
0
  6
CONTINUOUS
 62
     4
 10
47.4281805745554
 20
65.15971185081467
 30
0.0
 11
47.4281805745554
 21
64.15971566551194
 31
0.0
  0
LINE
  5
2E5
  8
0
  6
CONTINUOUS
 62
     4
 10
44.4281805745554
 20
5.159719480209205
 30
0.0
 11
44.4281805745554
 21
-8.340284334488061
 31
0.0
  0
LINE
  5
2E6
  8
0
  6
CONTINUOUS
 62
     4
 10
47.4281805745554
 20
16.65972138755784
 30
0.0
 11
47.4281805745554
 21
5.159719480209205
 31
0.0
  0
LINE
  5
2E7
  8
0
  6
CONTINUOUS
 62
     4
 10
119.4281805745554
 20
19.68672181480393
 30
0.0
 11
119.4281805745554
 21
-1.340284334488061
 31
0.0
  0
LINE
  5
2E8
  8
0
  6
CONTINUOUS
 62
     4
 10
55.92817765287336
 20
97.65971332774983
 30
0.0
 11
62.92817968920335
 21
90.65971129141984
 31
0.0
  0
LINE
  5
2E9
  8
0
  6
CONTINUOUS
 62
     4
 10
102.3281726554237
 20
93.65970877111896
 30
0.0
 11
104.0525325936492
 21
94.65526846350177
 31
0.0
  0
LINE
  5
2EA
  8
0
  6
CONTINUOUS
 62
     4
 10
81.42815960373488
 20
117.6597027975036
 30
0.0
 11
79.80380699183704
 21
116.7218823629333
 31
0.0
  0
LINE
  5
2EB
  8
0
  6
CONTINUOUS
 62
     4
 10
102.4281873054428
 20
117.6597300742654
 30
0.0
 11
104.0525399173407
 21
116.7219096396951
 31
0.0
  0
LINE
  5
2EC
  8
0
  6
CONTINUOUS
 62
     4
 10
81.52818758684734
 20
93.65970192101791
 30
0.0
 11
79.80382764862188
 21
94.65526161340073
 31
0.0
  0
LINE
  5
2ED
  8
0
  6
CONTINUOUS
 62
     4
 10
81.5281561604929
 20
93.65971566551194
 30
0.0
 11
81.5281561604929
 21
90.65971566551194
 31
0.0
  0
LINE
  5
2EE
  8
0
  6
CONTINUOUS
 62
     4
 10
102.4281805745554
 20
117.6597156655119
 30
0.0
 11
81.4281805745554
 21
117.6597156655119
 31
0.0
  0
LINE
  5
2EF
  8
0
  6
CONTINUOUS
 62
     4
 10
102.3281744710398
 20
93.65971566551194
 30
0.0
 11
102.3281744710398
 21
90.65971566551194
 31
0.0
  0
LINE
  5
2F0
  8
0
  6
CONTINUOUS
 62
     4
 10
79.80382144369602
 20
116.7218952309416
 30
0.0
 11
79.80382144369602
 21
94.65527535789475
 31
0.0
  0
LINE
  5
2F1
  8
0
  6
CONTINUOUS
 62
     4
 10
104.0525397054148
 20
116.7218952309416
 30
0.0
 11
104.0525397054148
 21
94.65527535789475
 31
0.0
  0
LINE
  5
2F2
  8
0
  6
CONTINUOUS
 62
     4
 10
61.80382144369602
 20
116.7218952309416
 30
0.0
 11
61.80382144369602
 21
94.65527535789475
 31
0.0
  0
LINE
  5
2F3
  8
0
  6
CONTINUOUS
 62
     4
 10
63.52816979827557
 20
93.65971247104004
 30
0.0
 11
61.80381068595628
 21
94.65527168658569
 31
0.0
  0
LINE
  5
2F4
  8
0
  6
CONTINUOUS
 62
     4
 10
63.52818667807102
 20
93.65971566551194
 30
0.0
 11
63.52818667807102
 21
90.65971566551194
 31
0.0
  0
LINE
  5
2F5
  8
0
  6
CONTINUOUS
 62
     4
 10
63.42818527335655
 20
117.6597085284158
 30
0.0
 11
61.8038326614587
 21
116.7218880938454
 31
0.0
  0
LINE
  5
2F6
  8
0
  6
CONTINUOUS
 62
     4
 10
44.4281805745554
 20
97.65971566551194
 30
0.0
 11
44.4281805745554
 21
84.15971566551194
 31
0.0
  0
LINE
  5
2F7
  8
0
  6
CONTINUOUS
 62
     4
 10
44.4281805745554
 20
84.15971566551194
 30
0.0
 11
47.4281805745554
 21
84.15971566551194
 31
0.0
  0
LINE
  5
2F8
  8
0
  6
CONTINUOUS
 62
     4
 10
44.4281805745554
 20
5.159719480209205
 30
0.0
 11
47.4281805745554
 21
5.159719480209205
 31
0.0
  0
LINE
  5
2F9
  8
0
  6
CONTINUOUS
 62
     4
 10
47.4281805745554
 20
83.65971566551194
 30
0.0
 11
54.36276996054173
 21
83.65971566551194
 31
0.0
  0
LINE
  5
2FA
  8
0
  6
CONTINUOUS
 62
     4
 10
47.4281805745554
 20
5.659719480209205
 30
0.0
 11
54.36276614584446
 21
5.659719480209205
 31
0.0
  0
LINE
  5
2FB
  8
0
  6
CONTINUOUS
 62
     4
 10
47.4281805745554
 20
84.15971566551194
 30
0.0
 11
47.4281805745554
 21
72.65970803611741
 31
0.0
  0
LINE
  5
2FC
  8
0
  6
CONTINUOUS
 62
     4
 10
34.4281805745554
 20
73.65971566551194
 30
0.0
 11
47.4281805745554
 21
73.65971566551194
 31
0.0
  0
LINE
  5
2FD
  8
0
  6
CONTINUOUS
 62
     4
 10
35.4281805745554
 20
16.65972138755784
 30
0.0
 11
35.4281805745554
 21
5.659719480209205
 31
0.0
  0
LINE
  5
2FE
  8
0
  6
CONTINUOUS
 62
     4
 10
42.9281805745554
 20
83.65971566551194
 30
0.0
 11
42.9281805745554
 21
73.65971566551194
 31
0.0
  0
LINE
  5
2FF
  8
0
  6
CONTINUOUS
 62
     4
 10
39.42817672559461
 20
83.65973023104321
 30
0.0
 11
41.16022755369538
 21
82.65973020124089
 31
0.0
  0
LINE
  5
300
  8
0
  6
CONTINUOUS
 62
     4
 10
37.9281805745554
 20
83.08236886375413
 30
0.0
 11
37.9281805745554
 21
73.65971566551194
 31
0.0
  0
LINE
  5
301
  8
0
  6
CONTINUOUS
 62
     4
 10
41.9281805745554
 20
83.65971566551194
 30
0.0
 11
46.4281805745554
 21
83.65971566551194
 31
0.0
  0
LINE
  5
302
  8
0
  6
CONTINUOUS
 62
     4
 10
41.9281805745554
 20
82.65971566551194
 30
0.0
 11
41.9281805745554
 21
83.65971566551194
 31
0.0
  0
LINE
  5
303
  8
0
  6
CONTINUOUS
 62
     4
 10
36.92819024992286
 20
83.6597048422958
 30
0.0
 11
38.66021464257378
 21
82.65972007500783
 31
0.0
  0
LINE
  5
304
  8
0
  6
CONTINUOUS
 62
     4
 10
39.42817987802661
 20
5.659726776216402
 30
0.0
 11
41.92817803323484
 21
7.103101410005465
 31
0.0
  0
LINE
  5
305
  8
0
  6
CONTINUOUS
 62
     4
 10
39.4281805745554
 20
82.65971566551194
 30
0.0
 11
39.4281805745554
 21
83.65971566551194
 31
0.0
  0
LINE
  5
306
  8
0
  6
CONTINUOUS
 62
     4
 10
35.4281805745554
 20
83.65971566551194
 30
0.0
 11
36.9281805745554
 21
83.65971566551194
 31
0.0
  0
LINE
  5
307
  8
0
  6
CONTINUOUS
 62
     4
 10
41.9281805745554
 20
5.659719480209205
 30
0.0
 11
46.4281805745554
 21
5.659719480209205
 31
0.0
  0
LINE
  5
308
  8
0
  6
CONTINUOUS
 62
     4
 10
41.9281805745554
 20
7.103090299301002
 30
0.0
 11
41.9281805745554
 21
5.659719480209205
 31
0.0
  0
LINE
  5
309
  8
0
  6
CONTINUOUS
 62
     4
 10
36.92817465437108
 20
5.659723721478358
 30
0.0
 11
39.42817280957931
 21
7.10309835526742
 31
0.0
  0
LINE
  5
30A
  8
0
  6
CONTINUOUS
 62
     4
 10
46.4281805745554
 20
77.65971566551194
 30
0.0
 11
47.4281805745554
 21
77.65971566551194
 31
0.0
  0
LINE
  5
30B
  8
0
  6
CONTINUOUS
 62
     4
 10
39.4281805745554
 20
7.103090299301002
 30
0.0
 11
39.4281805745554
 21
5.659719480209205
 31
0.0
  0
LINE
  5
30C
  8
0
  6
CONTINUOUS
 62
     4
 10
46.4281805745554
 20
11.65971566551194
 30
0.0
 11
46.4281805745554
 21
5.659719480209205
 31
0.0
  0
LINE
  5
30D
  8
0
  6
CONTINUOUS
 62
     4
 10
46.4281805745554
 20
11.65971566551194
 30
0.0
 11
47.4281805745554
 21
11.65971566551194
 31
0.0
  0
LINE
  5
30E
  8
0
  6
CONTINUOUS
 62
     4
 10
35.4281805745554
 20
5.659719480209205
 30
0.0
 11
36.9281805745554
 21
5.659719480209205
 31
0.0
  0
LINE
  5
30F
  8
0
  6
CONTINUOUS
 62
     4
 10
46.4281805745554
 20
83.65971566551194
 30
0.0
 11
46.4281805745554
 21
77.65971566551194
 31
0.0
  0
LINE
  5
310
  8
0
  6
CONTINUOUS
 62
     4
 10
35.4281805745554
 20
83.65971566551194
 30
0.0
 11
35.4281805745554
 21
72.65970803611741
 31
0.0
  0
LINE
  5
311
  8
0
  6
CONTINUOUS
 62
     4
 10
148.4281805745554
 20
19.72511483543381
 30
0.0
 11
148.4281805745554
 21
-52.84028433448806
 31
0.0
  0
LINE
  5
312
  8
0
  6
CONTINUOUS
 62
     4
 10
203.4281805745554
 20
-39.84028433448806
 30
0.0
 11
216.4281805745554
 21
-39.84028433448806
 31
0.0
  0
LINE
  5
313
  8
0
  6
CONTINUOUS
 62
     4
 10
34.4281805745554
 20
25.15971757286057
 30
0.0
 11
34.4281805745554
 21
15.65971375816331
 31
0.0
  0
LINE
  5
314
  8
0
  6
CONTINUOUS
 62
     4
 10
203.4281805745554
 20
-47.84028433448806
 30
0.0
 11
216.4281805745554
 21
-47.84028433448806
 31
0.0
  0
LINE
  5
315
  8
0
  6
CONTINUOUS
 62
     4
 10
47.4281805745554
 20
25.15971757286057
 30
0.0
 11
47.4281805745554
 21
24.15972138755784
 31
0.0
  0
LINE
  5
316
  8
0
  6
CONTINUOUS
 62
     4
 10
142.4281805745554
 20
24.65971566551194
 30
0.0
 11
142.4281805745554
 21
21.65971375816331
 31
0.0
  0
LINE
  5
317
  8
0
  6
CONTINUOUS
 62
     4
 10
147.1281927815867
 20
24.65971566551194
 30
0.0
 11
147.1281927815867
 21
21.65971375816331
 31
0.0
  0
LINE
  5
318
  8
0
  6
CONTINUOUS
 62
     4
 10
89.4281805745554
 20
24.65971566551194
 30
0.0
 11
89.4281805745554
 21
24.15972138755784
 31
0.0
  0
LINE
  5
319
  8
0
  6
CONTINUOUS
 62
     4
 10
189.4281805745554
 20
20.65971757286057
 30
0.0
 11
189.4281805745554
 21
10.27654780261979
 31
0.0
  0
LINE
  5
31A
  8
0
  6
CONTINUOUS
 62
     4
 10
194.4281805745554
 20
20.65971757286057
 30
0.0
 11
194.4281805745554
 21
17.65971757286057
 31
0.0
  0
LINE
  5
31B
  8
0
  6
CONTINUOUS
 62
     4
 10
199.1281927815867
 20
20.65971757286057
 30
0.0
 11
199.1281927815867
 21
17.65971757286057
 31
0.0
  0
LINE
  5
31C
  8
0
  6
CONTINUOUS
 62
     4
 10
-0.5718194254446019
 20
25.15971757286057
 30
0.0
 11
50.4281805745554
 21
25.15971757286057
 31
0.0
  0
LINE
  5
31D
  8
0
  6
CONTINUOUS
 62
     4
 10
53.83007795097589
 20
26.15971466995107
 30
0.0
 11
56.42818054469578
 21
24.65969941116201
 31
0.0
  0
LINE
  5
31E
  8
0
  6
CONTINUOUS
 62
     4
 10
51.42817557311886
 20
26.15971564865002
 30
0.0
 11
50.42817990632588
 21
25.15971998185704
 31
0.0
  0
LINE
  5
31F
  8
0
  6
CONTINUOUS
 62
     4
 10
208.4281805745554
 20
63.65971948020921
 30
0.0
 11
230.4281805745554
 21
63.65971948020921
 31
0.0
  0
LINE
  5
320
  8
0
  6
CONTINUOUS
 62
     4
 10
51.4281577871491
 20
63.15971337066963
 30
0.0
 11
50.42816620860035
 21
64.15970494921838
 31
0.0
  0
LINE
  5
321
  8
0
  6
CONTINUOUS
 62
     4
 10
228.9281678119173
 20
20.65973384538744
 30
0.0
 11
230.4281719908417
 21
21.52576167741869
 31
0.0
  0
LINE
  5
322
  8
0
  6
CONTINUOUS
 62
     4
 10
228.92817323594
 20
68.65970499575484
 30
0.0
 11
230.4281774148644
 21
67.79367716372359
 31
0.0
  0
LINE
  5
323
  8
0
  6
CONTINUOUS
 62
     4
 10
208.4281805745554
 20
25.65971757286057
 30
0.0
 11
230.4281805745554
 21
25.65971757286057
 31
0.0
  0
LINE
  5
324
  8
0
  6
CONTINUOUS
 62
     4
 10
206.4281805745554
 20
24.15971757286057
 30
0.0
 11
207.4281805745554
 21
24.15971757286057
 31
0.0
  0
LINE
  5
325
  8
0
  6
CONTINUOUS
 62
     4
 10
190.4281805745554
 20
62.65971566551194
 30
0.0
 11
205.4281805745554
 21
62.65971566551194
 31
0.0
  0
LINE
  5
326
  8
0
  6
CONTINUOUS
 62
     4
 10
206.4281805745554
 20
65.15971948020921
 30
0.0
 11
207.4281805745554
 21
65.15971948020921
 31
0.0
  0
LINE
  5
327
  8
0
  6
CONTINUOUS
 62
     4
 10
190.4281805745554
 20
26.65971757286057
 30
0.0
 11
205.4281805745554
 21
26.65971757286057
 31
0.0
  0
LINE
  5
328
  8
0
  6
CONTINUOUS
 62
     4
 10
190.4281805745554
 20
62.65971566551194
 30
0.0
 11
190.4281805745554
 21
26.65971757286057
 31
0.0
  0
LINE
  5
329
  8
0
  6
CONTINUOUS
 62
     4
 10
205.4281805745554
 20
64.15971566551194
 30
0.0
 11
205.4281805745554
 21
25.15971757286057
 31
0.0
  0
LINE
  5
32A
  8
0
  6
CONTINUOUS
 62
     4
 10
208.4281805745554
 20
64.15971566551194
 30
0.0
 11
208.4281805745554
 21
25.15971757286057
 31
0.0
  0
LINE
  5
32B
  8
0
  6
CONTINUOUS
 62
     4
 10
53.8301037927931
 20
63.15971579353491
 30
0.0
 11
56.42816674301682
 21
64.65970816414038
 31
0.0
  0
LINE
  5
32C
  8
0
  6
CONTINUOUS
 62
     4
 10
-0.5718194254446019
 20
64.15971566551194
 30
0.0
 11
50.4281805745554
 21
64.15971566551194
 31
0.0
  0
LINE
  5
32D
  8
0
  6
CONTINUOUS
 62
     4
 10
47.4281805745554
 20
64.65971566551194
 30
0.0
 11
138.9281805745554
 21
64.65971566551194
 31
0.0
  0
LINE
  5
32E
  8
0
  6
CONTINUOUS
 62
     4
 10
47.4281805745554
 20
24.65971566551194
 30
0.0
 11
138.9281805745554
 21
24.65971566551194
 31
0.0
  0
LINE
  5
32F
  8
0
  6
CONTINUOUS
 62
     4
 10
189.4281805745554
 20
20.65971757286057
 30
0.0
 11
228.9281500569773
 21
20.65971757286057
 31
0.0
  0
LINE
  5
330
  8
0
  6
CONTINUOUS
 62
     4
 10
230.4281805745554
 20
67.79369164817796
 30
0.0
 11
230.4281805745554
 21
21.52574349754319
 31
0.0
  0
LINE
  5
331
  8
0
  6
CONTINUOUS
 62
     4
 10
148.4281805745554
 20
142.159715665512
 30
0.0
 11
148.4281805745554
 21
69.59431649559006
 31
0.0
  0
LINE
  5
332
  8
0
  6
CONTINUOUS
 62
     4
 10
194.4281805745554
 20
71.65971566551194
 30
0.0
 11
199.1281927815867
 21
71.65971566551194
 31
0.0
  0
LINE
  5
333
  8
0
  6
CONTINUOUS
 62
     4
 10
194.4281805745554
 20
17.65971757286057
 30
0.0
 11
199.1281927815867
 21
17.65971757286057
 31
0.0
  0
LINE
  5
334
  8
0
  6
CONTINUOUS
 62
     4
 10
199.1281927815867
 20
71.65971566551194
 30
0.0
 11
199.1281927815867
 21
68.65971566551194
 31
0.0
  0
LINE
  5
335
  8
0
  6
CONTINUOUS
 62
     4
 10
194.4281805745554
 20
71.65971566551194
 30
0.0
 11
194.4281805745554
 21
68.65971566551194
 31
0.0
  0
LINE
  5
336
  8
0
  6
CONTINUOUS
 62
     4
 10
189.4281805745554
 20
79.04288674705491
 30
0.0
 11
189.4281805745554
 21
68.65971566551194
 31
0.0
  0
LINE
  5
337
  8
0
  6
CONTINUOUS
 62
     4
 10
49.4281805745554
 20
18.15972138755784
 30
0.0
 11
49.4281805745554
 21
23.15971375816331
 31
0.0
  0
LINE
  5
338
  8
0
  6
CONTINUOUS
 62
     4
 10
49.42817489499427
 20
23.15972231028444
 30
0.0
 11
50.87154952878333
 21
20.65972415507621
 31
0.0
  0
LINE
  5
339
  8
0
  6
CONTINUOUS
 62
     4
 10
50.87154786871949
 20
20.65971896712982
 30
0.0
 11
49.42817323493043
 21
18.15972081192159
 31
0.0
  0
LINE
  5
33A
  8
0
  6
CONTINUOUS
 62
     4
 10
47.4281805745554
 20
74.65971566551194
 30
0.0
 11
53.76844012655735
 21
74.65971566551194
 31
0.0
  0
LINE
  5
33B
  8
0
  6
CONTINUOUS
 62
     4
 10
47.4281805745554
 20
14.65971757286057
 30
0.0
 11
53.76844012655735
 21
14.65971757286057
 31
0.0
  0
LINE
  5
33C
  8
0
  6
CONTINUOUS
 62
     4
 10
133.4281805745554
 20
-52.84028433448806
 30
0.0
 11
203.4281805745554
 21
-52.84028433448806
 31
0.0
  0
LINE
  5
33D
  8
0
  6
CONTINUOUS
 62
     4
 10
133.4281805745554
 20
142.159715665512
 30
0.0
 11
203.4281805745554
 21
142.159715665512
 31
0.0
  0
LINE
  5
33E
  8
0
  6
CONTINUOUS
 62
     4
 10
34.4281805745554
 20
18.15972138755784
 30
0.0
 11
49.4281805745554
 21
18.15972138755784
 31
0.0
  0
LINE
  5
33F
  8
0
  6
CONTINUOUS
 62
     4
 10
34.4281805745554
 20
23.15971375816331
 30
0.0
 11
49.4281805745554
 21
23.15971375816331
 31
0.0
  0
LINE
  5
340
  8
0
  6
CONTINUOUS
 62
     4
 10
50.87156049603797
 20
68.65970386696164
 30
0.0
 11
49.42817823285438
 21
71.15971523666859
 31
0.0
  0
LINE
  5
341
  8
0
  6
CONTINUOUS
 62
     4
 10
34.4281805745554
 20
71.15971566551194
 30
0.0
 11
49.4281805745554
 21
71.15971566551194
 31
0.0
  0
LINE
  5
342
  8
0
  6
CONTINUOUS
 62
     4
 10
49.42816449903157
 20
66.15972346211434
 30
0.0
 11
50.87153913282063
 21
68.65972161732258
 31
0.0
  0
LINE
  5
343
  8
0
  6
CONTINUOUS
 62
     4
 10
34.4281805745554
 20
66.15971948020921
 30
0.0
 11
49.4281805745554
 21
66.15971948020921
 31
0.0
  0
LINE
  5
344
  8
0
  6
CONTINUOUS
 62
     4
 10
49.4281805745554
 20
71.15971566551194
 30
0.0
 11
49.4281805745554
 21
66.15971948020921
 31
0.0
  0
LINE
  5
345
  8
0
  6
CONTINUOUS
 62
     4
 10
46.4281805745554
 20
71.65971566551194
 30
0.0
 11
46.4281805745554
 21
65.65971566551194
 31
0.0
  0
LINE
  5
346
  8
0
  6
CONTINUOUS
 62
     4
 10
119.4281805745554
 20
90.65971566551194
 30
0.0
 11
119.4281805745554
 21
69.63271142356858
 31
0.0
  0
LINE
  5
347
  8
0
  6
CONTINUOUS
 62
     4
 10
62.9281805745554
 20
-1.340284334488061
 30
0.0
 11
119.4281805745554
 21
-1.340284334488061
 31
0.0
  0
LINE
  5
348
  8
0
  6
CONTINUOUS
 62
     4
 10
63.4281805745554
 20
117.6597156655119
 30
0.0
 11
73.9281805745554
 21
117.6597156655119
 31
0.0
  0
LINE
  5
349
  8
0
  6
CONTINUOUS
 62
     4
 10
62.9281805745554
 20
90.65971566551194
 30
0.0
 11
119.4281805745554
 21
90.65971566551194
 31
0.0
  0
LINE
  5
34A
  8
0
  6
CONTINUOUS
 62
     4
 10
45.4281805745554
 20
72.65970803611741
 30
0.0
 11
47.4281805745554
 21
72.65970803611741
 31
0.0
  0
LINE
  5
34B
  8
0
  6
CONTINUOUS
 62
     4
 10
45.4281805745554
 20
16.65972138755784
 30
0.0
 11
47.4281805745554
 21
16.65972138755784
 31
0.0
  0
LINE
  5
34C
  8
0
  6
CONTINUOUS
 62
     4
 10
34.4281805745554
 20
15.65971375816331
 30
0.0
 11
47.4281805745554
 21
15.65971375816331
 31
0.0
  0
LINE
  5
34D
  8
0
  6
CONTINUOUS
 62
     4
 10
34.4281805745554
 20
73.65971566551194
 30
0.0
 11
34.4281805745554
 21
64.15971566551194
 31
0.0
  0
LINE
  5
34E
  8
0
  6
CONTINUOUS
 62
     4
 10
37.4281805745554
 20
82.65971566551194
 30
0.0
 11
43.4281805745554
 21
82.65971566551194
 31
0.0
  0
LINE
  5
34F
  8
0
  6
CONTINUOUS
 62
     4
 10
189.4281805745554
 20
68.65971566551194
 30
0.0
 11
228.9281347981882
 21
68.65971566551194
 31
0.0
  0
LINE
  5
350
  8
0
  6
CONTINUOUS
 62
     4
 10
172.4281805745554
 20
65.65971566551194
 30
0.0
 11
172.4281805745554
 21
71.43292046897874
 31
0.0
  0
LINE
  5
351
  8
0
  6
CONTINUOUS
 62
     4
 10
-0.5718194254446019
 20
64.15971566551194
 30
0.0
 11
-0.5718194254446019
 21
25.15971757286057
 31
0.0
  0
LINE
  5
352
  8
0
  6
CONTINUOUS
 62
     4
 10
216.4281805745554
 20
-39.84028433448806
 30
0.0
 11
216.4281805745554
 21
-47.84028433448806
 31
0.0
  0
LINE
  5
353
  8
0
  6
CONTINUOUS
 62
     4
 10
133.428180352811
 20
-52.84029134107017
 30
0.0
 11
132.4281792912215
 21
-51.84029027948067
 31
0.0
  0
LINE
  5
354
  8
0
  6
CONTINUOUS
 62
     4
 10
132.4281915981011
 20
141.1597188773318
 30
0.0
 11
133.4281818700976
 21
142.1597091493283
 31
0.0
  0
LINE
  5
355
  8
0
  6
CONTINUOUS
 62
     4
 10
121.4281805745554
 20
100.1596851479338
 30
0.0
 11
121.4281805745554
 21
69.7589855324553
 31
0.0
  0
LINE
  5
356
  8
0
  6
CONTINUOUS
 62
     4
 10
123.4281872700047
 20
102.1596938283183
 30
0.0
 11
121.4281851468257
 21
100.1596917051393
 31
0.0
  0
LINE
  5
357
  8
0
  6
CONTINUOUS
 62
     4
 10
121.4281945877196
 20
-10.84029530747979
 30
0.0
 11
123.4281859213056
 21
-12.84028664106576
 31
0.0
  0
LINE
  5
358
  8
0
  6
CONTINUOUS
 62
     4
 10
123.4281805745554
 20
-12.84028433448806
 30
0.0
 11
132.4281805745554
 21
-12.84028433448806
 31
0.0
  0
LINE
  5
359
  8
0
  6
CONTINUOUS
 62
     4
 10
123.4281805745554
 20
102.159730924301
 30
0.0
 11
132.4281805745554
 21
102.159730924301
 31
0.0
  0
LINE
  5
35A
  8
0
  6
CONTINUOUS
 62
     4
 10
121.4281805745554
 20
-10.84027670509353
 30
0.0
 11
121.4281805745554
 21
19.56044389121995
 31
0.0
  0
LINE
  5
35B
  8
0
  6
CONTINUOUS
 62
     4
 10
138.9281805745554
 20
64.65971566551194
 30
0.0
 11
171.4281805745554
 21
64.65971566551194
 31
0.0
  0
LINE
  5
35C
  8
0
  6
CONTINUOUS
 62
     4
 10
138.9281805745554
 20
24.65971566551194
 30
0.0
 11
171.4281805745554
 21
24.65971566551194
 31
0.0
  0
LINE
  5
35D
  8
0
  6
CONTINUOUS
 62
     4
 10
208.4281805745554
 20
107.1597080361174
 30
0.0
 11
208.4281805745554
 21
68.65971566551194
 31
0.0
  0
LINE
  5
35E
  8
0
  6
CONTINUOUS
 62
     4
 10
203.4281805745554
 20
9.74289299362168
 30
0.0
 11
203.4281805745554
 21
-52.84028433448806
 31
0.0
  0
LINE
  5
35F
  8
0
  6
CONTINUOUS
 62
     4
 10
203.4281805745554
 20
-17.84028242713943
 30
0.0
 11
208.4281805745554
 21
-17.84028242713943
 31
0.0
  0
LINE
  5
360
  8
0
  6
CONTINUOUS
 62
     4
 10
203.4281805745554
 20
107.1597080361174
 30
0.0
 11
208.4281805745554
 21
107.1597080361174
 31
0.0
  0
LINE
  5
361
  8
0
  6
CONTINUOUS
 62
     4
 10
203.4281805745554
 20
142.159715665512
 30
0.0
 11
203.4281805745554
 21
79.57654000633225
 31
0.0
  0
LINE
  5
362
  8
0
  6
CONTINUOUS
 62
     4
 10
208.4281805745554
 20
20.65971757286057
 30
0.0
 11
208.4281805745554
 21
-17.84028242713943
 31
0.0
  0
LINE
  5
363
  8
0
  6
CONTINUOUS
 62
     4
 10
152.4281805745554
 20
69.33502007835374
 30
0.0
 11
152.4281805745554
 21
65.15971185081467
 31
0.0
  0
LINE
  5
364
  8
0
  6
CONTINUOUS
 62
     4
 10
152.428184338622
 20
66.65972222814831
 30
0.0
 11
150.428182215443
 21
64.65972010496931
 31
0.0
  0
LINE
  5
365
  8
0
  6
CONTINUOUS
 62
     4
 10
138.9281805745554
 20
70.09950829856858
 30
0.0
 11
138.9281805745554
 21
64.65971566551194
 31
0.0
  0
LINE
  5
366
  8
0
  6
CONTINUOUS
 62
     4
 10
152.4281805745554
 20
19.98441220634446
 30
0.0
 11
152.4281805745554
 21
24.15971948020921
 31
0.0
  0
LINE
  5
367
  8
0
  6
CONTINUOUS
 62
     4
 10
152.4281789438255
 20
22.6597132817859
 30
0.0
 11
150.4281768206465
 21
24.6597154049649
 31
0.0
  0
LINE
  5
368
  8
0
  6
CONTINUOUS
 62
     4
 10
172.4281805745554
 20
23.65971566551194
 30
0.0
 11
172.4281805745554
 21
17.88651086204514
 31
0.0
  0
LINE
  5
369
  8
0
  6
CONTINUOUS
 62
     4
 10
138.9281805745554
 20
19.2199230324553
 30
0.0
 11
138.9281805745554
 21
24.65971566551194
 31
0.0
  0
LINE
  5
36A
  8
0
  6
CONTINUOUS
 62
     4
 10
89.4281805745554
 20
65.15970803611741
 30
0.0
 11
138.9281805745554
 21
65.15970803611741
 31
0.0
  0
LINE
  5
36B
  8
0
  6
CONTINUOUS
 62
     4
 10
89.4281805745554
 20
64.65971566551194
 30
0.0
 11
89.4281805745554
 21
65.15970803611741
 31
0.0
  0
LINE
  5
36C
  8
0
  6
CONTINUOUS
 62
     4
 10
49.4281805745554
 20
61.15971566551194
 30
0.0
 11
49.4281805745554
 21
36.52860261314378
 31
0.0
  0
LINE
  5
36D
  8
0
  6
CONTINUOUS
 62
     4
 10
-0.5718194254446019
 20
61.15971566551194
 30
0.0
 11
179.9289282552195
 21
61.15971566551194
 31
0.0
  0
LINE
  5
36E
  8
0
  6
CONTINUOUS
 62
     4
 10
-0.5718194254446019
 20
28.15971757286057
 30
0.0
 11
179.9289282552195
 21
28.15971757286057
 31
0.0
  0
LINE
  5
36F
  8
0
  6
CONTINUOUS
 62
     4
 10
44.4281805745554
 20
97.65971566551194
 30
0.0
 11
55.92818820394993
 21
97.65971566551194
 31
0.0
  0
LINE
  5
370
  8
0
  6
CONTINUOUS
 62
     4
 10
55.92818820394993
 20
97.65971566551194
 30
0.0
 11
55.92818820394993
 21
77.40971566551194
 31
0.0
  0
LINE
  5
371
  8
0
  6
CONTINUOUS
 62
     4
 10
44.4281805745554
 20
-8.340284334488061
 30
0.0
 11
55.92818820394993
 21
-8.340284334488061
 31
0.0
  0
LINE
  5
372
  8
0
  6
CONTINUOUS
 62
     4
 10
55.92817765287336
 20
-8.340283212612135
 30
0.0
 11
62.92817834050422
 21
-1.340282524981276
 31
0.0
  0
LINE
  5
373
  8
0
  6
CONTINUOUS
 62
     4
 10
55.92818820394993
 20
-8.340284334488061
 30
0.0
 11
55.92818820394993
 21
11.90971566551194
 31
0.0
  0
LINE
  5
374
  8
0
  6
CONTINUOUS
 62
     4
 10
181.9605749837351
 20
28.15971757286057
 30
0.0
 11
190.4281805745554
 21
28.15971757286057
 31
0.0
  0
LINE
  5
375
  8
0
  6
CONTINUOUS
 62
     4
 10
181.9605749837351
 20
61.15971566551194
 30
0.0
 11
190.4281805745554
 21
61.15971566551194
 31
0.0
  0
LINE
  5
376
  8
0
  6
CONTINUOUS
 62
     4
 10
49.4281805745554
 20
34.56819154136643
 30
0.0
 11
49.4281805745554
 21
28.15971757286057
 31
0.0
  0
ARC
  5
377
  8
0
  6
CONTINUOUS
 62
     4
 10
207.4281805745554
 20
64.15971566551194
 30
0.0
 40
1.0
 50
0.0
 51
90.00000250447816
  0
ARC
  5
378
  8
0
  6
CONTINUOUS
 62
     4
 10
206.4281805745554
 20
64.15971566551194
 30
0.0
 40
1.0
 50
90.00000250447816
 51
180.0000050089563
  0
ARC
  5
379
  8
0
  6
CONTINUOUS
 62
     4
 10
206.4281805745554
 20
25.15971757286057
 30
0.0
 40
1.0
 50
179.999991348578
 51
270.0000006832453
  0
ARC
  5
37A
  8
0
  6
CONTINUOUS
 62
     4
 10
207.4281805745554
 20
25.15971757286057
 30
0.0
 40
1.0
 50
269.9999974955218
 51
360.0
  0
ARC
  5
37B
  8
0
  6
CONTINUOUS
 62
     4
 10
118.4281805745554
 20
8.659700406722877
 30
0.0
 40
3.0
 50
0.0
 51
70.52877925636179
  0
ARC
  5
37C
  8
0
  6
CONTINUOUS
 62
     4
 10
118.4281805745554
 20
80.659730924301
 30
0.0
 40
3.0
 50
289.4712207436382
 51
360.0
  0
ARC
  5
37D
  8
0
  6
CONTINUOUS
 62
     4
 10
171.4281805745554
 20
65.65971566551194
 30
0.0
 40
1.0
 50
269.9999974955218
 51
360.0
  0
ARC
  5
37E
  8
0
  6
CONTINUOUS
 62
     4
 10
171.4281805745554
 20
23.65971566551194
 30
0.0
 40
1.0
 50
0.0
 51
90.00000250447816
  0
POLYLINE
  5
37F
  8
0
  6
CONTINUOUS
 62
     4
 66
     1
 10
0.0
 20
0.0
 30
0.0
  0
VERTEX
  5
6C4
  8
0
  6
CONTINUOUS
 62
     4
 10
51.3879088155222
 20
98.31830788963303
 30
0.0
 40
0.18
 41
0.18
  0
VERTEX
  5
6C5
  8
0
  6
CONTINUOUS
 62
     4
 10
52.45934486844655
 20
95.66070611983214
 30
0.0
 40
0.18
 41
0.18
  0
VERTEX
  5
6C6
  8
0
  6
CONTINUOUS
 62
     4
 10
53.33776377303986
 20
92.90588007871934
 30
0.0
 40
0.18
 41
0.18
  0
VERTEX
  5
6C7
  8
0
  6
CONTINUOUS
 62
     4
 10
54.08915062118693
 20
90.05978215429462
 30
0.0
 40
0.18
 41
0.18
  0
VERTEX
  5
6C8
  8
0
  6
CONTINUOUS
 62
     4
 10
54.54608248371079
 20
87.17607797451997
 30
0.0
 40
0.18
 41
0.18
  0
VERTEX
  5
6C9
  8
0
  6
CONTINUOUS
 62
     4
 10
54.47952059373981
 20
84.32102866958563
 30
0.0
 40
0.18
 41
0.18
  0
VERTEX
  5
6CA
  8
0
  6
CONTINUOUS
 62
     4
 10
53.77115533891473
 20
81.54116006687715
 30
0.0
 40
0.18
 41
0.18
  0
VERTEX
  5
6CB
  8
0
  6
CONTINUOUS
 62
     4
 10
53.12360837882008
 20
78.73668301478917
 30
0.0
 40
0.18
 41
0.18
  0
VERTEX
  5
6CC
  8
0
  6
CONTINUOUS
 62
     4
 10
53.38848758394024
 20
75.82616216380104
 30
0.0
 40
0.18
 41
0.18
  0
VERTEX
  5
6CD
  8
0
  6
CONTINUOUS
 62
     4
 10
54.55373631973728
 20
73.05877666867406
 30
0.0
 40
0.18
 41
0.18
  0
VERTEX
  5
6CE
  8
0
  6
CONTINUOUS
 62
     4
 10
56.39449584923537
 20
70.76506369031567
 30
0.0
 40
0.18
 41
0.18
  0
VERTEX
  5
6CF
  8
0
  6
CONTINUOUS
 62
     4
 10
58.70953984511246
 20
69.18057961728158
 30
0.0
 40
0.18
 41
0.18
  0
VERTEX
  5
6D0
  8
0
  6
CONTINUOUS
 62
     4
 10
61.37687155779887
 20
68.22245006452917
 30
0.0
 40
0.18
 41
0.18
  0
VERTEX
  5
6D1
  8
0
  6
CONTINUOUS
 62
     4
 10
64.29107919084635
 20
67.7411442340655
 30
0.0
 40
0.18
 41
0.18
  0
VERTEX
  5
6D2
  8
0
  6
CONTINUOUS
 62
     4
 10
67.3467509478066
 20
67.58713132789778
 30
0.0
 40
0.18
 41
0.18
  0
VERTEX
  5
6D3
  8
0
  6
CONTINUOUS
 62
     4
 10
70.43847503223137
 20
67.61088054803309
 30
0.0
 40
0.18
 41
0.18
  0
VERTEX
  5
6D4
  8
0
  6
CONTINUOUS
 62
     4
 10
73.47355868781825
 20
67.67870641114581
 30
0.0
 40
0.18
 41
0.18
  0
VERTEX
  5
6D5
  8
0
  6
CONTINUOUS
 62
     4
 10
76.43668657521531
 20
67.75331982118935
 30
0.0
 40
0.18
 41
0.18
  0
VERTEX
  5
6D6
  8
0
  6
CONTINUOUS
 62
     4
 10
79.34164271407299
 20
67.83368351360133
 30
0.0
 40
0.18
 41
0.18
  0
VERTEX
  5
6D7
  8
0
  6
CONTINUOUS
 62
     4
 10
82.20226363352258
 20
67.91882563985992
 30
0.0
 40
0.18
 41
0.18
  0
VERTEX
  5
6D8
  8
0
  6
CONTINUOUS
 62
     4
 10
85.03238586269531
 20
68.00777435144327
 30
0.0
 40
0.18
 41
0.18
  0
VERTEX
  5
6D9
  8
0
  6
CONTINUOUS
 62
     4
 10
87.84584593072241
 20
68.09955779982951
 30
0.0
 40
0.18
 41
0.18
  0
VERTEX
  5
6DA
  8
0
  6
CONTINUOUS
 62
     4
 10
90.6564803667352
 20
68.19320413649686
 30
0.0
 40
0.18
 41
0.18
  0
VERTEX
  5
6DB
  8
0
  6
CONTINUOUS
 62
     4
 10
93.47812569986481
 20
68.2877415129234
 30
0.0
 40
0.18
 41
0.18
  0
VERTEX
  5
6DC
  8
0
  6
CONTINUOUS
 62
     4
 10
96.32280448853589
 20
68.38282191217024
 30
0.0
 40
0.18
 41
0.18
  0
VERTEX
  5
6DD
  8
0
  6
CONTINUOUS
 62
     4
 10
99.18923878324254
 20
68.48267141371865
 30
0.0
 40
0.18
 41
0.18
  0
VERTEX
  5
6DE
  8
0
  6
CONTINUOUS
 62
     4
 10
102.0702304839138
 20
68.59355205986032
 30
0.0
 40
0.18
 41
0.18
  0
VERTEX
  5
6DF
  8
0
  6
CONTINUOUS
 62
     4
 10
104.9585544363976
 20
68.72173519689068
 30
0.0
 40
0.18
 41
0.18
  0
VERTEX
  5
6E0
  8
0
  6
CONTINUOUS
 62
     4
 10
107.8470292159961
 20
68.87340283533534
 30
0.0
 40
0.18
 41
0.18
  0
VERTEX
  5
6E1
  8
0
  6
CONTINUOUS
 62
     4
 10
110.7312935080831
 20
69.04897572686708
 30
0.0
 40
0.18
 41
0.18
  0
VERTEX
  5
6E2
  8
0
  6
CONTINUOUS
 62
     4
 10
113.6114739671419
 20
69.23970606196737
 30
0.0
 40
0.18
 41
0.18
  0
VERTEX
  5
6E3
  8
0
  6
CONTINUOUS
 62
     4
 10
116.4880972908359
 20
69.43602877496258
 30
0.0
 40
0.18
 41
0.18
  0
VERTEX
  5
6E4
  8
0
  6
CONTINUOUS
 62
     4
 10
119.3616901768287
 20
69.62837880017924
 30
0.0
 40
0.18
 41
0.18
  0
VERTEX
  5
6E5
  8
0
  6
CONTINUOUS
 62
     4
 10
122.2327793227838
 20
69.80719107194376
 30
0.0
 40
0.18
 41
0.18
  0
VERTEX
  5
6E6
  8
0
  6
CONTINUOUS
 62
     4
 10
125.1018914263645
 20
69.96290052458265
 30
0.0
 40
0.18
 41
0.18
  0
VERTEX
  5
6E7
  8
0
  6
CONTINUOUS
 62
     4
 10
127.9695531852345
 20
70.08594209242237
 30
0.0
 40
0.18
 41
0.18
  0
VERTEX
  5
6E8
  8
0
  6
CONTINUOUS
 62
     4
 10
130.8362912970572
 20
70.16675070978936
 30
0.0
 40
0.18
 41
0.18
  0
VERTEX
  5
6E9
  8
0
  6
CONTINUOUS
 62
     4
 10
133.702632459496
 20
70.19576131101006
 30
0.0
 40
0.18
 41
0.18
  0
VERTEX
  5
6EA
  8
0
  6
CONTINUOUS
 62
     4
 10
136.5691462678114
 20
70.16534607654761
 30
0.0
 40
0.18
 41
0.18
  0
VERTEX
  5
6EB
  8
0
  6
CONTINUOUS
 62
     4
 10
139.4366964015148
 20
70.08115796764047
 30
0.0
 40
0.18
 41
0.18
  0
VERTEX
  5
6EC
  8
0
  6
CONTINUOUS
 62
     4
 10
142.3062698738342
 20
69.95441966931668
 30
0.0
 40
0.18
 41
0.18
  0
VERTEX
  5
6ED
  8
0
  6
CONTINUOUS
 62
     4
 10
145.1788541195793
 20
69.79637290514806
 30
0.0
 40
0.18
 41
0.18
  0
VERTEX
  5
6EE
  8
0
  6
CONTINUOUS
 62
     4
 10
148.0554365735599
 20
69.61825939870651
 30
0.0
 40
0.18
 41
0.18
  0
VERTEX
  5
6EF
  8
0
  6
CONTINUOUS
 62
     4
 10
150.9370046705859
 20
69.43132087356389
 30
0.0
 40
0.18
 41
0.18
  0
VERTEX
  5
6F0
  8
0
  6
CONTINUOUS
 62
     4
 10
153.8243545806188
 20
69.24778987305174
 30
0.0
 40
0.18
 41
0.18
  0
VERTEX
  5
6F1
  8
0
  6
CONTINUOUS
 62
     4
 10
156.7136983927319
 20
69.10364610556975
 30
0.0
 40
0.18
 41
0.18
  0
VERTEX
  5
6F2
  8
0
  6
CONTINUOUS
 62
     4
 10
159.5965589253072
 20
69.05916136508155
 30
0.0
 40
0.18
 41
0.18
  0
VERTEX
  5
6F3
  8
0
  6
CONTINUOUS
 62
     4
 10
162.4642466905229
 20
69.17570726699489
 30
0.0
 40
0.18
 41
0.18
  0
VERTEX
  5
6F4
  8
0
  6
CONTINUOUS
 62
     4
 10
165.3080843146567
 20
69.51347114639131
 30
0.0
 40
0.18
 41
0.18
  0
VERTEX
  5
6F5
  8
0
  6
CONTINUOUS
 62
     4
 10
168.1197838242055
 20
70.09457238116191
 30
0.0
 40
0.18
 41
0.18
  0
VERTEX
  5
6F6
  8
0
  6
CONTINUOUS
 62
     4
 10
170.8915204073818
 20
70.89585143177639
 30
0.0
 40
0.18
 41
0.18
  0
VERTEX
  5
6F7
  8
0
  6
CONTINUOUS
 62
     4
 10
173.6154962580949
 20
71.89150866853878
 30
0.0
 40
0.18
 41
0.18
  0
VERTEX
  5
6F8
  8
0
  6
CONTINUOUS
 62
     4
 10
176.2846777878497
 20
73.05449653149033
 30
0.0
 40
0.18
 41
0.18
  0
VERTEX
  5
6F9
  8
0
  6
CONTINUOUS
 62
     4
 10
178.9077891425759
 20
74.33203584476235
 30
0.0
 40
0.18
 41
0.18
  0
VERTEX
  5
6FA
  8
0
  6
CONTINUOUS
 62
     4
 10
181.5083632333108
 20
75.64716543743533
 30
0.0
 40
0.18
 41
0.18
  0
VERTEX
  5
6FB
  8
0
  6
CONTINUOUS
 62
     4
 10
184.1105071652622
 20
76.92198650736344
 30
0.0
 40
0.18
 41
0.18
  0
VERTEX
  5
6FC
  8
0
  6
CONTINUOUS
 62
     4
 10
186.7383280436381
 20
78.07860025240076
 30
0.0
 40
0.18
 41
0.18
  0
VERTEX
  5
6FD
  8
0
  6
CONTINUOUS
 62
     4
 10
189.4159329736463
 20
79.03910787040141
 30
0.0
 40
0.18
 41
0.18
  0
VERTEX
  5
6FE
  8
0
  6
CONTINUOUS
 62
     4
 10
192.1673894219769
 20
79.72568951814012
 30
0.0
 40
0.18
 41
0.18
  0
VERTEX
  5
6FF
  8
0
  6
CONTINUOUS
 62
     4
 10
195.0021791942781
 20
80.08957961865411
 30
0.0
 40
0.18
 41
0.18
  0
VERTEX
  5
700
  8
0
  6
CONTINUOUS
 62
     4
 10
197.8935004926016
 20
80.15428861159991
 30
0.0
 40
0.18
 41
0.18
  0
VERTEX
  5
701
  8
0
  6
CONTINUOUS
 62
     4
 10
200.809004502959
 20
79.95437645166979
 30
0.0
 40
0.18
 41
0.18
  0
VERTEX
  5
702
  8
0
  6
CONTINUOUS
 62
     4
 10
203.7163424113622
 20
79.5244030935561
 30
0.0
 40
0.18
 41
0.18
  0
VERTEX
  5
703
  8
0
  6
CONTINUOUS
 62
     4
 10
206.5831654038227
 20
78.8989284919511
 30
0.0
 40
0.18
 41
0.18
  0
VERTEX
  5
704
  8
0
  6
CONTINUOUS
 62
     4
 10
209.3771246663522
 20
78.11251260154712
 30
0.0
 40
0.18
 41
0.18
  0
SEQEND
  5
6C3
  8
0
  6
CONTINUOUS
 62
     4
  0
POLYLINE
  5
380
  8
0
  6
CONTINUOUS
 62
     4
 66
     1
 10
0.0
 20
0.0
 30
0.0
  0
VERTEX
  5
706
  8
0
  6
CONTINUOUS
 62
     4
 10
51.3879088155222
 20
-8.99888037330642
 30
0.0
 40
0.18
 41
0.18
  0
VERTEX
  5
707
  8
0
  6
CONTINUOUS
 62
     4
 10
52.45934470469393
 20
-6.341278476386052
 30
0.0
 40
0.18
 41
0.18
  0
VERTEX
  5
708
  8
0
  6
CONTINUOUS
 62
     4
 10
53.33776330296205
 20
-3.586452280144375
 30
0.0
 40
0.18
 41
0.18
  0
VERTEX
  5
709
  8
0
  6
CONTINUOUS
 62
     4
 10
54.08915011233649
 20
-0.7403542746493145
 30
0.0
 40
0.18
 41
0.18
  0
VERTEX
  5
70A
  8
0
  6
CONTINUOUS
 62
     4
 10
54.5460824226351
 20
2.143349980513047
 30
0.0
 40
0.18
 41
0.18
  0
VERTEX
  5
70B
  8
0
  6
CONTINUOUS
 62
     4
 10
54.47952152877014
 20
4.998399446699791
 30
0.0
 40
0.18
 41
0.18
  0
VERTEX
  5
70C
  8
0
  6
CONTINUOUS
 62
     4
 10
53.77115700586997
 20
7.778268216264445
 30
0.0
 40
0.18
 41
0.18
  0
VERTEX
  5
70D
  8
0
  6
CONTINUOUS
 62
     4
 10
53.12360889857673
 20
10.5827450990577
 30
0.0
 40
0.18
 41
0.18
  0
VERTEX
  5
70E
  8
0
  6
CONTINUOUS
 62
     4
 10
53.38848653932926
 20
13.49326587009773
 30
0.0
 40
0.18
 41
0.18
  0
VERTEX
  5
70F
  8
0
  6
CONTINUOUS
 62
     4
 10
54.55373440823623
 20
16.26065175282173
 30
0.0
 40
0.18
 41
0.18
  0
VERTEX
  5
710
  8
0
  6
CONTINUOUS
 62
     4
 10
56.39449351156762
 20
18.5543654632178
 30
0.0
 40
0.18
 41
0.18
  0
VERTEX
  5
711
  8
0
  6
CONTINUOUS
 62
     4
 10
58.70953724341842
 20
20.13885022554415
 30
0.0
 40
0.18
 41
0.18
  0
VERTEX
  5
712
  8
0
  6
CONTINUOUS
 62
     4
 10
61.37686876530933
 20
21.09698020874205
 30
0.0
 40
0.18
 41
0.18
  0
VERTEX
  5
713
  8
0
  6
CONTINUOUS
 62
     4
 10
64.29107628750862
 20
21.57828625527155
 30
0.0
 40
0.18
 41
0.18
  0
VERTEX
  5
714
  8
0
  6
CONTINUOUS
 62
     4
 10
67.34674802028444
 20
21.73229920759273
 30
0.0
 40
0.18
 41
0.18
  0
VERTEX
  5
715
  8
0
  6
CONTINUOUS
 62
     4
 10
70.43847217390504
 20
21.70854990816567
 30
0.0
 40
0.18
 41
0.18
  0
VERTEX
  5
716
  8
0
  6
CONTINUOUS
 62
     4
 10
73.47355595698046
 20
21.64072393006111
 30
0.0
 40
0.18
 41
0.18
  0
VERTEX
  5
717
  8
0
  6
CONTINUOUS
 62
     4
 10
76.43668396311895
 20
21.56611045750059
 30
0.0
 40
0.18
 41
0.18
  0
VERTEX
  5
718
  8
0
  6
CONTINUOUS
 62
     4
 10
79.3416402106207
 20
21.48574674582514
 30
0.0
 40
0.18
 41
0.18
  0
VERTEX
  5
719
  8
0
  6
CONTINUOUS
 62
     4
 10
82.20226122832024
 20
21.40060463299479
 30
0.0
 40
0.18
 41
0.18
  0
VERTEX
  5
71A
  8
0
  6
CONTINUOUS
 62
     4
 10
85.03238354505211
 20
21.31165595696953
 30
0.0
 40
0.18
 41
0.18
  0
VERTEX
  5
71B
  8
0
  6
CONTINUOUS
 62
     4
 10
87.84584368965076
 20
21.21987255570936
 30
0.0
 40
0.18
 41
0.18
  0
VERTEX
  5
71C
  8
0
  6
CONTINUOUS
 62
     4
 10
90.65647819095076
 20
21.12622626717431
 30
0.0
 40
0.18
 41
0.18
  0
VERTEX
  5
71D
  8
0
  6
CONTINUOUS
 62
     4
 10
93.4781235777866
 20
21.03168892932439
 30
0.0
 40
0.18
 41
0.18
  0
VERTEX
  5
71E
  8
0
  6
CONTINUOUS
 62
     4
 10
96.3228024134403
 20
20.93660855165371
 30
0.0
 40
0.18
 41
0.18
  0
VERTEX
  5
71F
  8
0
  6
CONTINUOUS
 62
     4
 10
99.18923675930201
 20
20.83675905917102
 30
0.0
 40
0.18
 41
0.18
  0
VERTEX
  5
720
  8
0
  6
CONTINUOUS
 62
     4
 10
102.0702285165116
 20
20.72587841513175
 30
0.0
 40
0.18
 41
0.18
  0
VERTEX
  5
721
  8
0
  6
CONTINUOUS
 62
     4
 10
104.9585525318232
 20
20.59769527870289
 30
0.0
 40
0.18
 41
0.18
  0
VERTEX
  5
722
  8
0
  6
CONTINUOUS
 62
     4
 10
107.8470273811742
 20
20.44602764429342
 30
0.0
 40
0.18
 41
0.18
  0
VERTEX
  5
723
  8
0
  6
CONTINUOUS
 62
     4
 10
110.7312917465965
 20
20.27045475870259
 30
0.0
 40
0.18
 41
0.18
  0
VERTEX
  5
724
  8
0
  6
CONTINUOUS
 62
     4
 10
113.611472280636
 20
20.07972443543635
 30
0.0
 40
0.18
 41
0.18
  0
VERTEX
  5
725
  8
0
  6
CONTINUOUS
 62
     4
 10
116.4880956800674
 20
19.88340174653376
 30
0.0
 40
0.18
 41
0.18
  0
VERTEX
  5
726
  8
0
  6
CONTINUOUS
 62
     4
 10
119.3616886416654
 20
19.6910517640339
 30
0.0
 40
0.18
 41
0.18
  0
VERTEX
  5
727
  8
0
  6
CONTINUOUS
 62
     4
 10
122.2327778622049
 20
19.51223955997583
 30
0.0
 40
0.18
 41
0.18
  0
VERTEX
  5
728
  8
0
  6
CONTINUOUS
 62
     4
 10
125.1018900384606
 20
19.35653020639862
 30
0.0
 40
0.18
 41
0.18
  0
VERTEX
  5
729
  8
0
  6
CONTINUOUS
 62
     4
 10
127.9695518672072
 20
19.23348877534134
 30
0.0
 40
0.18
 41
0.18
  0
VERTEX
  5
72A
  8
0
  6
CONTINUOUS
 62
     4
 10
130.8362900452196
 20
19.15268033884306
 30
0.0
 40
0.18
 41
0.18
  0
VERTEX
  5
72B
  8
0
  6
CONTINUOUS
 62
     4
 10
133.7026312692723
 20
19.12366996894285
 30
0.0
 40
0.18
 41
0.18
  0
VERTEX
  5
72C
  8
0
  6
CONTINUOUS
 62
     4
 10
136.5691451338963
 20
19.15408549126148
 30
0.0
 40
0.18
 41
0.18
  0
VERTEX
  5
72D
  8
0
  6
CONTINUOUS
 62
     4
 10
139.4366953193466
 20
19.23827393142192
 30
0.0
 40
0.18
 41
0.18
  0
VERTEX
  5
72E
  8
0
  6
CONTINUOUS
 62
     4
 10
142.3062688403566
 20
19.36501257670288
 30
0.0
 40
0.18
 41
0.18
  0
VERTEX
  5
72F
  8
0
  6
CONTINUOUS
 62
     4
 10
145.1788531332467
 20
19.52305967567457
 30
0.0
 40
0.18
 41
0.18
  0
VERTEX
  5
730
  8
0
  6
CONTINUOUS
 62
     4
 10
148.0554356343371
 20
19.70117347690726
 30
0.0
 40
0.18
 41
0.18
  0
VERTEX
  5
731
  8
0
  6
CONTINUOUS
 62
     4
 10
150.9370037799482
 20
19.88811222897117
 30
0.0
 40
0.18
 41
0.18
  0
VERTEX
  5
732
  8
0
  6
CONTINUOUS
 62
     4
 10
153.824353741891
 20
20.07164336370832
 30
0.0
 40
0.18
 41
0.18
  0
VERTEX
  5
733
  8
0
  6
CONTINUOUS
 62
     4
 10
156.7136976126545
 20
20.21578718656313
 30
0.0
 40
0.18
 41
0.18
  0
VERTEX
  5
734
  8
0
  6
CONTINUOUS
 62
     4
 10
159.5965582119734
 20
20.26027193799238
 30
0.0
 40
0.18
 41
0.18
  0
VERTEX
  5
735
  8
0
  6
CONTINUOUS
 62
     4
 10
162.4642460529918
 20
20.14372603641938
 30
0.0
 40
0.18
 41
0.18
  0
VERTEX
  5
736
  8
0
  6
CONTINUOUS
 62
     4
 10
165.3080837627246
 20
19.80596217813519
 30
0.0
 40
0.18
 41
0.18
  0
VERTEX
  5
737
  8
0
  6
CONTINUOUS
 62
     4
 10
168.1197833614867
 20
19.224860980495
 30
0.0
 40
0.18
 41
0.18
  0
VERTEX
  5
738
  8
0
  6
CONTINUOUS
 62
     4
 10
170.8915200233314
 20
18.42358195992715
 30
0.0
 40
0.18
 41
0.18
  0
VERTEX
  5
739
  8
0
  6
CONTINUOUS
 62
     4
 10
173.6154959275666
 20
17.42792472424194
 30
0.0
 40
0.18
 41
0.18
  0
VERTEX
  5
73A
  8
0
  6
CONTINUOUS
 62
     4
 10
176.2846774713015
 20
16.26493681117285
 30
0.0
 40
0.18
 41
0.18
  0
VERTEX
  5
73B
  8
0
  6
CONTINUOUS
 62
     4
 10
178.9077887987251
 20
14.98739738112007
 30
0.0
 40
0.18
 41
0.18
  0
VERTEX
  5
73C
  8
0
  6
CONTINUOUS
 62
     4
 10
181.5083628356317
 20
13.67226760340364
 30
0.0
 40
0.18
 41
0.18
  0
VERTEX
  5
73D
  8
0
  6
CONTINUOUS
 62
     4
 10
184.1105067029637
 20
12.3974462796585
 30
0.0
 40
0.18
 41
0.18
  0
VERTEX
  5
73E
  8
0
  6
CONTINUOUS
 62
     4
 10
186.7383275216631
 20
11.24083221151954
 30
0.0
 40
0.18
 41
0.18
  0
VERTEX
  5
73F
  8
0
  6
CONTINUOUS
 62
     4
 10
189.415932412672
 20
10.28032420062169
 30
0.0
 40
0.18
 41
0.18
  0
VERTEX
  5
740
  8
0
  6
CONTINUOUS
 62
     4
 10
192.1673888585412
 20
9.593742090007861
 30
0.0
 40
0.18
 41
0.18
  0
VERTEX
  5
741
  8
0
  6
CONTINUOUS
 62
     4
 10
195.0021786794202
 20
9.229851481747099
 30
0.0
 40
0.18
 41
0.18
  0
VERTEX
  5
742
  8
0
  6
CONTINUOUS
 62
     4
 10
197.8935000674167
 20
9.165141982243815
 30
0.0
 40
0.18
 41
0.18
  0
VERTEX
  5
743
  8
0
  6
CONTINUOUS
 62
     4
 10
200.8090041913196
 20
9.365053679014146
 30
0.0
 40
0.18
 41
0.18
  0
VERTEX
  5
744
  8
0
  6
CONTINUOUS
 62
     4
 10
203.7163422199173
 20
9.795026659574221
 30
0.0
 40
0.18
 41
0.18
  0
VERTEX
  5
745
  8
0
  6
CONTINUOUS
 62
     4
 10
206.5831653219987
 20
10.42050101144018
 30
0.0
 40
0.18
 41
0.18
  0
VERTEX
  5
746
  8
0
  6
CONTINUOUS
 62
     4
 10
209.3771246663523
 20
11.20691682212815
 30
0.0
 40
0.18
 41
0.18
  0
SEQEND
  5
705
  8
0
  6
CONTINUOUS
 62
     4
  0
INSERT
  5
381
  8
0
  6
CONTINUOUS
  2
DA_IMAGEDIMGROUP_1
 10
0.0
 20
0.0
 30
0.0
  0
INSERT
  5
382
  8
0
  6
CONTINUOUS
  2
DA_IMAGEDIMGROUP_2
 10
0.0
 20
0.0
 30
0.0
  0
INSERT
  5
383
  8
0
  6
CONTINUOUS
  2
DA_IMAGEDIMGROUP_3
 10
0.0
 20
0.0
 30
0.0
  0
INSERT
  5
384
  8
0
  6
CONTINUOUS
  2
DA_IMAGEDIMGROUP_4
 10
0.0
 20
0.0
 30
0.0
  0
INSERT
  5
385
  8
0
  6
CONTINUOUS
  2
DA_IMAGEDIMGROUP_5
 10
0.0
 20
0.0
 30
0.0
  0
INSERT
  5
386
  8
0
  6
CONTINUOUS
  2
DA_IMAGEDIMGROUP_6
 10
0.0
 20
0.0
 30
0.0
  0
INSERT
  5
387
  8
0
  6
CONTINUOUS
  2
DA_IMAGEDIMGROUP_7
 10
0.0
 20
0.0
 30
0.0
  0
INSERT
  5
388
  8
0
  6
CONTINUOUS
  2
DA_IMAGEDIMGROUP_8
 10
0.0
 20
0.0
 30
0.0
  0
INSERT
  5
389
  8
0
  6
CONTINUOUS
  2
DA_IMAGEDIMGROUP_9
 10
0.0
 20
0.0
 30
0.0
  0
INSERT
  5
38A
  8
0
  6
CONTINUOUS
  2
DA_IMAGEDIMGROUP_10
 10
0.0
 20
0.0
 30
0.0
  0
INSERT
  5
38B
  8
0
  6
CONTINUOUS
  2
DA_IMAGEDIMGROUP_11
 10
0.0
 20
0.0
 30
0.0
  0
INSERT
  5
38C
  8
0
  6
CONTINUOUS
  2
DA_IMAGEDIMGROUP_12
 10
0.0
 20
0.0
 30
0.0
  0
INSERT
  5
38D
  8
0
  6
CONTINUOUS
  2
DA_IMAGEDIMGROUP_13
 10
0.0
 20
0.0
 30
0.0
  0
INSERT
  5
38E
  8
0
  6
CONTINUOUS
  2
DA_IMAGEDIMGROUP_14
 10
0.0
 20
0.0
 30
0.0
  0
INSERT
  5
38F
  8
0
  6
CONTINUOUS
  2
DA_IMAGEDIMGROUP_15
 10
0.0
 20
0.0
 30
0.0
  0
INSERT
  5
390
  8
0
  6
CONTINUOUS
  2
DA_IMAGEDIMGROUP_16
 10
0.0
 20
0.0
 30
0.0
  0
INSERT
  5
391
  8
0
  6
CONTINUOUS
  2
DA_IMAGEDIMGROUP_17
 10
0.0
 20
0.0
 30
0.0
  0
INSERT
  5
392
  8
0
  6
CONTINUOUS
  2
DA_IMAGEDIMGROUP_18
 10
0.0
 20
0.0
 30
0.0
  0
INSERT
  5
393
  8
0
  6
CONTINUOUS
  2
DA_IMAGEDIMGROUP_19
 10
0.0
 20
0.0
 30
0.0
  0
INSERT
  5
394
  8
0
  6
CONTINUOUS
  2
DA_IMAGEDIMGROUP_20
 10
0.0
 20
0.0
 30
0.0
  0
INSERT
  5
395
  8
0
  6
CONTINUOUS
  2
DA_IMAGEDIMGROUP_21
 10
0.0
 20
0.0
 30
0.0
  0
INSERT
  5
396
  8
0
  6
CONTINUOUS
  2
DA_IMAGEDIMGROUP_22
 10
0.0
 20
0.0
 30
0.0
  0
INSERT
  5
397
  8
0
  6
CONTINUOUS
  2
DA_IMAGEDIMGROUP_23
 10
0.0
 20
0.0
 30
0.0
  0
INSERT
  5
398
  8
0
  6
CONTINUOUS
  2
DA_IMAGEDIMGROUP_24
 10
0.0
 20
0.0
 30
0.0
  0
INSERT
  5
399
  8
0
  6
CONTINUOUS
  2
DA_IMAGEDIMGROUP_25
 10
0.0
 20
0.0
 30
0.0
  0
INSERT
  5
39A
  8
0
  6
CONTINUOUS
  2
DA_IMAGEDIMGROUP_26
 10
0.0
 20
0.0
 30
0.0
  0
INSERT
  5
39B
  8
0
  6
CONTINUOUS
  2
DA_IMAGEDIMGROUP_27
 10
0.0
 20
0.0
 30
0.0
  0
INSERT
  5
39C
  8
0
  6
CONTINUOUS
  2
DA_IMAGEDIMGROUP_28
 10
0.0
 20
0.0
 30
0.0
  0
INSERT
  5
39D
  8
0
  6
CONTINUOUS
  2
DA_IMAGEDIMGROUP_29
 10
0.0
 20
0.0
 30
0.0
  0
INSERT
  5
39E
  8
0
  6
CONTINUOUS
  2
DA_IMAGEDIMGROUP_30
 10
0.0
 20
0.0
 30
0.0
  0
INSERT
  5
39F
  8
LAYER0014
  6
CONTINUOUS
  2
DC_GROUP_1
 10
0.0
 20
0.0
 30
0.0
  0
INSERT
  5
3A0
  8
LAYER0014
  6
CONTINUOUS
  2
DC_GROUP_2
 10
0.0
 20
0.0
 30
0.0
  0
INSERT
  5
3A1
  8
LAYER0014
  6
CONTINUOUS
  2
DC_GROUP_3
 10
0.0
 20
0.0
 30
0.0
  0
TEXT
  5
3A2
  8
0
 62
     3
 10
-218.8574817188787
 20
-92.24675558692947
 30
0.0
 40
4.0
  1
仕　様
 41
0.7763024781114951
  7
FDASTYLE1
 72
     5
 11
-205.4948446758795
 21
-92.24675558692947
 31
0.0
  0
TEXT
  5
3A3
  8
0
 62
     3
 10
-218.8574817188787
 20
-99.84675406105056
 30
0.0
 40
4.0
  1
1.最大貫通穴径　　　 　　　　　　　　　　　33  mm
 41
0.8316525580850194
  7
FDASTYLE1
 72
     5
 11
-77.49486160359859
 21
-99.84675406105056
 31
0.0
  0
TEXT
  5
3A4
  8
0
 62
     3
 10
-218.8574817188787
 20
-107.4467525351717
 30
0.0
 40
4.0
  1
2.ピｽﾄﾝｽﾄﾛ-ｸ　 　　　　　　  　　20  mm
 41
0.8727274038887005
  7
FDASTYLE1
 72
     5
 11
-77.49486160359859
 21
-107.4467525351717
 31
0.0
  0
TEXT
  5
3A5
  8
0
 62
     3
 10
-218.8574817188787
 20
-115.0467433798982
 30
0.0
 40
4.0
  1
3.ピｽﾄﾝ表面積　　   　　　　押側 　201.5cm
 41
0.8599851509637665
  7
FDASTYLE1
 72
     5
 11
-77.49486160359859
 21
-115.0467433798982
 31
0.0
  0
TEXT
  5
3A6
  8
0
 62
     3
 10
-77.15782709751601
 20
-111.6852353991079
 30
0.0
 40
2.0
  1
2
 41
0.8791211247444153
  7
FDASTYLE1
 72
     5
 11
-75.39958484802718
 21
-111.6852353991079
 31
0.0
  0
TEXT
  5
3A7
  8
0
 62
     3
 10
-218.8574817188787
 20
-122.6467418540193
 30
0.0
 40
4.0
  1
 　　　　　　   　　　　　　　　引側 　195.7cm
 41
0.8435632289544929
  7
FDASTYLE1
 72
     5
 11
-77.49486160359859
 21
-122.6467418540193
 31
0.0
  0
TEXT
  5
3A8
  8
0
 62
     3
 10
-77.11177026050407
 20
-119.3910800606333
 30
0.0
 40
2.0
  1
2
 41
0.8791211247444153
  7
FDASTYLE1
 72
     5
 11
-75.35352801101524
 21
-119.3910800606333
 31
0.0
  0
TEXT
  5
3A9
  8
0
 62
     3
 10
-218.8574817188787
 20
-130.2467326987459
 30
0.0
 40
4.0
  1
4.ピｽﾄﾝ推力
 41
0.8865176650380018
  7
FDASTYLE1
 72
     5
 11
-180.8794633158255
 21
-130.2467326987459
 31
0.0
  0
TEXT
  5
3AA
  8
0
 62
     3
 10
-179.0333109804201
 20
-128.8236557114793
 30
0.0
 40
3.0
  1
　　 (0.5MＰa時)
 41
0.8836208161414548
  7
FDASTYLE1
 72
     5
 11
-135.7805683620977
 21
-128.8236557114793
 31
0.0
  0
TEXT
  5
3AB
  8
0
 62
     3
 10
-136.22012892447
 20
-130.2467326987459
 30
0.0
 40
4.0
  1
　押側　　9.4　　KN
 41
0.8522802235673459
  7
FDASTYLE1
 72
     5
 11
-78.54980543337345
 21
-130.2467326987459
 31
0.0
  0
TEXT
  5
3AC
  8
0
 62
     3
 10
-218.4179211565065
 20
-136.423677073784
 30
0.0
 40
3.0
  1
(押引共、効率 0.95)　　 
 41
0.8587042578794693
  7
FDASTYLE1
 72
     5
 11
-160.3959497221518
 21
-136.423677073784
 31
0.0
  0
TEXT
  5
3AD
  8
0
 62
     3
 10
-160.835510284524
 20
-137.8467540610506
 30
0.0
 40
4.0
  1
 　 引側　 9.1　　KN
 41
0.8691716938753069
  7
FDASTYLE1
 72
     5
 11
-93.31903424940586
 21
-137.8467540610506
 31
0.0
  0
TEXT
  5
3AE
  8
0
 62
     3
 10
-218.8574817188787
 20
-153.0467510092927
 30
0.0
 40
4.0
  1
　　　　　　　　　　　　　　 　　　最低　　0.2　MPa
 41
0.823897226605769
  7
FDASTYLE1
 72
     5
 11
-77.49486160359859
 21
-153.0467510092927
 31
0.0
  0
TEXT
  5
3AF
  8
0
 62
     3
 10
-218.8574817188787
 20
-160.6467418540193
 30
0.0
 40
4.0
  1
6.最高使用回転速度　　 　   　　　　6500 min
 41
0.8516950376656998
  7
FDASTYLE1
 72
     5
 11
-77.49486160359859
 21
-160.6467418540193
 31
0.0
  0
TEXT
  5
3B0
  8
0
 62
     3
 10
-77.80304678507797
 20
-157.6599707783441
 30
0.0
 40
2.0
  1
-1
 41
0.897196452724039
  7
FDASTYLE1
 72
     5
 11
-73.58326639958374
 21
-157.6599707783441
 31
0.0
  0
TEXT
  5
3B1
  8
0
 62
     3
 10
-218.8574817188787
 20
-168.2467326987459
 30
0.0
 40
4.0
  1
7.慣性モーメント    　　　　　 0.027 kg・m
 41
0.8599851509637665
  7
FDASTYLE1
 72
     5
 11
-77.49486160359859
 21
-168.2467326987459
 31
0.0
  0
TEXT
  5
3B2
  8
0
 62
     3
 10
-76.38283900873816
 20
-164.9492832960033
 30
0.0
 40
2.0
  1
2
 41
0.8791211247444153
  7
FDASTYLE1
 72
     5
 11
-74.62459675924933
 21
-164.9492832960033
 31
0.0
  0
TEXT
  5
3B3
  8
0
 62
     3
 10
-218.8574817188787
 20
-175.8467540610506
 30
0.0
 40
4.0
  1
8.質　量　　　 　　　　　　　　 　  10.5  kg
 41
0.8516950376656998
  7
FDASTYLE1
 72
     5
 11
-77.49486160359859
 21
-175.8467540610506
 31
0.0
  0
TEXT
  5
3B4
  8
0
 62
     3
 10
-218.8574817188787
 20
-145.4467449057771
 30
0.0
 40
4.0
  1
5.使用圧力　　　　　 　　　　　　最高　　0.8　MPa
 41
0.8316525580850194
  7
FDASTYLE1
 72
     5
 11
-77.49486160359859
 21
-145.4467449057771
 31
0.0
  0
LINE
  5
3B5
  8
LAYER0014
  6
CONTINUOUS
 62
     7
 10
205.4281805745554
 20
32.63184357994065
 30
0.0
 11
208.4281805745554
 21
32.63184357994065
 31
0.0
  0
LINE
  5
3B6
  8
LAYER0014
  6
CONTINUOUS
 62
     7
 10
115.6140326253367
 20
102.159730924301
 30
0.0
 11
115.6140326253367
 21
117.7639942299651
 31
0.0
  0
LINE
  5
3B7
  8
LAYER0014
  6
CONTINUOUS
 62
     7
 10
120.8881805745554
 20
102.159730924301
 30
0.0
 11
114.6140326253367
 21
102.159730924301
 31
0.0
  0
LINE
  5
3B8
  8
LAYER0014
  6
CONTINUOUS
 62
     7
 10
82.8002279988718
 20
135.4048709999846
 30
0.0
 11
46.92172610678196
 21
135.4048709999846
 31
0.0
  0
LINE
  5
3B9
  8
LAYER0014
  6
CONTINUOUS
 62
     7
 10
-197.0988579996634
 20
-68.30550192482009
 30
0.0
 11
-241.673000455718
 21
-68.30550192482009
 31
0.0
  0
LINE
  5
3BA
  8
LAYER0014
  6
CONTINUOUS
 62
     7
 10
-117.3773537882376
 20
-68.29138754493728
 30
0.0
 11
-73.94825375161648
 21
-68.29138754493728
 31
0.0
  0
LINE
  5
3BB
  8
LAYER0014
  6
CONTINUOUS
 62
     7
 10
-0.5718194254446019
 20
22.61971757286057
 30
0.0
 11
-0.5718194254446019
 21
-81.84028433448806
 31
0.0
  0
LINE
  5
3BC
  8
LAYER0014
  6
CONTINUOUS
 62
     7
 10
230.4281805745554
 20
18.98574349754319
 30
0.0
 11
230.4281805745554
 21
-81.84028433448806
 31
0.0
  0
LINE
  5
3BD
  8
LAYER0014
  6
CONTINUOUS
 62
     7
 10
208.4281805745554
 20
-75.85015585548416
 30
0.0
 11
208.4281805745554
 21
-81.84028433448806
 31
0.0
  0
LINE
  5
3BE
  8
LAYER0014
  6
CONTINUOUS
 62
     7
 10
208.4281805745554
 20
-80.84028433448806
 30
0.0
 11
203.4281805745554
 21
-80.84028433448806
 31
0.0
  0
INSERT
  5
3BF
  8
LAYER0014
 62
     7
  2
_OPEN30
 10
208.4281805745554
 20
-80.84028433448806
 30
0.0
 41
1.50000139391263
 42
1.499998500689492
 50
360.0
  0
INSERT
  5
3C0
  8
LAYER0014
 62
     7
  2
_OPEN30
 10
203.4281805745554
 20
-80.84028433448806
 30
0.0
 41
1.50000139391263
 42
1.499998500689492
 50
180.0
  0
LINE
  5
3C1
  8
LAYER0014
  6
CONTINUOUS
 62
     7
 10
-0.5718194254446019
 20
-80.84028433448806
 30
0.0
 11
34.4281805745554
 21
-80.84028433448806
 31
0.0
  0
INSERT
  5
3C2
  8
LAYER0014
 62
     7
  2
_OPEN30
 10
-0.5718194254446019
 20
-80.84028433448806
 30
0.0
 41
1.50000139391263
 42
1.499998500689492
 50
180.0
  0
INSERT
  5
3C3
  8
LAYER0014
 62
     7
  2
_OPEN30
 10
34.4281805745554
 20
-80.84028433448806
 30
0.0
 41
1.50000139391263
 42
1.499998500689492
 50
360.0
  0
LINE
  5
3C4
  8
LAYER0014
  6
CONTINUOUS
 62
     7
 10
230.4281805745554
 20
-80.84028433448806
 30
0.0
 11
208.4281805745554
 21
-80.84028433448806
 31
0.0
  0
INSERT
  5
3C5
  8
LAYER0014
 62
     7
  2
_OPEN30
 10
230.4281805745554
 20
-80.84028433448806
 30
0.0
 41
1.50000139391263
 42
1.499998500689492
 50
360.0
  0
INSERT
  5
3C6
  8
LAYER0014
 62
     7
  2
_OPEN30
 10
208.4281805745554
 20
-80.84028433448806
 30
0.0
 41
1.50000139391263
 42
1.499998500689492
 50
180.0
  0
LINE
  5
3C7
  8
LAYER0014
  6
CONTINUOUS
 62
     7
 10
115.6140326253367
 20
96.15971566551194
 30
0.0
 11
115.6140326253367
 21
102.159730924301
 31
0.0
  0
INSERT
  5
3C8
  8
LAYER0014
 62
     7
  2
_OPEN30
 10
115.6140326253367
 20
102.159730924301
 30
0.0
 41
1.50000139391263
 42
1.499998500689492
 50
90.0
  0
LINE
  5
3C9
  8
LAYER0014
  6
CONTINUOUS
 62
     7
 10
91.65084679464459
 20
117.9529609356169
 30
0.0
 11
82.80023389903678
 21
135.4048739010744
 31
0.0
  0
INSERT
  5
3CA
  8
LAYER0014
 62
     7
  2
_OPEN30
 10
91.65084679464459
 20
117.9529609356169
 30
0.0
 41
1.50000139391263
 42
1.499998500689492
 50
296.891519039245
  0
LINE
  5
3CB
  8
LAYER0014
  6
CONTINUOUS
 62
     7
 10
-171.9145908377859
 20
20.89388213710286
 30
0.0
 11
-197.098847759145
 21
-68.30550309400373
 31
0.0
  0
INSERT
  5
3CC
  8
LAYER0014
 62
     7
  2
_OPEN30
 10
-171.9145908377859
 20
20.89388213710286
 30
0.0
 41
1.50000139391263
 42
1.499998500689492
 50
74.23368117533531
  0
LINE
  5
3CD
  8
LAYER0014
  6
CONTINUOUS
 62
     7
 10
-134.9104636412524
 20
0.1779077480790505
 30
0.0
 11
-117.3773569798562
 21
-68.29138949313314
 31
0.0
  0
INSERT
  5
3CE
  8
LAYER0014
 62
     7
  2
_OPEN30
 10
-134.9104636412524
 20
0.1779077480790505
 30
0.0
 41
1.50000139391263
 42
1.499998500689492
 50
104.3632369287329
  0
TEXT
  5
3CF
  8
LAYER0014
 62
     7
 10
205.3919501254766
 20
33.03149992169121
 30
0.0
 40
4.0
  1
3
 41
0.7999999999999972
  7
FDASTYLE1
 72
     5
 11
208.5919501254766
 21
33.03149992169121
 31
0.0
  0
TEXT
  5
3D0
  8
LAYER0014
 62
     7
 10
205.2421805552435
 20
-79.24028433448807
 30
0.0
 40
3.0
  1
5
 41
0.7620000044504801
  7
FDASTYLE1
 72
     5
 11
207.5281805685949
 21
-79.24028433448807
 31
0.0
  0
TEXT
  5
3D1
  8
LAYER0014
 62
     7
 10
114.9016852928293
 20
103.5954579931764
 30
0.0
 40
4.0
  1
φ115
 50
90.0
 41
0.7619047619047625
  7
FDASTYLE1
 72
     5
 11
114.9016852928293
 21
116.3954579931764
 31
0.0
  0
TEXT
  5
3D2
  8
LAYER0014
 62
     7
 10
71.9797672164303
 20
168.8438282143401
 30
0.0
 40
4.0
  1
押
 41
0.6666666666666643
  7
FDASTYLE1
 72
     5
 11
75.17976721643029
 21
168.8438282143401
 31
0.0
  0
TEXT
  5
3D3
  8
LAYER0014
 62
     7
 10
89.9797672164303
 20
168.8438282143401
 30
0.0
 40
4.0
  1
引
 41
0.6666666666666643
  7
FDASTYLE1
 72
     5
 11
93.17976721643029
 21
168.8438282143401
 31
0.0
  0
TEXT
  5
3D4
  8
LAYER0014
 62
     7
 10
50.29776052731909
 20
136.1172183324919
 30
0.0
 40
4.0
  1
2-Rc3/8
 41
0.8000000000000002
  7
FDASTYLE1
 72
     5
 11
72.69776052731909
 21
136.1172183324919
 31
0.0
  0
TEXT
  5
3D5
  8
LAYER0014
 62
     7
 10
-241.4350808058347
 20
-67.49626216669117
 30
0.0
 40
4.0
  1
6-M6×１２ PCD48
 41
0.7647058823529411
  7
FDASTYLE1
 72
     5
 11
-199.8350808058347
 21
-67.49626216669117
 31
0.0
  0
TEXT
  5
3D6
  8
LAYER0014
 62
     7
 10
-116.7384574482838
 20
-67.35035441316317
 30
0.0
 40
4.0
  1
6-M6×１０ PCD96
 41
0.7647058823529414
  7
FDASTYLE1
 72
     5
 11
-75.13845744828379
 21
-67.35035441316317
 31
0.0
  0
TEXT
  5
3D7
  8
LAYER0014
 62
     7
 10
7.328180574555397
 20
-80.34028433448806
 30
0.0
 40
4.0
  1
MAX 55
 41
0.8000000000000002
  7
FDASTYLE1
 72
     5
 11
26.5281805745554
 21
-80.34028433448806
 31
0.0
  0
TEXT
  5
3D8
  8
LAYER0014
 62
     7
 10
7.257000131825052
 20
-85.17917137048985
 30
0.0
 40
4.0
  1
MIN 35
 41
0.8000000000000002
  7
FDASTYLE1
 72
     5
 11
26.45700013182506
 21
-85.17917137048985
 31
0.0
  0
TEXT
  5
3D9
  8
LAYER0014
 62
     7
 10
211.8851805917215
 20
-80.59007643367087
 30
0.0
 40
3.0
  1
MAX22
 41
0.808640654342452
  7
FDASTYLE1
 72
     5
 11
226.9711805573893
 21
-80.59007643367087
 31
0.0
  0
TEXT
  5
3DA
  8
LAYER0014
 62
     7
 10
211.8851805917215
 20
-84.04028428680435
 30
0.0
 40
3.0
  1
MIN 2
 41
0.808640654342452
  7
FDASTYLE1
 72
     5
 11
226.9711805573893
 21
-84.04028428680435
 31
0.0
  0
CIRCLE
  5
3DB
  8
LAYER0014
  6
CONTINUOUS
 62
     4
 10
73.9281805745554
 20
170.8438282143401
 30
0.0
 40
4.5
  0
CIRCLE
  5
3DC
  8
LAYER0014
  6
CONTINUOUS
 62
     4
 10
91.9281805745554
 20
170.8438282143401
 30
0.0
 40
4.5
  0
VIEWPORT
  5
48
 67
     1
  8
0
 10
0.0
 20
0.0
 30
0.0
 40
1662.0
 41
1140.0
 68
     1
 69
     1
1001
ACAD
1000
MVIEW
1002
{
1070
    16
1010
0.0
1020
0.0
1030
0.0
1020
0.0
1030
0.0
1010
0.0
1020
0.0
1030
1.0
1020
0.0
1030
1.0
1040
0.0
1040
1140.0
1040
0.0
1040
0.0
1040
50.0
1040
0.0
1040
0.0
1070
     0
1070
   100
1070
     0
1070
     1
1070
     0
1070
     0
1070
     0
1070
     0
1040
0.0
1040
0.0
1040
0.0
1040
0.5
1040
0.5
1040
0.0
1040
0.0
1070
     0
1002
{
1002
}
1002
}
  0
ENDSEC
  0
EOF
