  0
SECTION
  2
HEADER
  9
$ACADVER
  1
AC1009
  9
$DWGCODEPAGE
  3
ansi_932
  9
$INSBASE
 10
0.0
 20
0.0
 30
0.0
  9
$EXTMIN
 10
-834.8714117005809
 20
-569.9999999999999
 30
0.0
  9
$EXTMAX
 10
832.9357058502905
 20
569.9999999999999
 30
0.0
  9
$LIMMIN
 10
-297.0
 20
-210.0
  9
$LIMMAX
 10
297.0
 20
210.0
  9
$ORTHOMODE
 70
     0
  9
$REGENMODE
 70
     1
  9
$FILLMODE
 70
     1
  9
$QTEXTMODE
 70
     0
  9
$MIRRTEXT
 70
     1
  9
$DRAGMODE
 70
     2
  9
$LTSCALE
 40
1.0
  9
$OSMODE
 70
    37
  9
$ATTMODE
 70
     1
  9
$TEXTSIZE
 40
0.2
  9
$TRACEWID
 40
0.05
  9
$TEXTSTYLE
  7
STANDARD
  9
$CLAYER
  8
0
  9
$CELTYPE
  6
BYLAYER
  9
$CECOLOR
 62
   256
  9
$DIMSCALE
 40
1.0
  9
$DIMASZ
 40
2.5
  9
$DIMEXO
 40
0.0625
  9
$DIMDLI
 40
0.38
  9
$DIMRND
 40
0.0
  9
$DIMDLE
 40
0.0
  9
$DIMEXE
 40
0.18
  9
$DIMTP
 40
0.0
  9
$DIMTM
 40
0.0
  9
$DIMTXT
 40
0.18
  9
$DIMCEN
 40
0.09
  9
$DIMTSZ
 40
0.0
  9
$DIMTOL
 70
     0
  9
$DIMLIM
 70
     0
  9
$DIMTIH
 70
     1
  9
$DIMTOH
 70
     1
  9
$DIMSE1
 70
     0
  9
$DIMSE2
 70
     0
  9
$DIMTAD
 70
     3
  9
$DIMZIN
 70
     0
  9
$DIMBLK
  1

  9
$DIMASO
 70
     1
  9
$DIMSHO
 70
     1
  9
$DIMPOST
  1

  9
$DIMAPOST
  1

  9
$DIMALT
 70
     0
  9
$DIMALTD
 70
     2
  9
$DIMALTF
 40
25.4
  9
$DIMLFAC
 40
1.0
  9
$DIMTOFL
 70
     0
  9
$DIMTVP
 40
0.0
  9
$DIMTIX
 70
     0
  9
$DIMSOXD
 70
     0
  9
$DIMSAH
 70
     0
  9
$DIMBLK1
  1

  9
$DIMBLK2
  1

  9
$DIMSTYLE
  2
STANDARD
  9
$DIMCLRD
 70
     0
  9
$DIMCLRE
 70
     0
  9
$DIMCLRT
 70
     0
  9
$DIMTFAC
 40
1.0
  9
$DIMGAP
 40
0.09
  9
$LUNITS
 70
     2
  9
$LUPREC
 70
     4
  9
$SKETCHINC
 40
0.1
  9
$FILLETRAD
 40
0.5
  9
$AUNITS
 70
     0
  9
$AUPREC
 70
     0
  9
$MENU
  1
.
  9
$ELEVATION
 40
0.0
  9
$PELEVATION
 40
0.0
  9
$THICKNESS
 40
0.0
  9
$LIMCHECK
 70
     0
  9
$CHAMFERA
 40
0.5
  9
$CHAMFERB
 40
0.5
  9
$SKPOLY
 70
     0
  9
$TDCREATE
 40
2456329.414339016
  9
$TDUPDATE
 40
2456329.414339028
  9
$TDINDWG
 40
0.0000000116
  9
$TDUSRTIMER
 40
0.0000000116
  9
$USRTIMER
 70
     1
  9
$ANGBASE
 50
0.0
  9
$ANGDIR
 70
     0
  9
$PDMODE
 70
     0
  9
$PDSIZE
 40
1.0
  9
$PLINEWID
 40
0.0
  9
$COORDS
 70
     1
  9
$SPLFRAME
 70
     0
  9
$SPLINETYPE
 70
     6
  9
$SPLINESEGS
 70
     8
  9
$ATTDIA
 70
     0
  9
$ATTREQ
 70
     1
  9
$HANDLING
 70
     1
  9
$HANDSEED
  5
7A4
  9
$SURFTAB1
 70
     6
  9
$SURFTAB2
 70
     6
  9
$SURFTYPE
 70
     6
  9
$SURFU
 70
     6
  9
$SURFV
 70
     6
  9
$UCSNAME
  2

  9
$UCSORG
 10
0.0
 20
0.0
 30
0.0
  9
$UCSXDIR
 10
1.0
 20
0.0
 30
0.0
  9
$UCSYDIR
 10
0.0
 20
1.0
 30
0.0
  9
$PUCSNAME
  2

  9
$PUCSORG
 10
0.0
 20
0.0
 30
0.0
  9
$PUCSXDIR
 10
1.0
 20
0.0
 30
0.0
  9
$PUCSYDIR
 10
0.0
 20
1.0
 30
0.0
  9
$USERI1
 70
     0
  9
$USERI2
 70
     0
  9
$USERI3
 70
     0
  9
$USERI4
 70
     0
  9
$USERI5
 70
     0
  9
$USERR1
 40
0.0
  9
$USERR2
 40
0.0
  9
$USERR3
 40
0.0
  9
$USERR4
 40
0.0
  9
$USERR5
 40
0.0
  9
$WORLDVIEW
 70
     1
  9
$SHADEDGE
 70
     3
  9
$SHADEDIF
 70
    70
  9
$TILEMODE
 70
     1
  9
$MAXACTVP
 70
    64
  9
$PLIMCHECK
 70
     0
  9
$PEXTMIN
 10
1.000000000000000E+20
 20
1.000000000000000E+20
 30
1.000000000000000E+20
  9
$PEXTMAX
 10
-1.000000000000000E+20
 20
-1.000000000000000E+20
 30
-1.000000000000000E+20
  9
$PLIMMIN
 10
0.0
 20
0.0
  9
$PLIMMAX
 10
12.0
 20
9.0
  9
$UNITMODE
 70
     0
  9
$VISRETAIN
 70
     0
  9
$PLINEGEN
 70
     1
  9
$PSLTSCALE
 70
     0
  0
ENDSEC
  0
SECTION
  2
TABLES
  0
TABLE
  2
VPORT
 70
     1
  0
VPORT
  2
*ACTIVE
 70
     0
 10
0.0
 20
0.0
 11
1.0
 21
1.0
 12
0.0
 22
0.0
 13
0.0
 23
0.0
 14
0.5
 24
0.5
 15
0.5
 25
0.5
 16
0.0
 26
0.0
 36
1.0
 17
-0.9678529251452268
 27
0.0
 37
0.0
 40
387.6
 41
1.462988699606028
 42
50.0
 43
0.0
 44
0.0
 50
0.0
 51
0.0
 71
     0
 72
  1000
 73
     1
 74
     1
 75
     0
 76
     0
 77
     0
 78
     0
  0
ENDTAB
  0
TABLE
  2
LTYPE
 70
    28
  0
LTYPE
  2
CONTINUOUS
 70
     0
  3
Solid line
 72
    65
 73
     0
 40
0.0
  0
LTYPE
  2
HIDDENX2
 70
     0
  3
CADPAC LINETYPE
 72
    65
 73
     2
 40
9.893992932862261
 49
7.420494699646696
 49
-2.473498233215565
  0
LTYPE
  2
HIDDEN
 70
     0
  3
CADPAC LINETYPE
 72
    65
 73
     2
 40
7.420494699646696
 49
4.946996466431131
 49
-2.473498233215565
  0
LTYPE
  2
HIDDEN2
 70
     0
  3
CADPAC LINETYPE
 72
    65
 73
     2
 40
6.183745583038913
 49
3.710247349823348
 49
-2.473498233215565
  0
LTYPE
  2
DASHED
 70
     0
  3
CADPAC LINETYPE
 72
    65
 73
     2
 40
6.925795053003583
 49
4.946996466431131
 49
-1.978798586572452
  0
LTYPE
  2
DASHED2
 70
     0
  3
CADPAC LINETYPE
 72
    65
 73
     2
 40
4.452296819787989
 49
2.968197879858678
 49
-1.484098939929311
  0
LTYPE
  2
DASHEDX2
 70
     0
  3
CADPAC LINETYPE
 72
    65
 73
     2
 40
11.87279151943466
 49
9.893992932862204
 49
-1.978798586572452
  0
LTYPE
  2
DOTX2
 70
     0
  3
CADPAC LINETYPE
 72
    65
 73
     2
 40
4.328621908127204
 49
0.0
 49
-4.328621908127204
  0
LTYPE
  2
DOT
 70
     0
  3
CADPAC LINETYPE
 72
    65
 73
     2
 40
3.462897526501763
 49
0.0
 49
-3.462897526501763
  0
LTYPE
  2
DOT2
 70
     0
  3
CADPAC LINETYPE
 72
    65
 73
     2
 40
2.597173144876322
 49
0.0
 49
-2.597173144876322
  0
LTYPE
  2
CENTERX2
 70
     0
  3
CADPAC LINETYPE
 72
    65
 73
     4
 40
14.84098939929339
 49
6.183745583038913
 49
-3.091872791519457
 49
2.473498233215565
 49
-3.091872791519457
  0
LTYPE
  2
CENTER
 70
     0
  3
CADPAC LINETYPE
 72
    65
 73
     4
 40
11.3780918727916
 49
4.946996466431131
 49
-2.473498233215565
 49
1.484098939929339
 49
-2.473498233215565
  0
LTYPE
  2
CENTER2
 70
     0
  3
CADPAC LINETYPE
 72
    65
 73
     4
 40
7.915194346289809
 49
3.710247349823348
 49
-1.855123674911674
 49
0.4946996466431131
 49
-1.855123674911674
  0
LTYPE
  2
DASHDOTX2
 70
     0
  3
CADPAC LINETYPE
 72
    65
 73
     4
 40
23.7455830388692
 49
11.87279151943466
 49
-3.957597173144848
 49
3.957597173144848
 49
-3.957597173144848
  0
LTYPE
  2
DASHDOT
 70
     0
  3
CADPAC LINETYPE
 72
    65
 73
     4
 40
11.87279151943466
 49
5.9363957597173
 49
-1.978798586572452
 49
1.978798586572452
 49
-1.978798586572452
  0
LTYPE
  2
DASHDOT2
 70
     0
  3
CADPAC LINETYPE
 72
    65
 73
     4
 40
7.618374558303898
 49
4.452296819787975
 49
-1.484098939929339
 49
0.1978798586572452
 49
-1.484098939929339
  0
LTYPE
  2
DIVIDEX2
 70
     0
  3
CADPAC LINETYPE
 72
    65
 73
     6
 40
31.6607773851589
 49
11.87279151943466
 49
-3.957597173144848
 49
3.957597173144848
 49
-3.957597173144848
 49
3.957597173144848
 49
-3.957597173144848
  0
LTYPE
  2
DIVIDE
 70
     0
  3
CADPAC LINETYPE
 72
    65
 73
     6
 40
15.83038869257956
 49
5.9363957597173
 49
-1.978798586572452
 49
1.978798586572452
 49
-1.978798586572452
 49
1.978798586572452
 49
-1.978798586572452
  0
LTYPE
  2
DIVIDE2
 70
     0
  3
CADPAC LINETYPE
 72
    65
 73
     6
 40
11.87279151943467
 49
4.452296819787975
 49
-1.484098939929339
 49
1.484098939929339
 49
-1.484098939929339
 49
1.484098939929339
 49
-1.484098939929339
  0
LTYPE
  2
BORDERX2
 70
     0
  3
CADPAC LINETYPE
 72
    65
 73
     6
 40
21.6431095406362
 49
6.183745583038913
 49
-3.091872791519457
 49
6.183745583038913
 49
-3.091872791519457
 49
0.0
 49
-3.091872791519457
  0
LTYPE
  2
BORDER
 70
     0
  3
CADPAC LINETYPE
 72
    65
 73
     6
 40
17.31448763250896
 49
4.946996466431131
 49
-2.473498233215565
 49
4.946996466431131
 49
-2.473498233215565
 49
0.0
 49
-2.473498233215565
  0
LTYPE
  2
BORDER2
 70
     0
  3
CADPAC LINETYPE
 72
    65
 73
     6
 40
12.86219081272091
 49
3.957597173144848
 49
-2.473498233215594
 49
1.484098939929311
 49
-2.473498233215594
 49
0.0
 49
-2.473498233215565
  0
LTYPE
  2
PHANTOMX2
 70
     0
  3
CADPAC LINETYPE
 72
    65
 73
     6
 40
18.55123674911674
 49
6.183745583038913
 49
-2.473498233215565
 49
2.473498233215565
 49
-2.473498233215565
 49
2.473498233215565
 49
-2.473498233215565
  0
LTYPE
  2
PHANTOM
 70
     0
  3
CADPAC LINETYPE
 72
    65
 73
     6
 40
15.33568904593651
 49
4.946996466431131
 49
-2.473498233215565
 49
1.484098939929339
 49
-2.473498233215565
 49
1.484098939929339
 49
-2.473498233215565
  0
LTYPE
  2
PHANTOM2
 70
     0
  3
CADPAC LINETYPE
 72
    65
 73
     6
 40
13.1095406360425
 49
3.710247349823348
 49
-2.473498233215565
 49
0.9893992932862261
 49
-2.473498233215565
 49
0.9893992932862261
 49
-2.473498233215565
  0
LTYPE
  2
ACAD_ISO06W100
 70
     0
  3
CADPAC LINETYPE
 72
    65
 73
     8
 40
26.21908127208496
 49
11.87279151943466
 49
-2.473498233215594
 49
1.484098939929311
 49
-2.473498233215594
 49
1.484098939929311
 49
-2.473498233215594
 49
1.484098939929311
 49
-2.473498233215594
  0
LTYPE
  2
ACAD_ISO13W100
 70
     0
  3
CADPAC LINETYPE
 72
    65
 73
     8
 40
19.78798586572452
 49
4.946996466431131
 49
-2.473498233215565
 49
4.946996466431131
 49
-2.473498233215565
 49
0.0
 49
-2.473498233215565
 49
0.0
 49
-2.473498233215565
  0
LTYPE
  2
ACAD_ISO14W100
 70
     0
  3
CADPAC LINETYPE
 72
    65
 73
     8
 40
14.84098939929339
 49
4.946996466431131
 49
-2.473498233215565
 49
0.0
 49
-2.473498233215565
 49
0.0
 49
-2.473498233215565
 49
0.0
 49
-2.473498233215565
  0
ENDTAB
  0
TABLE
  2
LAYER
 70
     3
  0
LAYER
  2
0
 70
     0
 62
     7
  6
CONTINUOUS
  0
LAYER
  2
LAYER0014
 70
     0
 62
     7
  6
CONTINUOUS
  0
LAYER
  2
ZUWAKU
 70
     0
 62
     7
  6
CONTINUOUS
  0
ENDTAB
  0
TABLE
  2
STYLE
 70
     5
  0
STYLE
  2
STANDARD
 70
     0
 40
0.0
 41
1.0
 50
0.0
 71
     0
 42
0.2
  3
txt
  4

  0
STYLE
  2
FDASTYLE1
 70
     0
 40
0.0
 41
0.800000000000002
 50
0.0
 71
     0
 42
0.2
  3
txt.shx
  4
bigfont
  0
STYLE
  2
FDASTYLE0
 70
     4
 40
0.0
 41
0.8
 50
0.0
 71
     0
 42
0.2
  3
txt.shx
  4
bigfont
  0
STYLE
  2
FDASTYLE2
 70
     0
 40
0.0
 41
0.8123476848090983
 50
0.0
 71
     0
 42
0.2
  3
MSMINCHO.TTC
  4

  0
STYLE
  2
FDASTYLE3
 70
     0
 40
0.0
 41
0.77
 50
0.0
 71
     0
 42
0.2
  3
MSGOTHIC.TTC
  4

  0
ENDTAB
  0
TABLE
  2
VIEW
 70
     0
  0
ENDTAB
  0
TABLE
  2
UCS
 70
     0
  0
ENDTAB
  0
TABLE
  2
APPID
 70
     2
  0
APPID
  2
ACAD
 70
     0
  0
APPID
  2
DAFUSIONOUT
 70
     0
  0
ENDTAB
  0
TABLE
  2
DIMSTYLE
 70
     1
  0
DIMSTYLE
  2
STANDARD
 70
     0
  3

  4

  5

  6

  7

 40
1.0
 41
0.18
 42
0.0625
 43
0.38
 44
0.18
 45
0.0
 46
0.0
 47
0.0
 48
0.0
140
0.18
141
0.09
142
0.0
143
25.4
144
1.0
145
0.0
146
1.0
147
0.09
 71
     0
 72
     0
 73
     1
 74
     1
 75
     0
 76
     0
 77
     0
 78
     0
170
     0
171
     2
172
     0
173
     0
174
     0
175
     0
176
     0
177
     0
178
     0
  0
ENDTAB
  0
ENDSEC
  0
SECTION
  2
BLOCKS
  0
BLOCK
  8
0
  2
$MODEL_SPACE
 70
     0
 10
0.0
 20
0.0
 30
0.0
  3
$MODEL_SPACE
  1

  0
ENDBLK
  5
21
  8
0
  0
BLOCK
 67
     1
  8
0
  2
$PAPER_SPACE
 70
     0
 10
0.0
 20
0.0
 30
0.0
  3
$PAPER_SPACE
  1

  0
ENDBLK
  5
1D
 67
     1
  8
0
  0
BLOCK
  8
0
  2
DA_IMAGEDIMGROUP_1
 70
     0
 10
0.0
 20
0.0
 30
0.0
  3
DA_IMAGEDIMGROUP_1
  1

  0
LINE
  5
9A
  8
LAYER0014
  6
CONTINUOUS
 62
     7
 10
-254.9560659194935
 20
5.471586011550737
 30
0.0
 11
-248.2245845857109
 21
7.275274337997857
 31
0.0
  0
ARC
  5
9B
  8
LAYER0014
  6
CONTINUOUS
 62
     7
 10
-158.3634402252905
 20
31.35350133162682
 30
0.0
 40
94.03111267089844
 50
180.0000050089563
 51
195.0000020112748
  0
INSERT
  5
A2
  8
LAYER0014
 62
     7
  2
_OPEN30
 10
-252.3945528961885
 20
31.35349311116558
 30
0.0
 41
1.50000139391263
 42
1.499998500689492
 50
91.64519031296088
  0
INSERT
  5
A3
  8
LAYER0014
 62
     7
  2
_OPEN30
 10
-249.1905195744963
 20
7.016455351881035
 30
0.0
 41
1.50000139391263
 42
1.499998500689492
 50
283.3548167072703
  0
TEXT
  5
A5
  8
LAYER0014
 62
     7
 10
-250.5706730130768
 20
23.59466495396497
 30
0.0
 40
4.0
  1
15ﾟ
 50
-82.49999999999997
 41
0.800000000000002
  7
FDASTYLE1
 72
     5
 11
-249.3176215677643
 21
14.07679428477637
 31
0.0
  0
ENDBLK
  5
4E
  8
0
  0
BLOCK
  8
0
  2
DA_IMAGEDIMGROUP_2
 70
     0
 10
0.0
 20
0.0
 30
0.0
  3
DA_IMAGEDIMGROUP_2
  1

  0
LINE
  5
A6
  8
LAYER0014
  6
CONTINUOUS
 62
     7
 10
-229.074145186485
 20
-39.35720331232117
 30
0.0
 11
-224.1463858770288
 21
-34.4294136801018
 31
0.0
  0
ARC
  5
A7
  8
LAYER0014
  6
CONTINUOUS
 62
     7
 10
-158.3634554840795
 20
31.35349370223229
 30
0.0
 40
94.03108978271484
 50
194.9999919933621
 51
224.999985997999
  0
INSERT
  5
A8
  8
LAYER0014
 62
     7
  2
_OPEN30
 10
-249.1905169802199
 20
7.016469527093186
 30
0.0
 41
1.50000139391263
 42
1.499998500689492
 50
105.4569883880069
  0
INSERT
  5
A9
  8
LAYER0014
 62
     7
  2
_OPEN30
 10
-224.8534929606955
 20
-35.1365112765853
 30
0.0
 41
1.50000139391263
 42
1.499998500689492
 50
314.5429896033537
  0
TEXT
  5
AA
  8
LAYER0014
 62
     7
 10
-240.5826339361394
 20
-11.10089808117447
 30
0.0
 40
4.0
  1
30ﾟ
 50
-59.99999999999999
 41
0.8000000000000016
  7
FDASTYLE1
 72
     5
 11
-235.7826339361394
 21
-19.4147419575051
 31
0.0
  0
ENDBLK
  5
51
  8
0
  0
BLOCK
  8
0
  2
DA_IMAGEDIMGROUP_3
 70
     0
 10
0.0
 20
0.0
 30
0.0
  3
DA_IMAGEDIMGROUP_3
  1

  0
LINE
  5
AB
  8
LAYER0014
  6
CONTINUOUS
 62
     7
 10
-12.87765092627922
 20
15.09072781783287
 30
0.0
 11
27.1223500273951
 21
15.09072781783287
 31
0.0
  0
INSERT
  5
AC
  8
LAYER0014
 62
     7
  2
_OPEN30
 10
-12.87765092627922
 20
15.09072781783287
 30
0.0
 41
1.50000139391263
 42
1.499998500689492
 50
180.0
  0
INSERT
  5
AD
  8
LAYER0014
 62
     7
  2
_OPEN30
 10
27.1223500273951
 20
15.09072781783287
 30
0.0
 41
1.50000139391263
 42
1.499998500689492
 50
360.0
  0
TEXT
  5
AE
  8
LAYER0014
 62
     7
 10
3.922349550557942
 20
15.59072781783287
 30
0.0
 40
4.0
  1
40
 41
0.7999999999999999
  7
FDASTYLE1
 72
     5
 11
10.32234955055794
 21
15.59072781783287
 31
0.0
  0
ENDBLK
  5
54
  8
0
  0
BLOCK
  8
0
  2
DA_IMAGEDIMGROUP_4
 70
     0
 10
0.0
 20
0.0
 30
0.0
  3
DA_IMAGEDIMGROUP_4
  1

  0
LINE
  5
AF
  8
LAYER0014
  6
CONTINUOUS
 62
     7
 10
-15.41765092627922
 20
57.85350133162682
 30
0.0
 11
-23.60465116279045
 21
57.85350133162682
 31
0.0
  0
LINE
  5
B0
  8
LAYER0014
  6
CONTINUOUS
 62
     7
 10
-15.41765092627922
 20
4.853498470603867
 30
0.0
 11
-23.60465116279045
 21
4.853498470603867
 31
0.0
  0
LINE
  5
B1
  8
LAYER0014
  6
CONTINUOUS
 62
     7
 10
-22.60465116279045
 20
57.85350133162682
 30
0.0
 11
-22.60465116279045
 21
4.853498470603867
 31
0.0
  0
INSERT
  5
B2
  8
LAYER0014
 62
     7
  2
_OPEN30
 10
-22.60465116279045
 20
57.85350133162682
 30
0.0
 41
1.50000139391263
 42
1.499998500689492
 50
90.0
  0
INSERT
  5
B3
  8
LAYER0014
 62
     7
  2
_OPEN30
 10
-22.60465116279045
 20
4.853498470603867
 30
0.0
 41
1.50000139391263
 42
1.499998500689492
 50
270.0
  0
TEXT
  5
B4
  8
LAYER0014
 62
     7
 10
-23.10465116279045
 20
18.55349990111535
 30
0.0
 40
4.0
  1
M53×P1.5
 50
90.0
 41
0.7804878048780487
  7
FDASTYLE1
 72
     5
 11
-23.10465116279045
 21
44.15349990111534
 31
0.0
  0
ENDBLK
  5
57
  8
0
  0
BLOCK
  8
0
  2
DA_IMAGEDIMGROUP_5
 70
     0
 10
0.0
 20
0.0
 30
0.0
  3
DA_IMAGEDIMGROUP_5
  1

  0
LINE
  5
B5
  8
LAYER0014
  6
CONTINUOUS
 62
     7
 10
52.62235765678963
 20
120.8934975169296
 30
0.0
 11
52.62235765678963
 21
172.2932024119491
 31
0.0
  0
LINE
  5
B6
  8
LAYER0014
  6
CONTINUOUS
 62
     7
 10
70.62236910088143
 20
129.4468956492538
 30
0.0
 11
70.62236910088143
 21
172.2932024119491
 31
0.0
  0
LINE
  5
B7
  8
LAYER0014
  6
CONTINUOUS
 62
     7
 10
52.62235765678963
 20
163.0341997264022
 30
0.0
 11
70.62236910088143
 21
163.0341997264022
 31
0.0
  0
INSERT
  5
B8
  8
LAYER0014
 62
     7
  2
_OPEN30
 10
52.62235765678963
 20
163.0341997264022
 30
0.0
 41
1.50000139391263
 42
1.499998500689492
 50
180.0
  0
INSERT
  5
B9
  8
LAYER0014
 62
     7
  2
_OPEN30
 10
70.62236910088143
 20
163.0341997264022
 30
0.0
 41
1.50000139391263
 42
1.499998500689492
 50
360.0
  0
TEXT
  5
BA
  8
LAYER0014
 62
     7
 10
58.42236337883553
 20
163.5341997264022
 30
0.0
 40
4.0
  1
18
 41
0.8000000000000007
  7
FDASTYLE1
 72
     5
 11
64.82236337883553
 21
163.5341997264022
 31
0.0
  0
ENDBLK
  5
5A
  8
0
  0
BLOCK
  8
0
  2
DA_IMAGEDIMGROUP_6
 70
     0
 10
0.0
 20
0.0
 30
0.0
  3
DA_IMAGEDIMGROUP_6
  1

  0
LINE
  5
BB
  8
LAYER0014
  6
CONTINUOUS
 62
     7
 10
15.7139199279078
 20
54.35350514632408
 30
0.0
 11
15.7139199279078
 21
21.01000691634361
 31
0.0
  0
INSERT
  5
BC
  8
LAYER0014
 62
     7
  2
_OPEN30
 10
15.7139199279078
 20
54.35350514632408
 30
0.0
 41
1.50000139391263
 42
1.499998500689492
 50
90.0
  0
TEXT
  5
BD
  8
LAYER0014
 62
     7
 10
15.2139199279078
 20
22.50901662970728
 30
0.0
 40
4.0
  1
φ46H8
 50
90.0
 41
0.7692307692307692
  7
FDASTYLE1
 72
     5
 11
15.2139199279078
 21
38.50901662970728
 31
0.0
  0
ENDBLK
  5
5D
  8
0
  0
BLOCK
  8
0
  2
DA_IMAGEDIMGROUP_7
 70
     0
 10
0.0
 20
0.0
 30
0.0
  3
DA_IMAGEDIMGROUP_7
  1

  0
LINE
  5
BE
  8
LAYER0014
  6
CONTINUOUS
 62
     7
 10
-2.417642343210368
 20
67.85349751692955
 30
0.0
 11
-30.60465116279045
 21
67.85349751692955
 31
0.0
  0
LINE
  5
BF
  8
LAYER0014
  6
CONTINUOUS
 62
     7
 10
-2.417642343210368
 20
-5.146502125442581
 30
0.0
 11
-30.60465116279045
 21
-5.146502125442581
 31
0.0
  0
LINE
  5
C0
  8
LAYER0014
  6
CONTINUOUS
 62
     7
 10
-29.60465116279045
 20
67.85349751692955
 30
0.0
 11
-29.60465116279045
 21
-5.146502125442581
 31
0.0
  0
INSERT
  5
C1
  8
LAYER0014
 62
     7
  2
_OPEN30
 10
-29.60465116279045
 20
67.85349751692955
 30
0.0
 41
1.50000139391263
 42
1.499998500689492
 50
90.0
  0
INSERT
  5
C2
  8
LAYER0014
 62
     7
  2
_OPEN30
 10
-29.60465116279045
 20
-5.146502125442581
 30
0.0
 41
1.50000139391263
 42
1.499998500689492
 50
270.0
  0
TEXT
  5
C3
  8
LAYER0014
 62
     7
 10
-30.10465116279045
 20
26.55349769574349
 30
0.0
 40
4.0
  1
φ73
 50
90.0
 41
0.7499999999999996
  7
FDASTYLE1
 72
     5
 11
-30.10465116279045
 21
36.15349769574348
 31
0.0
  0
ENDBLK
  5
60
  8
0
  0
BLOCK
  8
0
  2
DA_IMAGEDIMGROUP_8
 70
     0
 10
0.0
 20
0.0
 30
0.0
  3
DA_IMAGEDIMGROUP_8
  1

  0
LINE
  5
C4
  8
LAYER0014
  6
CONTINUOUS
 62
     7
 10
-2.417642343210368
 20
72.60350514632408
 30
0.0
 11
-37.60465116279045
 21
72.60350514632408
 31
0.0
  0
LINE
  5
C5
  8
LAYER0014
  6
CONTINUOUS
 62
     7
 10
-2.417642343210368
 20
-9.896500575721817
 30
0.0
 11
-37.60465116279045
 21
-9.896500575721817
 31
0.0
  0
LINE
  5
C6
  8
LAYER0014
  6
CONTINUOUS
 62
     7
 10
-36.60465116279045
 20
72.60350514632408
 30
0.0
 11
-36.60465116279045
 21
-9.896500575721817
 31
0.0
  0
INSERT
  5
C7
  8
LAYER0014
 62
     7
  2
_OPEN30
 10
-36.60465116279045
 20
72.60350514632408
 30
0.0
 41
1.50000139391263
 42
1.499998500689492
 50
90.0
  0
INSERT
  5
C8
  8
LAYER0014
 62
     7
  2
_OPEN30
 10
-36.60465116279045
 20
-9.896500575721817
 30
0.0
 41
1.50000139391263
 42
1.499998500689492
 50
270.0
  0
TEXT
  5
C9
  8
LAYER0014
 62
     7
 10
-37.10465116279045
 20
23.35350228530113
 30
0.0
 40
4.0
  1
φ82.5
 50
90.0
 41
0.7692307692307692
  7
FDASTYLE1
 72
     5
 11
-37.10465116279045
 21
39.35350228530113
 31
0.0
  0
ENDBLK
  5
63
  8
0
  0
BLOCK
  8
0
  2
DA_IMAGEDIMGROUP_9
 70
     0
 10
0.0
 20
0.0
 30
0.0
  3
DA_IMAGEDIMGROUP_9
  1

  0
LINE
  5
CA
  8
LAYER0014
  6
CONTINUOUS
 62
     7
 10
9.582350027395101
 20
78.60350514632408
 30
0.0
 11
-44.60465116279045
 21
78.60350514632408
 31
0.0
  0
LINE
  5
CB
  8
LAYER0014
  6
CONTINUOUS
 62
     7
 10
9.582350027395101
 20
-15.89650725144203
 30
0.0
 11
-44.60465116279045
 21
-15.89650725144203
 31
0.0
  0
LINE
  5
CC
  8
LAYER0014
  6
CONTINUOUS
 62
     7
 10
-43.60465116279045
 20
78.60350514632408
 30
0.0
 11
-43.60465116279045
 21
-15.89650725144203
 31
0.0
  0
INSERT
  5
CD
  8
LAYER0014
 62
     7
  2
_OPEN30
 10
-43.60465116279045
 20
78.60350514632408
 30
0.0
 41
1.50000139391263
 42
1.499998500689492
 50
90.0
  0
INSERT
  5
CE
  8
LAYER0014
 62
     7
  2
_OPEN30
 10
-43.60465116279045
 20
-15.89650725144203
 30
0.0
 41
1.50000139391263
 42
1.499998500689492
 50
270.0
  0
TEXT
  5
CF
  8
LAYER0014
 62
     7
 10
-44.10465116279045
 20
23.35349894744103
 30
0.0
 40
4.0
  1
φ94.5
 50
90.0
 41
0.7692307692307692
  7
FDASTYLE1
 72
     5
 11
-44.10465116279045
 21
39.35349894744103
 31
0.0
  0
ENDBLK
  5
66
  8
0
  0
BLOCK
  8
0
  2
DA_IMAGEDIMGROUP_10
 70
     0
 10
0.0
 20
0.0
 30
0.0
  3
DA_IMAGEDIMGROUP_10
  1

  0
LINE
  5
D0
  8
LAYER0014
  6
CONTINUOUS
 62
     7
 10
18.58233286125741
 20
91.35350514632408
 30
0.0
 11
-51.60465116279045
 21
91.35350514632408
 31
0.0
  0
LINE
  5
D1
  8
LAYER0014
  6
CONTINUOUS
 62
     7
 10
18.58233286125741
 20
-28.64650820511635
 30
0.0
 11
-51.60465116279045
 21
-28.64650820511635
 31
0.0
  0
LINE
  5
D2
  8
LAYER0014
  6
CONTINUOUS
 62
     7
 10
-50.60465116279045
 20
91.35350514632408
 30
0.0
 11
-50.60465116279045
 21
-28.64650820511635
 31
0.0
  0
INSERT
  5
D3
  8
LAYER0014
 62
     7
  2
_OPEN30
 10
-50.60465116279045
 20
91.35350514632408
 30
0.0
 41
1.50000139391263
 42
1.499998500689492
 50
90.0
  0
INSERT
  5
D4
  8
LAYER0014
 62
     7
  2
_OPEN30
 10
-50.60465116279045
 20
-28.64650820511635
 30
0.0
 41
1.50000139391263
 42
1.499998500689492
 50
270.0
  0
TEXT
  5
D5
  8
LAYER0014
 62
     7
 10
-51.10465116279045
 20
24.95349847060387
 30
0.0
 40
4.0
  1
φ120
 50
90.0
 41
0.7619047619047618
  7
FDASTYLE1
 72
     5
 11
-51.10465116279045
 21
37.75349847060387
 31
0.0
  0
ENDBLK
  5
69
  8
0
  0
BLOCK
  8
0
  2
DA_IMAGEDIMGROUP_11
 70
     0
 10
0.0
 20
0.0
 30
0.0
  3
DA_IMAGEDIMGROUP_11
  1

  0
LINE
  5
D6
  8
LAYER0014
  6
CONTINUOUS
 62
     7
 10
61.12233095390877
 20
-35.09872820633705
 30
0.0
 11
61.12233095390877
 21
-99.46580027359779
 31
0.0
  0
LINE
  5
D7
  8
LAYER0014
  6
CONTINUOUS
 62
     7
 10
61.12233095390877
 20
-98.46580027359779
 30
0.0
 11
118.6223538420924
 21
-98.46580027359779
 31
0.0
  0
INSERT
  5
D8
  8
LAYER0014
 62
     7
  2
_OPEN30
 10
61.12233095390877
 20
-98.46580027359779
 30
0.0
 41
1.50000139391263
 42
1.499998500689492
 50
180.0
  0
INSERT
  5
D9
  8
LAYER0014
 62
     7
  2
_OPEN30
 10
118.6223538420924
 20
-98.46580027359779
 30
0.0
 41
1.50000139391263
 42
1.499998500689492
 50
360.0
  0
TEXT
  5
DA
  8
LAYER0014
 62
     7
 10
83.47234239800056
 20
-97.96580027359779
 30
0.0
 40
4.0
  1
57.5
 41
0.8000000000000007
  7
FDASTYLE1
 72
     5
 11
96.27234239800058
 21
-97.96580027359779
 31
0.0
  0
ENDBLK
  5
6C
  8
0
  0
BLOCK
  8
0
  2
DA_IMAGEDIMGROUP_12
 70
     0
 10
0.0
 20
0.0
 30
0.0
  3
DA_IMAGEDIMGROUP_12
  1

  0
LINE
  5
DB
  8
LAYER0014
  6
CONTINUOUS
 62
     7
 10
118.6223538420924
 20
-86.68650248307046
 30
0.0
 11
118.6223538420924
 21
-107.9658002735978
 31
0.0
  0
LINE
  5
DC
  8
LAYER0014
  6
CONTINUOUS
 62
     7
 10
202.1223233245142
 20
-106.9658002735978
 30
0.0
 11
118.6223538420924
 21
-106.9658002735978
 31
0.0
  0
INSERT
  5
DD
  8
LAYER0014
 62
     7
  2
_OPEN30
 10
202.1223233245142
 20
-106.9658002735978
 30
0.0
 41
1.50000139391263
 42
1.499998500689492
 50
360.0
  0
INSERT
  5
DE
  8
LAYER0014
 62
     7
  2
_OPEN30
 10
118.6223538420924
 20
-106.9658002735978
 30
0.0
 41
1.50000139391263
 42
1.499998500689492
 50
180.0
  0
TEXT
  5
DF
  8
LAYER0014
 62
     7
 10
154.831976670055
 20
-106.4658002735978
 30
0.0
 40
4.0
  1
83.5
 41
0.8000000000000007
  7
FDASTYLE1
 72
     5
 11
167.6319766700551
 21
-106.4658002735978
 31
0.0
  0
ENDBLK
  5
6F
  8
0
  0
BLOCK
  8
0
  2
DA_IMAGEDIMGROUP_13
 70
     0
 10
0.0
 20
0.0
 30
0.0
  3
DA_IMAGEDIMGROUP_13
  1

  0
LINE
  5
E0
  8
LAYER0014
  6
CONTINUOUS
 62
     7
 10
102.6223614714869
 20
-100.8900470997697
 30
0.0
 11
102.6223614714869
 21
-107.9658002735978
 31
0.0
  0
LINE
  5
E1
  8
LAYER0014
  6
CONTINUOUS
 62
     7
 10
118.6223538420924
 20
-106.9658002735978
 30
0.0
 11
102.6223614714869
 21
-106.9658002735978
 31
0.0
  0
INSERT
  5
E2
  8
LAYER0014
 62
     7
  2
_OPEN30
 10
118.6223538420924
 20
-106.9658002735978
 30
0.0
 41
1.50000139391263
 42
1.499998500689492
 50
360.0
  0
INSERT
  5
E3
  8
LAYER0014
 62
     7
  2
_OPEN30
 10
102.6223614714869
 20
-106.9658002735978
 30
0.0
 41
1.50000139391263
 42
1.499998500689492
 50
180.0
  0
TEXT
  5
E4
  8
LAYER0014
 62
     7
 10
107.4223576567896
 20
-106.4658002735978
 30
0.0
 40
4.0
  1
16
 41
0.8000000000000007
  7
FDASTYLE1
 72
     5
 11
113.8223576567896
 21
-106.4658002735978
 31
0.0
  0
ENDBLK
  5
72
  8
0
  0
BLOCK
  8
0
  2
DA_IMAGEDIMGROUP_14
 70
     0
 10
0.0
 20
0.0
 30
0.0
  3
DA_IMAGEDIMGROUP_14
  1

  0
LINE
  5
E5
  8
LAYER0014
  6
CONTINUOUS
 62
     7
 10
21.12233286125741
 20
-31.18650820511635
 30
0.0
 11
21.12233286125741
 21
-107.9658002735978
 31
0.0
  0
LINE
  5
E6
  8
LAYER0014
  6
CONTINUOUS
 62
     7
 10
101.1223309539088
 20
-106.9658002735978
 30
0.0
 11
21.12233286125741
 21
-106.9658002735978
 31
0.0
  0
INSERT
  5
E7
  8
LAYER0014
 62
     7
  2
_OPEN30
 10
101.1223309539088
 20
-106.9658002735978
 30
0.0
 41
1.50000139391263
 42
1.499998500689492
 50
360.0
  0
INSERT
  5
E8
  8
LAYER0014
 62
     7
  2
_OPEN30
 10
21.12233286125741
 20
-106.9658002735978
 30
0.0
 41
1.50000139391263
 42
1.499998500689492
 50
180.0
  0
TEXT
  5
E9
  8
LAYER0014
 62
     7
 10
57.92233190758309
 20
-106.4658002735978
 30
0.0
 40
4.0
  1
80
 41
0.8000000000000007
  7
FDASTYLE1
 72
     5
 11
64.32233190758309
 21
-106.4658002735978
 31
0.0
  0
ENDBLK
  5
75
  8
0
  0
BLOCK
  8
0
  2
DA_IMAGEDIMGROUP_15
 70
     0
 10
0.0
 20
0.0
 30
0.0
  3
DA_IMAGEDIMGROUP_15
  1

  0
LINE
  5
EA
  8
LAYER0014
  6
CONTINUOUS
 62
     7
 10
12.1223500273951
 20
-106.9658002735978
 30
0.0
 11
0.1223576567896316
 21
-106.9658002735978
 31
0.0
  0
INSERT
  5
EB
  8
LAYER0014
 62
     7
  2
_OPEN30
 10
12.1223500273951
 20
-106.9658002735978
 30
0.0
 41
1.50000139391263
 42
1.499998500689492
 50
360.0
  0
INSERT
  5
EC
  8
LAYER0014
 62
     7
  2
_OPEN30
 10
0.1223576567896316
 20
-106.9658002735978
 30
0.0
 41
1.50000139391263
 42
1.499998500689492
 50
180.0
  0
TEXT
  5
ED
  8
LAYER0014
 62
     7
 10
2.922353842092366
 20
-106.4658002735978
 30
0.0
 40
4.0
  1
12
 41
0.7999999999999999
  7
FDASTYLE1
 72
     5
 11
9.322353842092365
 21
-106.4658002735978
 31
0.0
  0
ENDBLK
  5
78
  8
0
  0
BLOCK
  8
0
  2
DA_IMAGEDIMGROUP_16
 70
     0
 10
0.0
 20
0.0
 30
0.0
  3
DA_IMAGEDIMGROUP_16
  1

  0
LINE
  5
EE
  8
LAYER0014
  6
CONTINUOUS
 62
     7
 10
0.1223576567896316
 20
-12.43650057572182
 30
0.0
 11
0.1223576567896316
 21
-116.4658002735978
 31
0.0
  0
LINE
  5
EF
  8
LAYER0014
  6
CONTINUOUS
 62
     7
 10
202.1223233245142
 20
-86.68650248307046
 30
0.0
 11
202.1223233245142
 21
-116.4658002735978
 31
0.0
  0
LINE
  5
F0
  8
LAYER0014
  6
CONTINUOUS
 62
     7
 10
0.1223576567896316
 20
-115.4658002735978
 30
0.0
 11
202.1223233245142
 21
-115.4658002735978
 31
0.0
  0
INSERT
  5
F1
  8
LAYER0014
 62
     7
  2
_OPEN30
 10
0.1223576567896316
 20
-115.4658002735978
 30
0.0
 41
1.50000139391263
 42
1.499998500689492
 50
180.0
  0
INSERT
  5
F2
  8
LAYER0014
 62
     7
  2
_OPEN30
 10
202.1223233245142
 20
-115.4658002735978
 30
0.0
 41
1.50000139391263
 42
1.499998500689492
 50
360.0
  0
TEXT
  5
F3
  8
LAYER0014
 62
     7
 10
106.5578295363101
 20
-114.9658002735978
 30
0.0
 40
4.0
  1
202
 41
0.7999999999999995
  7
FDASTYLE1
 72
     5
 11
116.1578295363101
 21
-114.9658002735978
 31
0.0
  0
ENDBLK
  5
7B
  8
0
  0
BLOCK
  8
0
  2
DA_IMAGEDIMGROUP_17
 70
     0
 10
0.0
 20
0.0
 30
0.0
  3
DA_IMAGEDIMGROUP_17
  1

  0
LINE
  5
F4
  8
LAYER0014
  6
CONTINUOUS
 62
     7
 10
209.6623233245142
 20
103.8534975169296
 30
0.0
 11
260.3953488372096
 21
103.8534975169296
 31
0.0
  0
LINE
  5
F5
  8
LAYER0014
  6
CONTINUOUS
 62
     7
 10
209.6623233245142
 20
-41.14649866837318
 30
0.0
 11
260.3953488372096
 21
-41.14649866837318
 31
0.0
  0
LINE
  5
F6
  8
LAYER0014
  6
CONTINUOUS
 62
     7
 10
259.3953488372096
 20
103.8534975169296
 30
0.0
 11
259.3953488372096
 21
-41.14649866837318
 31
0.0
  0
INSERT
  5
F7
  8
LAYER0014
 62
     7
  2
_OPEN30
 10
259.3953488372096
 20
103.8534975169296
 30
0.0
 41
1.50000139391263
 42
1.499998500689492
 50
90.0
  0
INSERT
  5
F8
  8
LAYER0014
 62
     7
  2
_OPEN30
 10
259.3953488372096
 20
-41.14649866837318
 30
0.0
 41
1.50000139391263
 42
1.499998500689492
 50
270.0
  0
TEXT
  5
F9
  8
LAYER0014
 62
     7
 10
258.8953488372096
 20
15.01349942427818
 30
0.0
 40
4.0
  1
φ145
 50
90.0
 41
0.7619047619047609
  7
FDASTYLE1
 72
     5
 11
258.8953488372096
 21
27.81349942427816
 31
0.0
  0
TEXT
  5
FA
  8
LAYER0014
 62
     7
 10
258.8953488372096
 20
28.31349942427816
 30
0.0
 40
4.0
  1
h6
 50
90.0
 41
0.7999999999999972
  7
FDASTYLE1
 72
     5
 11
258.8953488372096
 21
34.71349942427814
 31
0.0
  0
TEXT
  5
FB
  8
LAYER0014
 62
     7
 10
256.3953488372096
 20
35.21349942427814
 30
0.0
 40
2.6
  1
 0
 50
90.0
 41
0.8000000000000048
  7
FDASTYLE1
 72
     5
 11
256.3953488372096
 21
39.37349942427817
 31
0.0
  0
TEXT
  5
FC
  8
LAYER0014
 62
     7
 10
259.0953488372095
 20
35.21349942427814
 30
0.0
 40
2.6
  1
-0.025
 50
90.0
 41
0.800000000000001
  7
FDASTYLE1
 72
     5
 11
259.0953488372095
 21
47.69349942427816
 31
0.0
  0
ENDBLK
  5
7E
  8
0
  0
BLOCK
  8
0
  2
DA_IMAGEDIMGROUP_18
 70
     0
 10
0.0
 20
0.0
 30
0.0
  3
DA_IMAGEDIMGROUP_18
  1

  0
LINE
  5
FD
  8
LAYER0014
  6
CONTINUOUS
 62
     7
 10
236.6623691008814
 20
0.3534984706038671
 30
0.0
 11
253.3953488372096
 21
0.3534984706038671
 31
0.0
  0
LINE
  5
FE
  8
LAYER0014
  6
CONTINUOUS
 62
     7
 10
236.6623691008814
 20
62.35350514632408
 30
0.0
 11
253.3953488372096
 21
62.35350514632408
 31
0.0
  0
LINE
  5
FF
  8
LAYER0014
  6
CONTINUOUS
 62
     7
 10
252.3953488372096
 20
0.3534984706038671
 30
0.0
 11
252.3953488372096
 21
62.35350514632408
 31
0.0
  0
INSERT
  5
100
  8
LAYER0014
 62
     7
  2
_OPEN30
 10
252.3953488372096
 20
0.3534984706038671
 30
0.0
 41
1.50000139391263
 42
1.499998500689492
 50
270.0
  0
INSERT
  5
101
  8
LAYER0014
 62
     7
  2
_OPEN30
 10
252.3953488372096
 20
62.35350514632408
 30
0.0
 41
1.50000139391263
 42
1.499998500689492
 50
90.0
  0
TEXT
  5
102
  8
LAYER0014
 62
     7
 10
251.8953488372096
 20
26.55350180846396
 30
0.0
 40
4.0
  1
φ62
 50
90.0
 41
0.7500000000000018
  7
FDASTYLE1
 72
     5
 11
251.8953488372096
 21
36.15350180846399
 31
0.0
  0
ENDBLK
  5
81
  8
0
  0
BLOCK
  8
0
  2
DA_IMAGEDIMGROUP_19
 70
     0
 10
0.0
 20
0.0
 30
0.0
  3
DA_IMAGEDIMGROUP_19
  1

  0
LINE
  5
103
  8
LAYER0014
  6
CONTINUOUS
 62
     7
 10
236.6623691008814
 20
58.35349751692955
 30
0.0
 11
246.3953488372096
 21
58.35349751692955
 31
0.0
  0
LINE
  5
104
  8
LAYER0014
  6
CONTINUOUS
 62
     7
 10
236.6623691008814
 20
4.353497516929551
 30
0.0
 11
246.3953488372096
 21
4.353497516929551
 31
0.0
  0
LINE
  5
105
  8
LAYER0014
  6
CONTINUOUS
 62
     7
 10
245.3953488372096
 20
58.35349751692955
 30
0.0
 11
245.3953488372096
 21
4.353497516929551
 31
0.0
  0
INSERT
  5
106
  8
LAYER0014
 62
     7
  2
_OPEN30
 10
245.3953488372096
 20
58.35349751692955
 30
0.0
 41
1.50000139391263
 42
1.499998500689492
 50
90.0
  0
INSERT
  5
107
  8
LAYER0014
 62
     7
  2
_OPEN30
 10
245.3953488372096
 20
4.353497516929551
 30
0.0
 41
1.50000139391263
 42
1.499998500689492
 50
270.0
  0
TEXT
  5
108
  8
LAYER0014
 62
     7
 10
244.8953488372096
 20
18.55349751692954
 30
0.0
 40
4.0
  1
M54×P1.5
 50
90.0
 41
0.7804878048780496
  7
FDASTYLE1
 72
     5
 11
244.8953488372096
 21
44.15349751692956
 31
0.0
  0
ENDBLK
  5
84
  8
0
  0
BLOCK
  8
0
  2
DA_IMAGEDIMGROUP_20
 70
     0
 10
0.0
 20
0.0
 30
0.0
  3
DA_IMAGEDIMGROUP_20
  1

  0
LINE
  5
109
  8
LAYER0014
  6
CONTINUOUS
 62
     7
 10
227.3249209807642
 20
136.353489887535
 30
0.0
 11
267.3953488372096
 21
136.353489887535
 31
0.0
  0
LINE
  5
10A
  8
LAYER0014
  6
CONTINUOUS
 62
     7
 10
266.3953488372096
 20
136.353489887535
 30
0.0
 11
266.3953488372096
 21
-41.14649866837318
 31
0.0
  0
INSERT
  5
10B
  8
LAYER0014
 62
     7
  2
_OPEN30
 10
266.3953488372096
 20
136.353489887535
 30
0.0
 41
1.50000139391263
 42
1.499998500689492
 50
90.0
  0
INSERT
  5
10C
  8
LAYER0014
 62
     7
  2
_OPEN30
 10
266.3953488372096
 20
-41.14649866837318
 30
0.0
 41
1.50000139391263
 42
1.499998500689492
 50
270.0
  0
TEXT
  5
10D
  8
LAYER0014
 62
     7
 10
265.8953488372096
 20
7.462391632508897
 30
0.0
 40
4.0
  1
6-M10 PCD210
 50
90.0
 41
0.7999999999999995
  7
FDASTYLE1
 72
     5
 11
265.8953488372096
 21
45.86239163250887
 31
0.0
  0
ENDBLK
  5
87
  8
0
  0
BLOCK
  8
0
  2
DA_IMAGEDIMGROUP_21
 70
     0
 10
0.0
 20
0.0
 30
0.0
  3
DA_IMAGEDIMGROUP_21
  1

  0
LINE
  5
10E
  8
LAYER0014
  6
CONTINUOUS
 62
     7
 10
204.6623233245142
 20
146.8535051463241
 30
0.0
 11
274.3953488372096
 21
146.8535051463241
 31
0.0
  0
LINE
  5
10F
  8
LAYER0014
  6
CONTINUOUS
 62
     7
 10
204.6623233245142
 20
-84.14650248307045
 30
0.0
 11
274.3953488372096
 21
-84.14650248307045
 31
0.0
  0
LINE
  5
110
  8
LAYER0014
  6
CONTINUOUS
 62
     7
 10
273.3953488372096
 20
146.8535051463241
 30
0.0
 11
273.3953488372096
 21
-84.14650248307045
 31
0.0
  0
INSERT
  5
111
  8
LAYER0014
 62
     7
  2
_OPEN30
 10
273.3953488372096
 20
146.8535051463241
 30
0.0
 41
1.50000139391263
 42
1.499998500689492
 50
90.0
  0
INSERT
  5
112
  8
LAYER0014
 62
     7
  2
_OPEN30
 10
273.3953488372096
 20
-84.14650248307045
 30
0.0
 41
1.50000139391263
 42
1.499998500689492
 50
270.0
  0
TEXT
  5
113
  8
LAYER0014
 62
     7
 10
272.8953488372096
 20
22.83067772451328
 30
0.0
 40
4.0
  1
φ231
 50
90.0
 41
0.7619047619047594
  7
FDASTYLE1
 72
     5
 11
272.8953488372096
 21
35.63067772451323
 31
0.0
  0
ENDBLK
  5
8A
  8
0
  0
BLOCK
  8
0
  2
DA_IMAGEDIMGROUP_22
 70
     0
 10
0.0
 20
0.0
 30
0.0
  3
DA_IMAGEDIMGROUP_22
  1

  0
LINE
  5
114
  8
LAYER0014
  6
CONTINUOUS
 62
     7
 10
209.1223538420924
 20
16.08513928633873
 30
0.0
 11
234.1223691008814
 21
16.08513928633873
 31
0.0
  0
INSERT
  5
115
  8
LAYER0014
 62
     7
  2
_OPEN30
 10
209.1223538420924
 20
16.08513928633873
 30
0.0
 41
1.50000139391263
 42
1.499998500689492
 50
180.0
  0
INSERT
  5
116
  8
LAYER0014
 62
     7
  2
_OPEN30
 10
234.1223691008814
 20
16.08513928633873
 30
0.0
 41
1.50000139391263
 42
1.499998500689492
 50
360.0
  0
TEXT
  5
117
  8
LAYER0014
 62
     7
 10
218.4223614714869
 20
16.58513928633873
 30
0.0
 40
4.0
  1
25
 41
0.7999999999999972
  7
FDASTYLE1
 72
     5
 11
224.8223614714869
 21
16.58513928633873
 31
0.0
  0
ENDBLK
  5
8D
  8
0
  0
BLOCK
  8
0
  2
DA_IMAGEDIMGROUP_23
 70
     0
 10
0.0
 20
0.0
 30
0.0
  3
DA_IMAGEDIMGROUP_23
  1

  0
LINE
  5
118
  8
LAYER0014
  6
CONTINUOUS
 62
     7
 10
202.1223233245142
 20
149.3935051463241
 30
0.0
 11
202.1223233245142
 21
164.0341997264022
 31
0.0
  0
LINE
  5
119
  8
LAYER0014
  6
CONTINUOUS
 62
     7
 10
70.62236910088143
 20
163.0341997264022
 30
0.0
 11
202.1223233245142
 21
163.0341997264022
 31
0.0
  0
INSERT
  5
11A
  8
LAYER0014
 62
     7
  2
_OPEN30
 10
70.62236910088143
 20
163.0341997264022
 30
0.0
 41
1.50000139391263
 42
1.499998500689492
 50
180.0
  0
INSERT
  5
11B
  8
LAYER0014
 62
     7
  2
_OPEN30
 10
202.1223233245142
 20
163.0341997264022
 30
0.0
 41
1.50000139391263
 42
1.499998500689492
 50
360.0
  0
TEXT
  5
11C
  8
LAYER0014
 62
     7
 10
128.3723462126978
 20
163.5341997264022
 30
0.0
 40
4.0
  1
131.5
 41
0.8
  7
FDASTYLE1
 72
     5
 11
144.3723462126978
 21
163.5341997264022
 31
0.0
  0
ENDBLK
  5
90
  8
0
  0
BLOCK
  8
0
  2
DA_IMAGEDIMGROUP_24
 70
     0
 10
0.0
 20
0.0
 30
0.0
  3
DA_IMAGEDIMGROUP_24
  1

  0
LINE
  5
11D
  8
LAYER0014
  6
CONTINUOUS
 62
     7
 10
219.1223691008814
 20
143.893489887535
 30
0.0
 11
219.1223691008814
 21
164.0341997264022
 31
0.0
  0
LINE
  5
11E
  8
LAYER0014
  6
CONTINUOUS
 62
     7
 10
202.1223233245142
 20
163.0341997264022
 30
0.0
 11
219.1223691008814
 21
163.0341997264022
 31
0.0
  0
INSERT
  5
11F
  8
LAYER0014
 62
     7
  2
_OPEN30
 10
202.1223233245142
 20
163.0341997264022
 30
0.0
 41
1.50000139391263
 42
1.499998500689492
 50
180.0
  0
INSERT
  5
120
  8
LAYER0014
 62
     7
  2
_OPEN30
 10
219.1223691008814
 20
163.0341997264022
 30
0.0
 41
1.50000139391263
 42
1.499998500689492
 50
360.0
  0
TEXT
  5
121
  8
LAYER0014
 62
     7
 10
207.4223462126979
 20
163.5341997264022
 30
0.0
 40
4.0
  1
17
 41
0.7999999999999972
  7
FDASTYLE1
 72
     5
 11
213.8223462126978
 21
163.5341997264022
 31
0.0
  0
ENDBLK
  5
93
  8
0
  0
BLOCK
  8
0
  2
DA_IMAGEDIMGROUP_25
 70
     0
 10
0.0
 20
0.0
 30
0.0
  3
DA_IMAGEDIMGROUP_25
  1

  0
LINE
  5
122
  8
LAYER0014
  6
CONTINUOUS
 62
     7
 10
-91.22819740000961
 20
147.6352010407827
 30
0.0
 11
-98.44015504607388
 21
135.1437256890644
 31
0.0
  0
LINE
  5
123
  8
LAYER0014
  6
CONTINUOUS
 62
     7
 10
-158.3634860016576
 20
165.6240495419739
 30
0.0
 11
-158.3634860016576
 21
160.8836565135116
 31
0.0
  0
ARC
  5
124
  8
LAYER0014
  6
CONTINUOUS
 62
     7
 10
-158.3634860016576
 20
31.35348615084054
 30
0.0
 40
133.2705633911334
 50
59.99999659714938
 51
90.0
  0
INSERT
  5
125
  8
LAYER0014
 62
     7
  2
_OPEN30
 10
-91.72819745144368
 20
146.7691756666937
 30
0.0
 41
1.50000139391263
 42
1.499998500689492
 50
330.3224374116989
  0
INSERT
  5
126
  8
LAYER0014
 62
     7
  2
_OPEN30
 10
-158.3634860016576
 20
164.6240495419739
 30
0.0
 41
1.50000139391263
 42
1.499998500689492
 50
179.6775591854515
  0
TEXT
  5
127
  8
LAYER0014
 62
     7
 10
-128.3775566142095
 20
161.808258653621
 30
0.0
 40
4.0
  1
30°
 50
-15.00000170142531
 41
0.7500000000000014
  7
FDASTYLE1
 72
     5
 11
-119.1046687556177
 21
159.323595545274
 31
0.0
  0
ENDBLK
  5
96
  8
0
  0
BLOCK
  8
0
  2
DA_IMAGEDIMGROUP_26
 70
     0
 10
0.0
 20
0.0
 30
0.0
  3
DA_IMAGEDIMGROUP_26
  1

  0
LINE
  5
128
  8
LAYER0014
  6
CONTINUOUS
 62
     7
 10
-225.4987746033057
 20
147.6352010407827
 30
0.0
 11
-218.2868169572414
 21
135.1437256890644
 31
0.0
  0
LINE
  5
129
  8
LAYER0014
  6
CONTINUOUS
 62
     7
 10
-158.3634860016576
 20
165.6240495419739
 30
0.0
 11
-158.3634860016576
 21
160.8836565135116
 31
0.0
  0
ARC
  5
12A
  8
LAYER0014
  6
CONTINUOUS
 62
     7
 10
-158.3634860016576
 20
31.35348615084054
 30
0.0
 40
133.2705633911334
 50
90.00000000000001
 51
120.0000034028506
  0
INSERT
  5
12B
  8
LAYER0014
 62
     7
  2
_OPEN30
 10
-158.3634860016577
 20
164.6240495419739
 30
0.0
 41
1.50000139391263
 42
1.499998500689492
 50
0.322440814550676
  0
INSERT
  5
12C
  8
LAYER0014
 62
     7
  2
_OPEN30
 10
-224.9987745518716
 20
146.7691756666937
 30
0.0
 41
1.50000139391263
 42
1.499998500689492
 50
209.6775625883014
  0
TEXT
  5
12D
  8
LAYER0014
 62
     7
 10
-197.6223032476976
 20
159.323595545274
 30
0.0
 40
4.0
  1
30°
 50
15.00000170142529
 41
0.7500000000000026
  7
FDASTYLE1
 72
     5
 11
-188.3494153891057
 21
161.808258653621
 31
0.0
  0
ENDBLK
  5
99
  8
0
  0
BLOCK
  8
0
  2
_OPEN30
 70
     0
 10
0.0
 20
0.0
 30
0.0
  3
_OPEN30
  1

  0
LINE
  5
9F
  8
0
  6
BYBLOCK
 62
     0
 10
-1.0
 20
0.267949
 30
0.0
 11
0.0
 21
0.0
 31
0.0
  0
LINE
  5
A0
  8
0
  6
BYBLOCK
 62
     0
 10
0.0
 20
0.0
 30
0.0
 11
-1.0
 21
-0.267949
 31
0.0
  0
LINE
  5
A1
  8
0
  6
BYBLOCK
 62
     0
 10
0.0
 20
0.0
 30
0.0
 11
-1.0
 21
0.0
 31
0.0
  0
ENDBLK
  5
9E
  8
0
  0
ENDSEC
  0
SECTION
  2
ENTITIES
  0
LINE
  5
12E
  8
ZUWAKU
  6
CONTINUOUS
 62
     3
 10
-277.0
 20
-190.0
 30
0.0
 11
-277.0
 21
190.0
 31
0.0
  0
LINE
  5
12F
  8
ZUWAKU
  6
CONTINUOUS
 62
     3
 10
277.0
 20
-190.0
 30
0.0
 11
277.0
 21
190.0
 31
0.0
  0
LINE
  5
130
  8
ZUWAKU
  6
CONTINUOUS
 62
     3
 10
-277.0
 20
-190.0
 30
0.0
 11
277.0
 21
-190.0
 31
0.0
  0
LINE
  5
131
  8
ZUWAKU
  6
CONTINUOUS
 62
     3
 10
-277.0
 20
189.9999999999999
 30
0.0
 11
277.0
 21
189.9999999999999
 31
0.0
  0
LINE
  5
132
  8
ZUWAKU
  6
CONTINUOUS
 62
     3
 10
97.00000000000001
 20
-190.0
 30
0.0
 11
97.00000000000001
 21
-130.0
 31
0.0
  0
LINE
  5
133
  8
ZUWAKU
  6
CONTINUOUS
 62
     3
 10
97.00000000000001
 20
-176.0
 30
0.0
 11
277.0
 21
-176.0
 31
0.0
  0
LINE
  5
134
  8
ZUWAKU
  6
CONTINUOUS
 62
     3
 10
146.0
 20
-162.0
 30
0.0
 11
277.0
 21
-162.0
 31
0.0
  0
LINE
  5
135
  8
ZUWAKU
  6
CONTINUOUS
 62
     3
 10
146.0
 20
-148.0
 30
0.0
 11
277.0
 21
-148.0
 31
0.0
  0
LINE
  5
136
  8
ZUWAKU
  6
CONTINUOUS
 62
     3
 10
146.0
 20
-138.0
 30
0.0
 11
277.0
 21
-138.0
 31
0.0
  0
LINE
  5
137
  8
ZUWAKU
  6
CONTINUOUS
 62
     3
 10
146.0
 20
-176.0
 30
0.0
 11
146.0
 21
-130.0
 31
0.0
  0
LINE
  5
138
  8
ZUWAKU
  6
CONTINUOUS
 62
     3
 10
255.0
 20
-176.0
 30
0.0
 11
255.0
 21
-130.0
 31
0.0
  0
LINE
  5
139
  8
ZUWAKU
  6
CONTINUOUS
 62
     3
 10
171.0
 20
-190.0
 30
0.0
 11
171.0
 21
-176.0
 31
0.0
  0
LINE
  5
13A
  8
ZUWAKU
  6
CONTINUOUS
 62
     3
 10
97.00000000000001
 20
-130.0
 30
0.0
 11
277.0
 21
-130.0
 31
0.0
  0
LINE
  5
13B
  8
ZUWAKU
  6
CONTINUOUS
 62
     3
 10
226.0
 20
-176.0
 30
0.0
 11
226.0
 21
-148.0
 31
0.0
  0
LINE
  5
13C
  8
ZUWAKU
  6
CONTINUOUS
 62
     4
 10
105.0
 20
-172.0
 30
0.0
 11
105.0
 21
-130.0
 31
0.0
  0
LINE
  5
13D
  8
ZUWAKU
  6
CONTINUOUS
 62
     4
 10
109.0
 20
-172.0
 30
0.0
 11
109.0
 21
-130.0
 31
0.0
  0
LINE
  5
13E
  8
ZUWAKU
  6
CONTINUOUS
 62
     4
 10
121.5
 20
-176.0
 30
0.0
 11
121.5
 21
-130.0
 31
0.0
  0
LINE
  5
13F
  8
ZUWAKU
  6
CONTINUOUS
 62
     4
 10
97.00000000000001
 20
-137.0
 30
0.0
 11
146.0
 21
-137.0
 31
0.0
  0
LINE
  5
140
  8
ZUWAKU
  6
CONTINUOUS
 62
     4
 10
97.00000000000001
 20
-144.0
 30
0.0
 11
146.0
 21
-144.0
 31
0.0
  0
LINE
  5
141
  8
ZUWAKU
  6
CONTINUOUS
 62
     4
 10
97.00000000000001
 20
-165.0
 30
0.0
 11
146.0
 21
-165.0
 31
0.0
  0
LINE
  5
142
  8
ZUWAKU
  6
CONTINUOUS
 62
     4
 10
97.00000000000001
 20
-172.0
 30
0.0
 11
146.0
 21
-172.0
 31
0.0
  0
LINE
  5
143
  8
ZUWAKU
  6
CONTINUOUS
 62
     4
 10
255.0
 20
-166.0
 30
0.0
 11
277.0
 21
-166.0
 31
0.0
  0
LINE
  5
144
  8
ZUWAKU
  6
CONTINUOUS
 62
     4
 10
153.0
 20
-139.5
 30
0.0
 11
153.0
 21
-130.0
 31
0.0
  0
LINE
  5
145
  8
ZUWAKU
  6
CONTINUOUS
 62
     4
 10
202.0
 20
-148.0
 30
0.0
 11
202.0
 21
-146.5
 31
0.0
  0
LINE
  5
146
  8
ZUWAKU
  6
CONTINUOUS
 62
     4
 10
226.0
 20
-148.0
 30
0.0
 11
226.0
 21
-146.5
 31
0.0
  0
LINE
  5
147
  8
ZUWAKU
  6
CONTINUOUS
 62
     4
 10
243.0
 20
-148.0
 30
0.0
 11
243.0
 21
-146.5
 31
0.0
  0
LINE
  5
148
  8
ZUWAKU
  6
CONTINUOUS
 62
     4
 10
202.0
 20
-139.5
 30
0.0
 11
202.0
 21
-130.0
 31
0.0
  0
LINE
  5
149
  8
ZUWAKU
  6
CONTINUOUS
 62
     4
 10
226.0
 20
-139.5
 30
0.0
 11
226.0
 21
-130.0
 31
0.0
  0
LINE
  5
14A
  8
ZUWAKU
  6
CONTINUOUS
 62
     4
 10
243.0
 20
-139.5
 30
0.0
 11
243.0
 21
-130.0
 31
0.0
  0
LINE
  5
14B
  8
ZUWAKU
  6
CONTINUOUS
 62
     4
 10
97.00000000000001
 20
-151.0
 30
0.0
 11
146.0
 21
-151.0
 31
0.0
  0
LINE
  5
14C
  8
ZUWAKU
  6
CONTINUOUS
 62
     4
 10
97.00000000000001
 20
-158.0
 30
0.0
 11
146.0
 21
-158.0
 31
0.0
  0
LINE
  5
14D
  8
ZUWAKU
  6
CONTINUOUS
 62
     4
 10
101.0
 20
-130.5
 30
0.0
 11
98.00000000000001
 21
-136.5
 31
0.0
  0
LINE
  5
14E
  8
ZUWAKU
  6
CONTINUOUS
 62
     4
 10
101.0
 20
-130.5
 30
0.0
 11
104.0
 21
-136.5
 31
0.0
  0
LINE
  5
14F
  8
ZUWAKU
  6
CONTINUOUS
 62
     4
 10
98.00000000000001
 20
-136.5
 30
0.0
 11
104.0
 21
-136.5
 31
0.0
  0
LINE
  5
150
  8
ZUWAKU
  6
CONTINUOUS
 62
     4
 10
101.0
 20
-158.5
 30
0.0
 11
98.00000000000001
 21
-164.5
 31
0.0
  0
LINE
  5
151
  8
ZUWAKU
  6
CONTINUOUS
 62
     4
 10
101.0
 20
-158.5
 30
0.0
 11
104.0
 21
-164.5
 31
0.0
  0
LINE
  5
152
  8
ZUWAKU
  6
CONTINUOUS
 62
     4
 10
98.00000000000001
 20
-164.5
 30
0.0
 11
104.0
 21
-164.5
 31
0.0
  0
LINE
  5
153
  8
ZUWAKU
  6
CONTINUOUS
 62
     4
 10
101.0
 20
-151.5
 30
0.0
 11
98.00000000000001
 21
-157.5
 31
0.0
  0
LINE
  5
154
  8
ZUWAKU
  6
CONTINUOUS
 62
     4
 10
101.0
 20
-151.5
 30
0.0
 11
104.0
 21
-157.5
 31
0.0
  0
LINE
  5
155
  8
ZUWAKU
  6
CONTINUOUS
 62
     4
 10
98.00000000000001
 20
-157.5
 30
0.0
 11
104.0
 21
-157.5
 31
0.0
  0
LINE
  5
156
  8
ZUWAKU
  6
CONTINUOUS
 62
     4
 10
101.0
 20
-144.5
 30
0.0
 11
98.00000000000001
 21
-150.5
 31
0.0
  0
LINE
  5
157
  8
ZUWAKU
  6
CONTINUOUS
 62
     4
 10
101.0
 20
-144.5
 30
0.0
 11
104.0
 21
-150.5
 31
0.0
  0
LINE
  5
158
  8
ZUWAKU
  6
CONTINUOUS
 62
     4
 10
98.00000000000001
 20
-150.5
 30
0.0
 11
104.0
 21
-150.5
 31
0.0
  0
LINE
  5
159
  8
ZUWAKU
  6
CONTINUOUS
 62
     4
 10
101.0
 20
-137.5
 30
0.0
 11
98.00000000000001
 21
-143.5
 31
0.0
  0
LINE
  5
15A
  8
ZUWAKU
  6
CONTINUOUS
 62
     4
 10
101.0
 20
-137.5
 30
0.0
 11
104.0
 21
-143.5
 31
0.0
  0
LINE
  5
15B
  8
ZUWAKU
  6
CONTINUOUS
 62
     4
 10
98.00000000000001
 20
-143.5
 30
0.0
 11
104.0
 21
-143.5
 31
0.0
  0
LINE
  5
15C
  8
ZUWAKU
  6
CONTINUOUS
 62
     4
 10
172.6666666666666
 20
-176.0
 30
0.0
 11
172.6666666666666
 21
-162.0
 31
0.0
  0
LINE
  5
15D
  8
ZUWAKU
  6
CONTINUOUS
 62
     4
 10
199.3333333333333
 20
-176.0
 30
0.0
 11
199.3333333333333
 21
-161.9509415757253
 31
0.0
  0
LINE
  5
15E
  8
ZUWAKU
  6
CONTINUOUS
 62
     4
 10
212.6666666666666
 20
-167.5
 30
0.0
 11
212.6666666666666
 21
-161.9509415757253
 31
0.0
  0
LINE
  5
15F
  8
ZUWAKU
  6
CONTINUOUS
 62
     4
 10
226.0
 20
-155.0
 30
0.0
 11
255.0
 21
-155.0
 31
0.0
  0
LINE
  5
160
  8
ZUWAKU
  6
CONTINUOUS
 62
     4
 10
146.0
 20
-166.0
 30
0.0
 11
226.0
 21
-166.0
 31
0.0
  0
TEXT
  5
162
  8
ZUWAKU
 62
     7
 10
148.3132301474747
 20
-130.821188728956
 30
0.0
 40
2.6656
  1
符号
 41
0.8
  7
FDASTYLE0
  0
TEXT
  5
163
  8
ZUWAKU
 62
     7
 10
162.4141311219058
 20
-135.8245525019963
 30
0.0
 40
4.0
  1
品       名
 41
0.765957446808511
  7
FDASTYLE1
 72
     5
 11
191.2141311219058
 21
-135.8245525019963
 31
0.0
  0
TEXT
  5
164
  8
ZUWAKU
 62
     7
 10
207.2331564413096
 20
-135.8245525019963
 30
0.0
 40
4.0
  1
材  料
 41
0.7272727272727279
  7
FDASTYLE1
 72
     5
 11
220.0331564413096
 21
-135.8245525019963
 31
0.0
  0
TEXT
  5
165
  8
ZUWAKU
 62
     7
 10
229.516061684855
 20
-135.8245525019963
 30
0.0
 40
4.0
  1
個 数
 41
0.7058823529411761
  7
FDASTYLE1
 72
     5
 11
239.116061684855
 21
-135.8245525019963
 31
0.0
  0
TEXT
  5
166
  8
ZUWAKU
 62
     7
 10
245.721810952888
 20
-133.5649080050572
 30
0.0
 40
2.5
  1
単重量
 41
0.6666666666666666
  7
FDASTYLE1
 72
     5
 11
251.721810952888
 21
-133.5649080050572
 31
0.0
  0
TEXT
  5
167
  8
ZUWAKU
 62
     7
 10
244.7089516236359
 20
-137.3631304897525
 30
0.0
 40
2.5
  1
(kg)
 41
0.8
  7
FDASTYLE1
 72
     5
 11
252.7089516236359
 21
-137.3631304897525
 31
0.0
  0
TEXT
  5
168
  8
ZUWAKU
 62
     7
 10
259.1421970654778
 20
-135.8245525019963
 30
0.0
 40
4.0
  1
記  事
 41
0.7272727272727279
  7
FDASTYLE1
 72
     5
 11
271.9421970654778
 21
-135.8245525019963
 31
0.0
  0
TEXT
  5
169
  8
ZUWAKU
 62
     7
 10
258.8450794551645
 20
-165.4873041997729
 30
0.0
 40
3.0
  1
コード番号
 41
0.6666666666666666
  7
FDASTYLE1
 72
     5
 11
270.8450794551645
 21
-165.4873041997729
 31
0.0
  0
TEXT
  5
16A
  8
ZUWAKU
 62
     7
 10
101.9119920158317
 20
-175.1879010540338
 30
0.0
 40
2.5
  1
訂 正 来 歴
 41
0.717948717948718
  7
FDASTYLE1
 72
     5
 11
115.9119920158317
 21
-175.1879010540338
 31
0.0
  0
TEXT
  5
16B
  8
ZUWAKU
 62
     7
 10
125.890334846765
 20
-175.2166697391651
 30
0.0
 40
2.5
  1
工 事 番 号
 41
0.717948717948718
  7
FDASTYLE1
 72
     5
 11
139.890334846765
 21
-175.2166697391651
 31
0.0
  0
TEXT
  5
16C
  8
ZUWAKU
 62
     7
 10
99.96483784660289
 20
-165.9634530565915
 30
0.0
 40
2.0825
  1
記号
 41
0.8
  7
FDASTYLE0
  0
TEXT
  5
16D
  8
ZUWAKU
 62
     7
 10
105.9042249067618
 20
-165.9634530565915
 30
0.0
 40
2.0825
  1
理由
 41
0.8
  7
FDASTYLE0
  0
TEXT
  5
16E
  8
ZUWAKU
 62
     7
 10
111.6193667909843
 20
-169.8786046700178
 30
0.0
 40
3.0
  1
日 付
 41
0.7058823529411754
  7
FDASTYLE1
 72
     5
 11
118.8193667909843
 21
-169.8786046700178
 31
0.0
  0
TEXT
  5
16F
  8
ZUWAKU
 62
     7
 10
153.4481689819652
 20
-165.7187911464244
 30
0.0
 40
3.0
  1
承   認
 41
0.7407407407407408
  7
FDASTYLE1
 72
     5
 11
165.4481689819652
 21
-165.7187911464244
 31
0.0
  0
TEXT
  5
170
  8
ZUWAKU
 62
     7
 10
179.863228033234
 20
-165.4873041997729
 30
0.0
 40
3.0
  1
検   図
 41
0.7407407407407408
  7
FDASTYLE1
 72
     5
 11
191.863228033234
 21
-165.4873041997729
 31
0.0
  0
TEXT
  5
171
  8
ZUWAKU
 62
     7
 10
201.4771920983751
 20
-165.4873041997729
 30
0.0
 40
3.0
  1
担  当
 41
0.7272727272727269
  7
FDASTYLE1
 72
     5
 11
211.0771920983751
 21
-165.4873041997729
 31
0.0
  0
TEXT
  5
172
  8
ZUWAKU
 62
     7
 10
214.6770574841112
 20
-165.4873041997729
 30
0.0
 40
3.0
  1
製  図
 41
0.7272727272727269
  7
FDASTYLE1
 72
     5
 11
224.2770574841112
 21
-165.4873041997729
 31
0.0
  0
TEXT
  5
173
  8
ZUWAKU
 62
     7
 10
226.9462372304199
 20
-153.2184960272417
 30
0.0
 40
3.0
  1
作図
 41
0.6666666666666683
  7
FDASTYLE1
 72
     5
 11
231.7462372304199
 21
-153.2184960272417
 31
0.0
  0
TEXT
  5
174
  8
ZUWAKU
 62
     7
 10
228.1036719636776
 20
-160.2371566401815
 30
0.0
 40
4.0
  1
第 三 角 法
 41
0.7179487179487182
  7
FDASTYLE1
 72
     5
 11
250.5036719636776
 21
-160.2371566401815
 31
0.0
  0
TEXT
  5
175
  8
ZUWAKU
 62
     7
 10
227.409211123723
 20
-166.413251986379
 30
0.0
 40
3.0
  1
尺度
 41
0.6666666666666683
  7
FDASTYLE1
 72
     5
 11
232.209211123723
 21
-166.413251986379
 31
0.0
  0
TEXT
  5
177
  8
ZUWAKU
 62
     3
 10
105.379154370034
 20
-185.9272077185017
 30
0.0
 40
7.0
  1
株式会社 野村製作所
 41
0.5763738641280831
  7
FDASTYLE2
 72
     5
 11
161.379154370034
 21
-185.9272077185017
 31
0.0
  0
TEXT
  5
179
  8
ZUWAKU
 62
     3
 10
183.6118217934165
 20
-187.1216685584563
 30
0.0
 40
8.0
  1
２－
 41
0.8244023083264632
  7
FDASTYLE3
 72
     5
 11
199.6118217934165
 21
-187.1216685584563
 31
0.0
  0
TEXT
  5
17A
  8
ZUWAKU
 62
     3
 10
200.5237794178233
 20
-187.1216685584563
 30
0.0
 40
8.0
  1
C408139
 41
1.564945226917058
  7
FDASTYLE3
 72
     5
 11
256.5237794178233
 21
-187.1216685584563
 31
0.0
  0
TEXT
  5
17B
  8
ZUWAKU
 62
     6
 10
165.7570051766932
 20
-145.3589000228561
 30
0.0
 40
5.0
  1
外　形　図
 41
0.5833333333333334
  7
FDASTYLE1
 72
     5
 11
183.2570051766932
 21
-145.3589000228561
 31
0.0
  0
TEXT
  5
17C
  8
ZUWAKU
 62
     6
 10
152.0109139428571
 20
-158.8735234410452
 30
0.0
 40
6.0
  1
AXN46-1型ｴｱｰｼﾘﾝﾀﾞ
 41
0.6913580246913579
  7
FDASTYLE1
 72
     5
 11
219.2109139428571
 21
-158.8735234410452
 31
0.0
  0
TEXT
  5
17D
  8
ZUWAKU
 62
     4
 10
239.3011788906399
 20
-172.297487439201
 30
0.0
 40
3.0
  1
1/1
 41
0.7000000000000013
  7
FDASTYLE1
 72
     5
 11
245.6011788906399
 21
-172.297487439201
 31
0.0
  0
LINE
  5
17E
  8
0
  6
CENTER
 62
     7
 10
-158.3634860016576
 20
159.8836565135116
 30
0.0
 11
-158.3634860016576
 21
-97.93883036392982
 31
0.0
  0
LINE
  5
17F
  8
0
  6
CENTER
 62
     7
 10
-278.9357058502905
 20
31.35350133162682
 30
0.0
 11
-56.31540174262443
 21
31.35350133162682
 31
0.0
  0
LINE
  5
180
  8
0
  6
CENTER
 62
     7
 10
-218.2453280274939
 20
135.0719117292015
 30
0.0
 11
-204.0154374151433
 21
110.4250215829693
 31
0.0
  0
LINE
  5
181
  8
0
  6
CENTER
 62
     7
 10
-223.5568400270153
 20
-33.83988726310237
 30
0.0
 11
-198.5080963632776
 21
-8.791147822266808
 31
0.0
  0
LINE
  5
182
  8
0
  6
CENTER
 62
     7
 10
-247.0111420617676
 20
7.600428321998137
 30
0.0
 11
-212.914886473004
 21
16.73649149651281
 31
0.0
  0
LINE
  5
183
  8
0
  6
CENTER
 62
     7
 10
-259.1368803048603
 20
-26.82804879434845
 30
0.0
 11
-238.8052243597725
 21
-15.0895615506961
 31
0.0
  0
LINE
  5
184
  8
0
  6
CENTER
 62
     7
 10
-259.1368679547617
 20
89.53504800481527
 30
0.0
 11
-238.8051987951752
 21
77.79655313176839
 31
0.0
  0
LINE
  5
185
  8
0
  6
CENTER
 62
     7
 10
-203.576698932948
 20
-46.95810812302899
 30
0.0
 11
-218.8791052439832
 21
-73.46265285609481
 31
0.0
  0
LINE
  5
186
  8
0
  6
CENTER
 62
     7
 10
-194.4316125075542
 20
-31.11832356135666
 30
0.0
 11
-122.3762183348857
 21
93.68527786510354
 31
0.0
  0
LINE
  5
187
  8
0
  6
CENTER
 62
     7
 10
-122.2641655066794
 20
-31.17235071615893
 30
0.0
 11
-194.3528476813621
 21
93.68890722003742
 31
0.0
  0
LINE
  5
188
  8
0
  6
CENTER
 62
     7
 10
-208.5645075313063
 20
60.33707717189371
 30
0.0
 11
-220.6515584367857
 21
67.31553939113199
 31
0.0
  0
LINE
  5
189
  8
0
  6
CENTER
 62
     7
 10
-208.6026285883703
 20
2.347915561120303
 30
0.0
 11
-220.7897264636735
 21
-4.688308804114072
 31
0.0
  0
ARC
  5
18A
  8
0
  6
CENTER
 62
     7
 10
-158.3634860016576
 20
31.35350133162682
 30
0.0
 40
105.0
 50
233.1712418304087
 51
246.9290186679986
  0
ARC
  5
18B
  8
0
  6
CENTER
 62
     7
 10
-158.3634860016576
 20
31.35350133162682
 30
0.0
 40
105.0
 50
203.9487692401294
 51
216.0982824149914
  0
ARC
  5
18C
  8
0
  6
CENTER
 62
     7
 10
-158.3634860016576
 20
31.35350133162682
 30
0.0
 40
105.0
 50
263.9487640795924
 51
276.0982772544543
  0
ARC
  5
18D
  8
0
  6
CENTER
 62
     7
 10
-158.3634860016576
 20
31.35350133162682
 30
0.0
 40
105.0
 50
113.1712485090172
 51
126.9290116862287
  0
ARC
  5
18E
  8
0
  6
CENTER
 62
     7
 10
-158.3634860016576
 20
31.35350133162682
 30
0.0
 40
105.0
 50
83.94876225835952
 51
96.0982822634107
  0
ARC
  5
18F
  8
0
  6
CENTER
 62
     7
 10
-158.3634860016576
 20
31.35350133162682
 30
0.0
 40
105.0
 50
143.9487639280116
 51
156.0982771028736
  0
CIRCLE
  5
190
  8
0
  6
CENTER
 62
     7
 10
-158.3634860016576
 20
31.35350133162682
 30
0.0
 40
31.99999809265137
  0
ARC
  5
191
  8
0
  6
CENTER
 62
     7
 10
-158.3634860016576
 20
31.35350133162682
 30
0.0
 40
54.49999618530273
 50
54.03784075068877
 51
66.22324656963919
  0
ARC
  5
192
  8
0
  6
CENTER
 62
     7
 10
-158.3634860016576
 20
31.35350133162682
 30
0.0
 40
54.49999618530273
 50
293.555079640848
 51
306.0017948370648
  0
ARC
  5
193
  8
0
  6
CENTER
 62
     7
 10
-158.3634860016576
 20
31.35350133162682
 30
0.0
 40
54.49999618530273
 50
233.1878801712269
 51
246.4695859934777
  0
ARC
  5
194
  8
0
  6
CENTER
 62
     7
 10
-158.3634860016576
 20
31.35350133162682
 30
0.0
 40
54.49999618530273
 50
173.4745925400879
 51
187.0687453659209
  0
ARC
  5
195
  8
0
  6
CENTER
 62
     7
 10
-158.3634860016576
 20
31.35350133162682
 30
0.0
 40
54.49999618530273
 50
114.0283347970162
 51
125.9724710137251
  0
ARC
  5
196
  8
0
  6
CENTER
 62
     7
 10
-158.3634860016576
 20
31.35350133162682
 30
0.0
 40
64.00000762939453
 50
203.0220355131638
 51
216.9047638314299
  0
ARC
  5
197
  8
0
  6
CENTER
 62
     7
 10
-158.3634860016576
 20
31.35350133162682
 30
0.0
 40
64.00000762939453
 50
233.1340856013239
 51
247.402248324643
  0
ARC
  5
198
  8
0
  6
CENTER
 62
     7
 10
-158.3634860016576
 20
31.35350133162682
 30
0.0
 40
64.00000762939453
 50
262.550556054599
 51
277.5706543036449
  0
ARC
  5
199
  8
0
  6
CENTER
 62
     7
 10
-158.3634860016576
 20
31.35350133162682
 30
0.0
 40
64.00000762939453
 50
292.2949438899265
 51
307.2203893774543
  0
ARC
  5
19A
  8
0
  6
CENTER
 62
     7
 10
-158.3634860016576
 20
31.35350133162682
 30
0.0
 40
64.00000762939453
 50
142.541020958937
 51
158.049129393991
  0
ARC
  5
19B
  8
0
  6
CENTER
 62
     7
 10
-158.3634860016576
 20
31.35350133162682
 30
0.0
 40
64.00000762939453
 50
112.7616557248699
 51
127.5327594277228
  0
ARC
  5
19C
  8
0
  6
CENTER
 62
     7
 10
-158.3634860016576
 20
31.35350133162682
 30
0.0
 40
64.00000762939453
 50
82.71352937715189
 51
97.5940458803193
  0
ARC
  5
19D
  8
0
  6
CENTER
 62
     7
 10
-158.3634860016576
 20
31.35350133162682
 30
0.0
 40
64.00000762939453
 50
52.40418585972137
 51
67.16704893934072
  0
LINE
  5
19E
  8
0
  6
CENTER
 62
     7
 10
-112.566077971234
 20
110.6769128346925
 30
0.0
 11
-98.94015509750795
 21
134.2777003149754
 31
0.0
  0
LINE
  5
19F
  8
0
  6
CENTER
 62
     7
 10
-78.48194234741141
 20
77.47313013784149
 30
0.0
 11
-57.12768665149576
 21
89.80201563350418
 31
0.0
  0
LINE
  5
1A0
  8
0
  6
CENTER
 62
     7
 10
-78.48193825637452
 20
-14.76612615900309
 30
0.0
 11
-57.12768493493911
 21
-27.09501028375895
 31
0.0
  0
LINE
  5
1A1
  8
0
  6
CENTER
 62
     7
 10
-112.8590189763344
 20
-47.46252680817794
 30
0.0
 11
-98.45561187947158
 21
-72.40995925428014
 31
0.0
  0
LINE
  5
1A2
  8
0
  6
CENTER
 62
     7
 10
52.62235765678963
 20
116.0547685740585
 30
0.0
 11
52.62235765678963
 21
82.61848164778893
 31
0.0
  0
LINE
  5
1A3
  8
0
  6
CENTER
 62
     7
 10
70.62236910088143
 20
125.440403950035
 30
0.0
 11
70.62236910088143
 21
82.32517720442955
 31
0.0
  0
LINE
  5
1A4
  8
0
  6
CENTER
 62
     7
 10
17.22757845146737
 20
85.85349751692955
 30
0.0
 11
40.24304323418221
 21
85.85349751692955
 31
0.0
  0
LINE
  5
1A5
  8
0
  6
CENTER
 62
     7
 10
-19.06266374366203
 20
31.35350133162682
 30
0.0
 11
8.584054281545491
 21
31.35350133162682
 31
0.0
  0
LINE
  5
1A6
  8
0
  6
CENTER
 62
     7
 10
16.82175188286385
 20
31.35350133162682
 30
0.0
 11
176.5953610442408
 21
31.35350133162682
 31
0.0
  0
LINE
  5
1A7
  8
0
  6
CENTER
 62
     7
 10
61.12233095390877
 20
-32.55872820633705
 30
0.0
 11
61.12233095390877
 21
-12.735808360756
 31
0.0
  0
LINE
  5
1A8
  8
0
  6
CENTER
 62
     7
 10
2.585475256276936
 20
63.35349751692955
 30
0.0
 11
24.12234049065194
 21
63.35349751692955
 31
0.0
  0
LINE
  5
1A9
  8
0
  6
CENTER
 62
     7
 10
17.1223500273951
 20
76.95425130110924
 30
0.0
 11
17.1223500273951
 21
66.38069630843346
 31
0.0
  0
LINE
  5
1AA
  8
0
  6
CENTER
 62
     7
 10
2.585475256276936
 20
-0.6465024830704493
 30
0.0
 11
24.12234049065194
 21
-0.6465024830704493
 31
0.0
  0
LINE
  5
1AB
  8
0
  6
CENTER
 62
     7
 10
-96.07637787979581
 20
-4.607975928692227
 30
0.0
 11
-108.1944762500224
 21
2.388411552997226
 31
0.0
  0
LINE
  5
1AC
  8
0
  6
CENTER
 62
     7
 10
-95.91001778363659
 20
67.4110259126828
 30
0.0
 11
-108.3430837309005
 21
60.23279181234101
 31
0.0
  0
ARC
  5
1AD
  8
0
  6
CENTER
 62
     7
 10
-158.3634860016576
 20
31.35350133162682
 30
0.0
 40
105.0
 50
293.1712435000608
 51
306.9290169225561
  0
ARC
  5
1AE
  8
0
  6
CENTER
 62
     7
 10
-158.3634860016576
 20
31.35350133162682
 30
0.0
 40
105.0
 50
323.9487657492444
 51
336.0982806316538
  0
ARC
  5
1AF
  8
0
  6
CENTER
 62
     7
 10
-158.3634860016576
 20
31.35350133162682
 30
0.0
 40
105.0
 50
23.94876571134929
 51
36.09828059375858
  0
ARC
  5
1B0
  8
0
  6
CENTER
 62
     7
 10
-158.3634860016576
 20
31.35350133162682
 30
0.0
 40
105.0
 50
53.17124683936506
 51
66.92901684676578
  0
ARC
  5
1B1
  8
0
  6
CENTER
 62
     7
 10
-158.3634860016576
 20
31.35350133162682
 30
0.0
 40
105.0
 50
173.1712501786693
 51
186.9290133558808
  0
ARC
  5
1B2
  8
0
  6
CENTER
 62
     7
 10
-158.3634860016576
 20
31.35350133162682
 30
0.0
 40
54.49999618530273
 50
352.7860583590174
 51
366.4969638772017
  0
ARC
  5
1B3
  8
0
  6
CENTER
 62
     7
 10
-158.3634860016576
 20
31.35350133162682
 30
0.0
 40
64.00000762939453
 50
22.59146881193706
 51
37.48431722165093
  0
ARC
  5
1B4
  8
0
  6
CENTER
 62
     7
 10
-158.3634860016576
 20
31.35350133162682
 30
0.0
 40
64.00000762939453
 50
323.1471166916438
 51
337.3498888913965
  0
LINE
  5
1B5
  8
0
  6
CENTER
 62
     7
 10
185.4043362639674
 20
31.35350133162682
 30
0.0
 11
239.974557211233
 21
31.35350133162682
 31
0.0
  0
LINE
  5
1B6
  8
0
  6
CENTER
 62
     7
 10
193.7906888030299
 20
136.353489887535
 30
0.0
 11
223.5133145354517
 21
136.353489887535
 31
0.0
  0
LINE
  5
1B7
  8
0
  6
CONTINUOUS
 62
     7
 10
-251.1781058675309
 20
-188.3790867920453
 30
0.0
 11
-98.33428415122231
 21
-188.3790867920453
 31
0.0
  0
LINE
  5
1B8
  8
0
  6
CONTINUOUS
 62
     7
 10
-251.1781058675309
 20
-175.4430928345257
 30
0.0
 11
-98.33428415122231
 21
-175.4430928345257
 31
0.0
  0
LINE
  5
1B9
  8
0
  6
CONTINUOUS
 62
     7
 10
-251.1781058675309
 20
-168.975087463432
 30
0.0
 11
-98.33428415122231
 21
-168.975087463432
 31
0.0
  0
LINE
  5
1BA
  8
0
  6
CONTINUOUS
 62
     7
 10
-251.1781058675309
 20
-162.5070988770062
 30
0.0
 11
-98.33428415122231
 21
-162.5070988770062
 31
0.0
  0
LINE
  5
1BB
  8
0
  6
CONTINUOUS
 62
     7
 10
-251.1781058675309
 20
-156.0390935059125
 30
0.0
 11
-98.33428415122231
 21
-156.0390935059125
 31
0.0
  0
LINE
  5
1BC
  8
0
  6
CONTINUOUS
 62
     7
 10
-251.1781058675309
 20
-149.5710881348187
 30
0.0
 11
-98.33428415122231
 21
-149.5710881348187
 31
0.0
  0
LINE
  5
1BD
  8
0
  6
CONTINUOUS
 62
     7
 10
-251.1781058675309
 20
-143.1030995483929
 30
0.0
 11
-98.33428415122231
 21
-143.1030995483929
 31
0.0
  0
LINE
  5
1BE
  8
0
  6
CONTINUOUS
 62
     7
 10
-251.1781058675309
 20
-136.6350941772992
 30
0.0
 11
-98.33428415122231
 21
-136.6350941772992
 31
0.0
  0
LINE
  5
1BF
  8
0
  6
CONTINUOUS
 62
     7
 10
-251.1781058675309
 20
-130.1670888062054
 30
0.0
 11
-98.33428415122231
 21
-130.1670888062054
 31
0.0
  0
LINE
  5
1C0
  8
0
  6
CONTINUOUS
 62
     7
 10
-251.1781058675309
 20
-123.6990918274456
 30
0.0
 11
-98.33428415122231
 21
-123.6990918274456
 31
0.0
  0
LINE
  5
1C1
  8
0
  6
CONTINUOUS
 62
     7
 10
-251.1781058675309
 20
-117.2310948486859
 30
0.0
 11
-98.33428415122231
 21
-117.2310948486859
 31
0.0
  0
LINE
  5
1C2
  8
0
  6
CONTINUOUS
 62
     7
 10
-251.1781058675309
 20
-110.7630894775922
 30
0.0
 11
-234.0155478841325
 21
-110.7630894775922
 31
0.0
  0
LINE
  5
1C3
  8
0
  6
CONTINUOUS
 62
     7
 10
-251.1781058675309
 20
-181.9110982056195
 30
0.0
 11
-98.33428415122231
 21
-181.9110982056195
 31
0.0
  0
CIRCLE
  5
1C4
  8
0
  6
CONTINUOUS
 62
     7
 10
-158.3634860016576
 20
31.35350133162682
 30
0.0
 40
47.25
  0
CIRCLE
  5
1C5
  8
0
  6
CONTINUOUS
 62
     7
 10
-158.3634860016576
 20
31.35350133162682
 30
0.0
 40
26.5
  0
CIRCLE
  5
1C6
  8
0
  6
CONTINUOUS
 62
     7
 10
-158.3634860016576
 20
31.35350133162682
 30
0.0
 40
25.69999694824219
  0
CIRCLE
  5
1C7
  8
0
  6
CONTINUOUS
 62
     7
 10
-190.3634860016576
 20
31.35350133162682
 30
0.0
 40
2.5
  0
CIRCLE
  5
1C8
  8
0
  6
CONTINUOUS
 62
     7
 10
-212.8634860016576
 20
31.35350133162682
 30
0.0
 40
3.0
  0
CIRCLE
  5
1C9
  8
0
  6
CONTINUOUS
 62
     7
 10
-185.6134860016576
 20
-15.84488199967201
 30
0.0
 40
3.0
  0
CIRCLE
  5
1CA
  8
0
  6
CONTINUOUS
 62
     7
 10
-174.3634860016576
 20
3.640689861595078
 30
0.0
 40
2.5
  0
CIRCLE
  5
1CB
  8
0
  6
CONTINUOUS
 62
     7
 10
-142.3634860016576
 20
59.06631184798424
 30
0.0
 40
2.5
  0
CIRCLE
  5
1CC
  8
0
  6
CONTINUOUS
 62
     7
 10
-131.1134860016576
 20
78.55188466292564
 30
0.0
 40
3.0
  0
CIRCLE
  5
1CD
  8
0
  6
CONTINUOUS
 62
     7
 10
-185.6134860016576
 20
78.55188466292564
 30
0.0
 40
3.0
  0
CIRCLE
  5
1CE
  8
0
  6
CONTINUOUS
 62
     7
 10
-174.3634860016576
 20
59.06631184798424
 30
0.0
 40
2.5
  0
CIRCLE
  5
1CF
  8
0
  6
CONTINUOUS
 62
     7
 10
-142.3634860016576
 20
3.640689861595078
 30
0.0
 40
2.5
  0
CIRCLE
  5
1D0
  8
0
  6
CONTINUOUS
 62
     7
 10
-131.1134860016576
 20
-15.84488199967201
 30
0.0
 40
3.0
  0
ARC
  5
1D1
  8
0
  6
CONTINUOUS
 62
     7
 10
-158.3634860016576
 20
95.35350514632408
 30
0.0
 40
5.0
 50
313.7055515415439
 51
586.4692789894082
  0
ARC
  5
1D2
  8
0
  6
CONTINUOUS
 62
     7
 10
-190.3634860016576
 20
86.77913380843346
 30
0.0
 40
5.0
 50
343.7055506688226
 51
616.4692593336666
  0
ARC
  5
1D3
  8
0
  6
CONTINUOUS
 62
     7
 10
-213.789114663767
 20
63.35350514632408
 30
0.0
 40
5.0
 50
13.70554979610138
 51
286.4692806590603
  0
ARC
  5
1D4
  8
0
  6
CONTINUOUS
 62
     7
 10
-213.789114663767
 20
-0.6465034367447657
 30
0.0
 40
5.0
 50
73.70554805065891
 51
346.469268668334
  0
ARC
  5
1D5
  8
0
  6
CONTINUOUS
 62
     7
 10
-190.3634860016576
 20
-24.07213114517982
 30
0.0
 40
5.0
 50
103.705548885485
 51
376.4692626729709
  0
ARC
  5
1D6
  8
0
  6
CONTINUOUS
 62
     7
 10
-158.3634860016576
 20
-32.64650629776772
 30
0.0
 40
5.0
 50
133.7055565505002
 51
406.4692839983645
  0
ARC
  5
1D7
  8
0
  6
CONTINUOUS
 62
     7
 10
-126.3634783722631
 20
-24.07213114517982
 30
0.0
 40
5.0
 50
163.7055505551371
 51
436.4692780030014
  0
ARC
  5
1D8
  8
0
  6
CONTINUOUS
 62
     7
 10
-126.3634783722631
 20
86.77913380843346
 30
0.0
 40
5.0
 50
283.7055507067178
 51
556.4692713243929
  0
LINE
  5
1D9
  8
0
  6
CONTINUOUS
 62
     7
 10
-12.87765092627922
 20
57.053498279869
 30
0.0
 11
31.12232332451424
 21
57.053498279869
 31
0.0
  0
LINE
  5
1DA
  8
0
  6
CONTINUOUS
 62
     7
 10
61.58725726591081
 20
118.3534841167245
 30
0.0
 11
62.32096685370595
 21
104.3534712460029
 31
0.0
  0
LINE
  5
1DB
  8
0
  6
CONTINUOUS
 62
     7
 10
23.12232332451424
 20
71.85348988753502
 30
0.0
 11
25.28805284721932
 21
71.85348988753502
 31
0.0
  0
LINE
  5
1DC
  8
0
  6
CONTINUOUS
 62
     7
 10
23.12232332451424
 20
-9.146495807350235
 30
0.0
 11
25.28804521782479
 21
-9.146495807350235
 31
0.0
  0
LINE
  5
1DD
  8
0
  6
CONTINUOUS
 62
     7
 10
78.92373024778937
 20
104.3534855036408
 30
0.0
 11
79.65743903700121
 21
118.3534831364853
 31
0.0
  0
LINE
  5
1DE
  8
0
  6
CONTINUOUS
 62
     7
 10
-12.87765092627922
 20
5.653497707664414
 30
0.0
 11
31.12232332451424
 21
5.653497707664414
 31
0.0
  0
LINE
  5
1DF
  8
0
  6
CONTINUOUS
 62
     7
 10
6.122331907583089
 20
66.65349293929283
 30
0.0
 11
24.12234049065194
 21
66.65349293929283
 31
0.0
  0
LINE
  5
1E0
  8
0
  6
CONTINUOUS
 62
     7
 10
6.122331907583089
 20
60.85349751692955
 30
0.0
 11
16.12233286125741
 21
60.85349751692955
 31
0.0
  0
LINE
  5
1E1
  8
0
  6
CONTINUOUS
 62
     7
 10
6.122331907583089
 20
65.85349751692955
 30
0.0
 11
16.12233286125741
 21
65.85349751692955
 31
0.0
  0
LINE
  5
1E2
  8
0
  6
CONTINUOUS
 62
     7
 10
16.12233286125741
 20
65.85349751692955
 30
0.0
 11
16.12233286125741
 21
60.85349751692955
 31
0.0
  0
LINE
  5
1E3
  8
0
  6
CONTINUOUS
 62
     7
 10
14.6223500273951
 20
75.65028859358971
 30
0.0
 11
14.6223500273951
 21
67.35350514632408
 31
0.0
  0
LINE
  5
1E4
  8
0
  6
CONTINUOUS
 62
     7
 10
19.6223500273951
 20
75.21569539290611
 30
0.0
 11
19.6223500273951
 21
67.35350514632408
 31
0.0
  0
LINE
  5
1E5
  8
0
  6
CONTINUOUS
 62
     7
 10
14.12234049065194
 20
75.62081624251549
 30
0.0
 11
14.12234049065194
 21
67.35350514632408
 31
0.0
  0
LINE
  5
1E6
  8
0
  6
CONTINUOUS
 62
     7
 10
20.12235765678963
 20
75.08463002425377
 30
0.0
 11
20.12235765678963
 21
67.35350514632408
 31
0.0
  0
LINE
  5
1E7
  8
0
  6
CONTINUOUS
 62
     7
 10
14.12234049065194
 20
70.35349751692955
 30
0.0
 11
20.12235765678963
 21
70.35349751692955
 31
0.0
  0
LINE
  5
1E8
  8
0
  6
CONTINUOUS
 62
     7
 10
6.122331907583089
 20
-3.946501839340286
 30
0.0
 11
24.12234049065194
 21
-3.946501839340286
 31
0.0
  0
LINE
  5
1E9
  8
0
  6
CONTINUOUS
 62
     7
 10
6.122331907583089
 20
1.853497516929551
 30
0.0
 11
16.12233286125741
 21
1.853497516929551
 31
0.0
  0
LINE
  5
1EA
  8
0
  6
CONTINUOUS
 62
     7
 10
6.122331907583089
 20
-3.146502602279739
 30
0.0
 11
16.12233286125741
 21
-3.146502602279739
 31
0.0
  0
LINE
  5
1EB
  8
0
  6
CONTINUOUS
 62
     7
 10
16.12233286125741
 20
-3.146502602279739
 30
0.0
 11
16.12233286125741
 21
1.853497516929551
 31
0.0
  0
LINE
  5
1EC
  8
0
  6
CONTINUOUS
 62
     7
 10
64.56018953545174
 20
101.7984743235702
 30
0.0
 11
64.56018953545174
 21
95.34905720931236
 31
0.0
  0
LINE
  5
1ED
  8
0
  6
CONTINUOUS
 62
     7
 10
60.22237520439705
 20
94.35349751692955
 30
0.0
 11
81.0223629973658
 21
94.35349751692955
 31
0.0
  0
LINE
  5
1EE
  8
0
  6
CONTINUOUS
 62
     7
 10
76.68454866631112
 20
98.88906575423424
 30
0.0
 11
76.68454866631112
 21
95.34905720931236
 31
0.0
  0
LINE
  5
1EF
  8
0
  6
CONTINUOUS
 62
     7
 10
101.1223309539088
 20
-28.64650820511635
 30
0.0
 11
101.1223309539088
 21
-97.38173960465248
 31
0.0
  0
LINE
  5
1F0
  8
0
  6
CONTINUOUS
 62
     7
 10
102.6223614714869
 20
-39.64651011246498
 30
0.0
 11
102.6223614714869
 21
-97.38173960465248
 31
0.0
  0
CIRCLE
  5
1F1
  8
0
  6
CONTINUOUS
 62
     7
 10
-103.8634860016576
 20
31.35350133162682
 30
0.0
 40
3.0
  0
CIRCLE
  5
1F2
  8
0
  6
CONTINUOUS
 62
     7
 10
-126.3634860016576
 20
31.35350133162682
 30
0.0
 40
2.5
  0
ARC
  5
1F3
  8
0
  6
CONTINUOUS
 62
     7
 10
-102.9378497101537
 20
-0.6465034367447657
 30
0.0
 40
5.0
 50
193.7055482022396
 51
466.4692756501039
  0
ARC
  5
1F4
  8
0
  6
CONTINUOUS
 62
     7
 10
-102.9378497101537
 20
63.35350514632408
 30
0.0
 40
5.0
 50
253.7055498718918
 51
526.469277319756
  0
ARC
  5
1F5
  8
0
  6
CONTINUOUS
 62
     7
 10
60.12236910088143
 20
105.3224306223983
 30
0.0
 40
10.96892929077148
 50
269.9999974955218
 51
293.8648833612215
  0
ARC
  5
1F6
  8
0
  6
CONTINUOUS
 62
     7
 10
70.62236910088143
 20
114.4157075999374
 30
0.0
 40
20.06221389770508
 50
252.4120759676314
 51
287.5879190234123
  0
ARC
  5
1F7
  8
0
  6
CONTINUOUS
 62
     7
 10
81.12236910088143
 20
105.3224306223983
 30
0.0
 40
10.96892929077148
 50
246.1351184600113
 51
269.9999974955218
  0
LINE
  5
1F8
  8
0
  6
CONTINUOUS
 62
     7
 10
213.1223385833033
 20
4.353497516929551
 30
0.0
 11
234.1223691008814
 21
4.353497516929551
 31
0.0
  0
LINE
  5
1F9
  8
0
  6
CONTINUOUS
 62
     7
 10
213.1223385833033
 20
58.35349751692955
 30
0.0
 11
234.1223691008814
 21
58.35349751692955
 31
0.0
  0
LINE
  5
1FA
  8
0
  6
CONTINUOUS
 62
     7
 10
202.1223233245142
 20
132.3535051463241
 30
0.0
 11
219.1223691008814
 21
132.3535051463241
 31
0.0
  0
LINE
  5
1FB
  8
0
  6
CONTINUOUS
 62
     7
 10
202.1223233245142
 20
140.3535051463241
 30
0.0
 11
219.1223691008814
 21
140.3535051463241
 31
0.0
  0
LINE
  5
1FC
  8
0
  6
DASHED2
 62
     7
 10
21.12233286125741
 20
88.85349751692955
 30
0.0
 11
33.12236528618416
 21
88.85349751692955
 31
0.0
  0
LINE
  5
1FD
  8
0
  6
DASHED2
 62
     7
 10
21.12233286125741
 20
88.05350209456627
 30
0.0
 11
37.1223500273951
 21
88.05350209456627
 31
0.0
  0
LINE
  5
1FE
  8
0
  6
DASHED2
 62
     7
 10
33.12236528618416
 20
88.85349751692955
 30
0.0
 11
33.12236528618416
 21
82.85349751692955
 31
0.0
  0
LINE
  5
1FF
  8
0
  6
DASHED2
 62
     7
 10
37.1223500273951
 20
88.05350209456627
 30
0.0
 11
37.1223500273951
 21
83.65349293929283
 31
0.0
  0
LINE
  5
200
  8
0
  6
DASHED2
 62
     7
 10
21.12233286125741
 20
82.85349751692955
 30
0.0
 11
33.12236528618416
 21
82.85349751692955
 31
0.0
  0
LINE
  5
201
  8
0
  6
DASHED2
 62
     7
 10
21.12233286125741
 20
83.65349293929283
 30
0.0
 11
37.1223500273951
 21
83.65349293929283
 31
0.0
  0
LINE
  5
202
  8
0
  6
DASHED2
 62
     7
 10
37.12233023470697
 20
83.65349626385203
 30
0.0
 11
38.39249472445306
 21
85.85348565457615
 31
0.0
  0
LINE
  5
203
  8
0
  6
DASHED2
 62
     7
 10
37.12234896720122
 20
88.05349958121018
 30
0.0
 11
38.39251345694731
 21
85.85351019048606
 31
0.0
  0
LINE
  5
204
  8
0
  6
DASHED2
 62
     7
 10
61.12233661935386
 20
-15.75976841542185
 30
0.0
 11
66.12232301889628
 21
-18.64651196095407
 31
0.0
  0
LINE
  5
205
  8
0
  6
DASHED2
 62
     7
 10
56.12233818842071
 20
-18.64650591728424
 30
0.0
 11
61.12232458796314
 21
-15.75976237175202
 31
0.0
  0
LINE
  5
206
  8
0
  6
DASHED2
 62
     7
 10
55.12235765678963
 20
-20.64650820511635
 30
0.0
 11
67.12235384209237
 21
-20.64650820511635
 31
0.0
  0
LINE
  5
207
  8
0
  6
DASHED2
 62
     7
 10
56.12233095390877
 20
-18.64650915879066
 30
0.0
 11
66.12233095390877
 21
-18.64650915879066
 31
0.0
  0
LINE
  5
208
  8
0
  6
DASHED2
 62
     7
 10
67.12235384209237
 20
-28.64650820511635
 30
0.0
 11
67.12235384209237
 21
-20.64650820511635
 31
0.0
  0
LINE
  5
209
  8
0
  6
DASHED2
 62
     7
 10
66.12233095390877
 20
-28.64650820511635
 30
0.0
 11
66.12233095390877
 21
-18.64650915879066
 31
0.0
  0
LINE
  5
20A
  8
0
  6
DASHED2
 62
     7
 10
56.12233095390877
 20
-28.64650820511635
 30
0.0
 11
56.12233095390877
 21
-18.64650915879066
 31
0.0
  0
LINE
  5
20B
  8
0
  6
DASHED2
 62
     7
 10
55.12235765678963
 20
-28.64650820511635
 30
0.0
 11
55.12235765678963
 21
-20.64650820511635
 31
0.0
  0
LINE
  5
20C
  8
0
  6
CONTINUOUS
 62
     2
 10
-155.3323885895483
 20
134.6035051463241
 30
0.0
 11
-155.3323885895483
 21
138.1035051463241
 31
0.0
  0
LINE
  5
20D
  8
0
  6
CONTINUOUS
 62
     2
 10
-155.3323333330476
 20
138.1035495249466
 30
0.0
 11
-158.3634221918904
 21
139.8535495249466
 31
0.0
  0
LINE
  5
20E
  8
0
  6
CONTINUOUS
 62
     2
 10
-158.3635318079031
 20
132.8535972425407
 30
0.0
 11
-155.3324429490602
 21
134.6035972425407
 31
0.0
  0
LINE
  5
20F
  8
0
  6
CONTINUOUS
 62
     2
 10
-161.3944318659627
 20
134.6036868654464
 30
0.0
 11
-158.3633430071199
 21
132.8536868654464
 31
0.0
  0
LINE
  5
210
  8
0
  6
CONTINUOUS
 62
     2
 10
-161.3945528961889
 20
138.1035051463241
 30
0.0
 11
-161.3945528961889
 21
134.6035051463241
 31
0.0
  0
LINE
  5
211
  8
0
  6
CONTINUOUS
 62
     2
 10
-158.3634793260134
 20
139.8535061527864
 30
0.0
 11
-161.3945681848562
 21
138.1035061527864
 31
0.0
  0
LINE
  5
212
  8
0
  6
CONTINUOUS
 62
     2
 10
-246.2650603662454
 20
85.60350726781256
 30
0.0
 11
-249.2961360105895
 21
87.35349963841803
 31
0.0
  0
LINE
  5
213
  8
0
  6
CONTINUOUS
 62
     2
 10
-249.2961898455209
 20
87.35356841058272
 30
0.0
 11
-252.3272787043637
 21
85.60356841058272
 31
0.0
  0
LINE
  5
214
  8
0
  6
CONTINUOUS
 62
     2
 10
-246.2651583649389
 20
82.10349751692955
 30
0.0
 11
-246.2651583649389
 21
85.60350514632408
 31
0.0
  0
LINE
  5
215
  8
0
  6
CONTINUOUS
 62
     2
 10
-249.2962575861997
 20
80.35368592933445
 30
0.0
 11
-246.2651687273568
 21
82.10368592933445
 31
0.0
  0
LINE
  5
216
  8
0
  6
CONTINUOUS
 62
     2
 10
-252.3272162565612
 20
82.10351474480466
 30
0.0
 11
-249.2961406122171
 21
80.35352237419919
 31
0.0
  0
LINE
  5
217
  8
0
  6
CONTINUOUS
 62
     2
 10
-252.3272311188451
 20
85.60350514632408
 30
0.0
 11
-252.3272311188451
 21
82.10349751692955
 31
0.0
  0
LINE
  5
218
  8
0
  6
CONTINUOUS
 62
     2
 10
-246.2651180933439
 20
-19.39658989160672
 30
0.0
 11
-249.2962069521867
 21
-17.64658989160672
 31
0.0
  0
LINE
  5
219
  8
0
  6
CONTINUOUS
 62
     2
 10
-249.2961492845601
 20
-17.64649901621444
 30
0.0
 11
-252.327238143403
 21
-19.39649901621444
 31
0.0
  0
LINE
  5
21A
  8
0
  6
CONTINUOUS
 62
     2
 10
-252.3273074127905
 20
-19.39649294632729
 30
0.0
 11
-252.3273074127905
 21
-22.89648913163002
 31
0.0
  0
LINE
  5
21B
  8
0
  6
CONTINUOUS
 62
     2
 10
-246.2652956940405
 20
-22.89648913163002
 30
0.0
 11
-246.2652956940405
 21
-19.39649294632729
 31
0.0
  0
LINE
  5
21C
  8
0
  6
CONTINUOUS
 62
     2
 10
-249.2961559900826
 20
-24.64648721345249
 30
0.0
 11
-246.2650671312398
 21
-22.89648721345249
 31
0.0
  0
LINE
  5
21D
  8
0
  6
CONTINUOUS
 62
     2
 10
-252.3272433291398
 20
-22.89649880185245
 30
0.0
 11
-249.296154470297
 21
-24.64649880185245
 31
0.0
  0
LINE
  5
21E
  8
0
  6
CONTINUOUS
 62
     2
 10
-210.8634950206298
 20
126.9861665887652
 30
0.0
 11
-206.7931749770979
 21
124.6361737174771
 31
0.0
  0
LINE
  5
21F
  8
0
  6
CONTINUOUS
 62
     2
 10
-214.9337976482547
 20
124.6361607692161
 30
0.0
 11
-210.8634809664226
 21
126.9861592433372
 31
0.0
  0
LINE
  5
220
  8
0
  6
CONTINUOUS
 62
     2
 10
-214.9334780670873
 20
119.9361620066756
 30
0.0
 11
-214.9334780670873
 21
124.6361589549178
 31
0.0
  0
LINE
  5
221
  8
0
  6
CONTINUOUS
 62
     2
 10
-206.7928530670873
 20
124.6361742137069
 30
0.0
 11
-206.7928530670873
 21
119.9361696360702
 31
0.0
  0
LINE
  5
222
  8
0
  6
CONTINUOUS
 62
     2
 10
-206.7931684664226
 20
119.9361713171893
 30
0.0
 11
-210.8634785410053
 21
117.5861766577655
 31
0.0
  0
LINE
  5
223
  8
0
  6
CONTINUOUS
 62
     2
 10
-210.8634749390589
 20
117.5861720590456
 30
0.0
 11
-214.9337935818825
 21
119.9361671714669
 31
0.0
  0
LINE
  5
224
  8
0
  6
CONTINUOUS
 62
     2
 10
-214.9337938127541
 20
-61.92916104767666
 30
0.0
 11
-210.863477130922
 21
-64.27915952179775
 31
0.0
  0
LINE
  5
225
  8
0
  6
CONTINUOUS
 62
     2
 10
-210.8635608891549
 20
-64.27903226012838
 30
0.0
 11
-206.7932309928241
 21
-61.92902615661275
 31
0.0
  0
LINE
  5
226
  8
0
  6
CONTINUOUS
 62
     2
 10
-214.9339205719701
 20
-57.22916315811928
 30
0.0
 11
-214.9339205719701
 21
-61.92916392105873
 31
0.0
  0
LINE
  5
227
  8
0
  6
CONTINUOUS
 62
     2
 10
-206.7932803131811
 20
-61.92917536515053
 30
0.0
 11
-206.7932803131811
 21
-57.22917078751381
 31
0.0
  0
LINE
  5
228
  8
0
  6
CONTINUOUS
 62
     2
 10
-206.793164630922
 20
-57.22917159564987
 30
0.0
 11
-210.8634813127541
 21
-54.87917312152878
 31
0.0
  0
LINE
  5
229
  8
0
  6
CONTINUOUS
 62
     2
 10
-210.8635186972919
 20
-54.87908117758572
 30
0.0
 11
-214.9338353791239
 21
-57.22907965170681
 31
0.0
  0
LINE
  5
22A
  8
0
  6
CONTINUOUS
 62
     2
 10
-155.3323885895483
 20
-71.89651011246498
 30
0.0
 11
-155.3323885895483
 21
-75.39650248307045
 31
0.0
  0
LINE
  5
22B
  8
0
  6
CONTINUOUS
 62
     2
 10
-155.3323423452861
 20
-75.39655609582299
 30
0.0
 11
-158.3634312041289
 21
-77.14655609582299
 31
0.0
  0
LINE
  5
22C
  8
0
  6
CONTINUOUS
 62
     2
 10
-158.3635279724025
 20
-70.14659752100125
 30
0.0
 11
-155.3324391135596
 21
-71.89659752100125
 31
0.0
  0
LINE
  5
22D
  8
0
  6
CONTINUOUS
 62
     2
 10
-161.3944413550383
 20
-71.89669261041662
 30
0.0
 11
-158.3633524961955
 21
-70.14669261041662
 31
0.0
  0
LINE
  5
22E
  8
0
  6
CONTINUOUS
 62
     2
 10
-161.3945528961889
 20
-75.39650248307045
 30
0.0
 11
-161.3945528961889
 21
-71.89651011246498
 31
0.0
  0
LINE
  5
22F
  8
0
  6
CONTINUOUS
 62
     2
 10
-158.3634754905128
 20
-77.14650643124698
 30
0.0
 11
-161.3945643493556
 21
-75.39650643124698
 31
0.0
  0
LINE
  5
230
  8
0
  6
CONTINUOUS
 62
     2
 10
-67.43077817650499
 20
-24.64656455112369
 30
0.0
 11
-64.3996959249115
 21
-22.89656836582095
 31
0.0
  0
LINE
  5
231
  8
0
  6
CONTINUOUS
 62
     2
 10
-64.39971418158928
 20
-22.89650439041908
 30
0.0
 11
-64.39971418158928
 21
-19.39650248307045
 31
0.0
  0
LINE
  5
232
  8
0
  6
CONTINUOUS
 62
     2
 10
-64.39972706526748
 20
-19.39652018333005
 30
0.0
 11
-67.43081262048565
 21
-17.64652209067869
 31
0.0
  0
LINE
  5
233
  8
0
  6
CONTINUOUS
 62
     2
 10
-70.46179075019279
 20
-19.39650248307045
 30
0.0
 11
-70.46179075019279
 21
-22.89650439041908
 31
0.0
  0
LINE
  5
234
  8
0
  6
CONTINUOUS
 62
     2
 10
-67.43070464530945
 20
-17.6467073581331
 30
0.0
 11
-70.46178689690294
 21
-19.39670354343583
 31
0.0
  0
LINE
  5
235
  8
0
  6
CONTINUOUS
 62
     2
 10
-70.46189286645733
 20
-22.89650698429206
 30
0.0
 11
-67.43080731123916
 21
-24.64650507694343
 31
0.0
  0
LINE
  5
236
  8
0
  6
CONTINUOUS
 62
     2
 10
-67.43080300627264
 20
87.35348306938612
 30
0.0
 11
-70.46188773558464
 21
85.60348545357191
 31
0.0
  0
LINE
  5
237
  8
0
  6
CONTINUOUS
 62
     2
 10
-64.39964933173576
 20
82.10349751692955
 30
0.0
 11
-64.39964933173576
 21
85.60348988753502
 31
0.0
  0
LINE
  5
238
  8
0
  6
CONTINUOUS
 62
     2
 10
-64.39971320718757
 20
85.60350099272158
 30
0.0
 11
-67.43080867327979
 21
87.35350480741884
 31
0.0
  0
LINE
  5
239
  8
0
  6
CONTINUOUS
 62
     2
 10
-70.46184886493018
 20
82.10358928992376
 30
0.0
 11
-67.43075339883797
 21
80.3535854752265
 31
0.0
  0
LINE
  5
23A
  8
0
  6
CONTINUOUS
 62
     2
 10
-70.46167630927482
 20
85.60348988753502
 30
0.0
 11
-70.46167630927482
 21
82.10349751692955
 31
0.0
  0
LINE
  5
23B
  8
0
  6
CONTINUOUS
 62
     2
 10
-67.43080558226433
 20
80.35349725633385
 30
0.0
 11
-64.39972085295233
 21
82.10349487214806
 31
0.0
  0
LINE
  5
23C
  8
0
  6
CONTINUOUS
 62
     2
 10
-267.4338137604467
 20
29.00349522811119
 30
0.0
 11
-267.4338137604467
 21
33.70349599105064
 31
0.0
  0
LINE
  5
23D
  8
0
  6
CONTINUOUS
 62
     2
 10
-267.4338057635945
 20
33.70350169589618
 30
0.0
 11
-263.3634921633205
 21
36.05350577285024
 31
0.0
  0
LINE
  5
23E
  8
0
  6
CONTINUOUS
 62
     2
 10
-263.3634930252678
 20
26.65350810632479
 30
0.0
 11
-267.4337990138678
 21
29.00349474894027
 31
0.0
  0
LINE
  5
23F
  8
0
  6
CONTINUOUS
 62
     2
 10
-263.3634833656637
 20
36.05349296687471
 30
0.0
 11
-259.2931773770637
 21
33.70350646432961
 31
0.0
  0
LINE
  5
240
  8
0
  6
CONTINUOUS
 62
     2
 10
-259.2931582428686
 20
33.70349980574791
 30
0.0
 11
-259.2931582428686
 21
29.00350667220299
 31
0.0
  0
LINE
  5
241
  8
0
  6
CONTINUOUS
 62
     2
 10
-259.2931619980012
 20
29.00350614230227
 30
0.0
 11
-263.3634635043494
 21
26.65351193588684
 31
0.0
  0
LINE
  5
242
  8
0
  6
CONTINUOUS
 62
     2
 10
-105.863479634825
 20
-64.2791682370429
 30
0.0
 11
-101.7931629529929
 21
-61.9291697629218
 31
0.0
  0
LINE
  5
243
  8
0
  6
CONTINUOUS
 62
     2
 10
-101.7933260895483
 20
-61.92917536515053
 30
0.0
 11
-101.7933260895483
 21
-57.22917078751381
 31
0.0
  0
LINE
  5
244
  8
0
  6
CONTINUOUS
 62
     2
 10
-109.9338021735138
 20
-61.92916779202507
 30
0.0
 11
-105.8634910364377
 21
-64.27916856091885
 31
0.0
  0
LINE
  5
245
  8
0
  6
CONTINUOUS
 62
     2
 10
-101.7931535622869
 20
-57.22916952249922
 30
0.0
 11
-105.8634710264668
 21
-54.87916493890135
 31
0.0
  0
LINE
  5
246
  8
0
  6
CONTINUOUS
 62
     2
 10
-105.8634831121898
 20
-54.87916857065606
 30
0.0
 11
-109.9337931867725
 21
-57.22916323007989
 31
0.0
  0
LINE
  5
247
  8
0
  6
CONTINUOUS
 62
     2
 10
-109.9339053131811
 20
-57.22916315811928
 30
0.0
 11
-109.9339053131811
 21
-61.92916392105873
 31
0.0
  0
LINE
  5
248
  8
0
  6
CONTINUOUS
 62
     2
 10
-101.7927538849584
 20
124.6361742137069
 30
0.0
 11
-101.7927538849584
 21
119.9361696360702
 31
0.0
  0
LINE
  5
249
  8
0
  6
CONTINUOUS
 62
     2
 10
-105.8634774980568
 20
126.9861650162916
 30
0.0
 11
-101.7931608162247
 21
124.6361665421705
 31
0.0
  0
LINE
  5
24A
  8
0
  6
CONTINUOUS
 62
     2
 10
-109.9336486614975
 20
124.6358960322068
 30
0.0
 11
-105.8633336314778
 21
126.9858935526536
 31
0.0
  0
LINE
  5
24B
  8
0
  6
CONTINUOUS
 62
     2
 10
-101.7929959618147
 20
119.9358849195541
 30
0.0
 11
-105.8633159472714
 21
117.5858845380844
 31
0.0
  0
LINE
  5
24C
  8
0
  6
CONTINUOUS
 62
     2
 10
-105.8634809456192
 20
117.5861654015239
 30
0.0
 11
-109.9337976274513
 21
119.936163875645
 31
0.0
  0
LINE
  5
24D
  8
0
  6
CONTINUOUS
 62
     2
 10
-109.9335467316381
 20
119.9361620066756
 30
0.0
 11
-109.9335467316381
 21
124.6361589549178
 31
0.0
  0
LINE
  5
24E
  8
0
  6
CONTINUOUS
 62
     4
 10
-213.1642407544499
 20
-36.88230539538337
 30
0.0
 11
-212.2676765979562
 21
-37.39993689529185
 31
0.0
  0
LINE
  5
24F
  8
0
  6
CONTINUOUS
 62
     4
 10
-227.1169103361771
 20
-22.55073734531244
 30
0.0
 11
-226.5993168906861
 21
-23.44723536760604
 31
0.0
  0
LINE
  5
250
  8
0
  6
CONTINUOUS
 62
     4
 10
-160.9182568205073
 20
96.82850767562239
 30
0.0
 11
-158.3634763783415
 21
98.30350732693113
 31
0.0
  0
LINE
  5
251
  8
0
  6
CONTINUOUS
 62
     4
 10
-158.3634718007754
 20
98.30350413617349
 30
0.0
 11
-155.808701658367
 21
96.82850196954847
 31
0.0
  0
LINE
  5
252
  8
0
  6
CONTINUOUS
 62
     4
 10
-155.8087069489233
 20
96.82850362044518
 30
0.0
 11
-155.8087069489233
 21
93.87850667220299
 31
0.0
  0
LINE
  5
253
  8
0
  6
CONTINUOUS
 62
     4
 10
-155.8087036969195
 20
93.87849615885419
 30
0.0
 11
-158.3634775318318
 21
92.40350041015266
 31
0.0
  0
LINE
  5
254
  8
0
  6
CONTINUOUS
 62
     4
 10
-158.3634895370424
 20
92.40350989605393
 30
0.0
 11
-160.9182605586184
 21
93.87851065601079
 31
0.0
  0
LINE
  5
255
  8
0
  6
CONTINUOUS
 62
     4
 10
-160.918249795603
 20
93.87850667220299
 30
0.0
 11
-160.918249795603
 21
96.82851124983971
 31
0.0
  0
LINE
  5
256
  8
0
  6
CONTINUOUS
 62
     4
 10
-191.8384768463842
 20
89.33363820296471
 30
0.0
 11
-188.888479898142
 21
89.33363820296471
 31
0.0
  0
LINE
  5
257
  8
0
  6
CONTINUOUS
 62
     4
 10
-188.8884825880826
 20
89.33390738515116
 30
0.0
 11
-187.413476484567
 21
86.77912191824179
 31
0.0
  0
LINE
  5
258
  8
0
  6
CONTINUOUS
 62
     4
 10
-193.3134968090571
 20
86.77913584019318
 30
0.0
 11
-191.8384923595671
 21
89.33391246727568
 31
0.0
  0
LINE
  5
259
  8
0
  6
CONTINUOUS
 62
     4
 10
-187.4134793980255
 20
86.77912295134136
 30
0.0
 11
-188.8884814633254
 21
84.22435062962107
 31
0.0
  0
LINE
  5
25A
  8
0
  6
CONTINUOUS
 62
     4
 10
-188.8884951569311
 20
84.22419453841393
 30
0.0
 11
-191.8384921051733
 21
84.22419453841393
 31
0.0
  0
LINE
  5
25B
  8
0
  6
CONTINUOUS
 62
     4
 10
-191.8384845487398
 20
84.2243598947034
 30
0.0
 11
-193.3134830228609
 21
86.77913214711406
 31
0.0
  0
LINE
  5
25C
  8
0
  6
CONTINUOUS
 62
     4
 10
-216.3438784577123
 20
61.87850667220299
 30
0.0
 11
-216.3438784577123
 21
64.82851124983971
 31
0.0
  0
LINE
  5
25D
  8
0
  6
CONTINUOUS
 62
     4
 10
-216.343741528321
 20
64.82827209618516
 30
0.0
 11
-213.7889692759103
 21
66.30327057030625
 31
0.0
  0
LINE
  5
25E
  8
0
  6
CONTINUOUS
 62
     4
 10
-213.7891025764369
 20
66.30349889807188
 30
0.0
 11
-211.2343303240263
 21
64.82850042395079
 31
0.0
  0
LINE
  5
25F
  8
0
  6
CONTINUOUS
 62
     4
 10
-211.2343203522436
 20
64.82850362044518
 30
0.0
 11
-211.2343203522436
 21
61.87849904280846
 31
0.0
  0
LINE
  5
260
  8
0
  6
CONTINUOUS
 62
     4
 10
-211.2342644728309
 20
61.87836161487392
 30
0.0
 11
-213.7890367252415
 21
60.40336314075283
 31
0.0
  0
LINE
  5
261
  8
0
  6
CONTINUOUS
 62
     4
 10
-213.7891187765621
 20
60.4035076185671
 30
0.0
 11
-216.3438910289727
 21
61.8785060926882
 31
0.0
  0
LINE
  5
262
  8
0
  6
CONTINUOUS
 62
     4
 10
-213.7891017473661
 20
-3.596491680547857
 30
0.0
 11
-216.3438872142755
 21
-2.121485577032232
 31
0.0
  0
LINE
  5
263
  8
0
  6
CONTINUOUS
 62
     4
 10
-216.3436190582983
 20
-2.12149904984291
 30
0.0
 11
-216.3436190582983
 21
0.8285002825850683
 31
0.0
  0
LINE
  5
264
  8
0
  6
CONTINUOUS
 62
     4
 10
-216.3438863498753
 20
0.8284941399237908
 30
0.0
 11
-213.7891140974647
 21
2.303492614044885
 31
0.0
  0
LINE
  5
265
  8
0
  6
CONTINUOUS
 62
     4
 10
-213.7890987617396
 20
2.30350722835145
 30
0.0
 11
-211.234326509329
 21
0.8285087542303558
 31
0.0
  0
LINE
  5
266
  8
0
  6
CONTINUOUS
 62
     4
 10
-211.234183023142
 20
0.8284940837020116
 30
0.0
 11
-211.234183023142
 21
-2.121505248725967
 31
0.0
  0
LINE
  5
267
  8
0
  6
CONTINUOUS
 62
     4
 10
-211.2343388594276
 20
-2.121507820733328
 30
0.0
 11
-213.7891111118382
 21
-3.596506294854422
 31
0.0
  0
LINE
  5
268
  8
0
  6
CONTINUOUS
 62
     4
 10
-188.888479898142
 20
-26.62689112442787
 30
0.0
 11
-191.8384921051733
 21
-26.62689112442787
 31
0.0
  0
LINE
  5
269
  8
0
  6
CONTINUOUS
 62
     4
 10
-191.8382472462121
 20
-26.62677140756388
 30
0.0
 11
-193.3132495350304
 21
-24.07199254790386
 31
0.0
  0
LINE
  5
26A
  8
0
  6
CONTINUOUS
 62
     4
 10
-193.313475372663
 20
-24.07212581832529
 30
0.0
 11
-191.8384768985419
 21
-21.51735356591463
 31
0.0
  0
LINE
  5
26B
  8
0
  6
CONTINUOUS
 62
     4
 10
-191.8384768463842
 20
-21.51734255570229
 30
0.0
 11
-188.888479898142
 21
-21.51734255570229
 31
0.0
  0
LINE
  5
26C
  8
0
  6
CONTINUOUS
 62
     4
 10
-188.8883443942954
 20
-21.5172811375751
 30
0.0
 11
-187.4133459201743
 21
-24.07205338998575
 31
0.0
  0
LINE
  5
26D
  8
0
  6
CONTINUOUS
 62
     4
 10
-187.4134868857103
 20
-24.07213159650384
 30
0.0
 11
-188.8884853598314
 21
-26.6269038489145
 31
0.0
  0
LINE
  5
26E
  8
0
  6
CONTINUOUS
 62
     4
 10
-155.8087178267127
 20
-34.12149949045376
 30
0.0
 11
-158.3634900791234
 21
-35.59649796457485
 31
0.0
  0
LINE
  5
26F
  8
0
  6
CONTINUOUS
 62
     4
 10
-158.3633510149442
 20
-35.59627364131895
 30
0.0
 11
-160.9181232673549
 21
-34.12127516719785
 31
0.0
  0
LINE
  5
270
  8
0
  6
CONTINUOUS
 62
     4
 10
-160.918249795603
 20
-34.12150286454018
 30
0.0
 11
-160.918249795603
 21
-31.17150400894936
 31
0.0
  0
LINE
  5
271
  8
0
  6
CONTINUOUS
 62
     4
 10
-160.9182653171605
 20
-31.17149752979664
 30
0.0
 11
-158.3634798502511
 21
-29.69649142628101
 31
0.0
  0
LINE
  5
272
  8
0
  6
CONTINUOUS
 62
     4
 10
-158.3633976203822
 20
-29.69636062666133
 30
0.0
 11
-155.8086187607222
 21
-31.17136291547969
 31
0.0
  0
LINE
  5
273
  8
0
  6
CONTINUOUS
 62
     4
 10
-155.8087069489233
 20
-31.17150782364662
 30
0.0
 11
-155.8087069489233
 21
-34.12150858658607
 31
0.0
  0
LINE
  5
274
  8
0
  6
CONTINUOUS
 62
     4
 10
-212.2676540327178
 20
-37.39994273059712
 30
0.0
 11
-192.710545594979
 21
-17.84283429285826
 31
0.0
  0
LINE
  5
275
  8
0
  6
CONTINUOUS
 62
     4
 10
-206.6234776518535
 20
-9.481903123557473
 30
0.0
 11
-199.1988565764617
 21
-16.90652419894924
 31
0.0
  0
LINE
  5
276
  8
0
  6
CONTINUOUS
 62
     4
 10
-227.1169177626874
 20
-22.55072215899965
 30
0.0
 11
-207.5597985353555
 21
-2.993602931667752
 31
0.0
  0
LINE
  5
277
  8
0
  6
CONTINUOUS
 62
     4
 10
-226.5993517744331
 20
-23.44715391705451
 30
0.0
 11
-213.164172107517
 21
-36.88233358397066
 31
0.0
  0
LINE
  5
278
  8
0
  6
CONTINUOUS
 62
     4
 10
-244.8578097321264
 20
19.0477724192733
 30
0.0
 11
-244.8578097321264
 21
18.01258565169518
 31
0.0
  0
LINE
  5
279
  8
0
  6
CONTINUOUS
 62
     4
 10
-220.5755636073285
 20
20.11899807628195
 30
0.0
 11
-217.8579636491471
 21
9.976777042708804
 31
0.0
  0
LINE
  5
27A
  8
0
  6
CONTINUOUS
 62
     4
 10
-239.9402323905732
 20
-0.3400645540609872
 30
0.0
 11
-239.422600798105
 21
-1.236628648848196
 31
0.0
  0
LINE
  5
27B
  8
0
  6
CONTINUOUS
 62
     4
 10
-239.4225835637702
 20
-1.236645373839579
 30
0.0
 11
-212.7070912701514
 21
5.921749271633402
 31
0.0
  0
LINE
  5
27C
  8
0
  6
CONTINUOUS
 62
     4
 10
-244.8578129578494
 20
19.04778879477634
 30
0.0
 11
-218.1422911865142
 21
26.2061913387797
 31
0.0
  0
LINE
  5
27D
  8
0
  6
CONTINUOUS
 62
     4
 10
-244.8578035407448
 20
18.01267312165781
 30
0.0
 11
-239.940186421942
 21
-0.3401236640611529
 31
0.0
  0
CIRCLE
  5
27E
  8
0
  6
CONTINUOUS
 62
     4
 10
-158.3634860016576
 20
136.353489887535
 30
0.0
 40
7.000000476837158
  0
ARC
  5
27F
  8
0
  6
CONTINUOUS
 62
     4
 10
-158.3634860016576
 20
31.35350133162682
 30
0.0
 40
115.5
 50
29.26467632916083
 51
330.7353268585627
  0
CIRCLE
  5
280
  8
0
  6
CONTINUOUS
 62
     4
 10
-249.2961489655248
 20
83.85349751692955
 30
0.0
 40
7.000000476837158
  0
CIRCLE
  5
281
  8
0
  6
CONTINUOUS
 62
     4
 10
-249.2961489655248
 20
-21.14649676102455
 30
0.0
 40
7.000000476837158
  0
CIRCLE
  5
282
  8
0
  6
CONTINUOUS
 62
     4
 10
-263.3634707428686
 20
31.35350133162682
 30
0.0
 40
8.75
  0
CIRCLE
  5
283
  8
0
  6
CONTINUOUS
 62
     4
 10
-210.8634860016576
 20
122.2861681101913
 30
0.0
 40
8.75
  0
CIRCLE
  5
284
  8
0
  6
CONTINUOUS
 62
     4
 10
-210.8634860016576
 20
-59.5791692616349
 30
0.0
 40
8.75
  0
CIRCLE
  5
285
  8
0
  6
CONTINUOUS
 62
     4
 10
-158.3634860016576
 20
-73.64649485367592
 30
0.0
 40
7.000000476837158
  0
CIRCLE
  5
286
  8
0
  6
CONTINUOUS
 62
     4
 10
-158.3634860016576
 20
31.35350133162682
 30
0.0
 40
60.00000762939453
  0
ARC
  5
287
  8
0
  6
CONTINUOUS
 62
     4
 10
-158.3634860016576
 20
31.35350133162682
 30
0.0
 40
72.50000762939453
 50
0.0
 51
185.6432439050043
  0
CIRCLE
  5
288
  8
0
  6
CONTINUOUS
 62
     4
 10
-158.3634860016576
 20
31.35350133162682
 30
0.0
 40
48.00000381469727
  0
CIRCLE
  5
289
  8
0
  6
CONTINUOUS
 62
     4
 10
-158.3634860016576
 20
31.35350133162682
 30
0.0
 40
41.25000762939453
  0
CIRCLE
  5
28A
  8
0
  6
CONTINUOUS
 62
     4
 10
-158.3634860016576
 20
31.35350133162682
 30
0.0
 40
36.5
  0
CIRCLE
  5
28B
  8
0
  6
CONTINUOUS
 62
     4
 10
-158.3634860016576
 20
31.35350133162682
 30
0.0
 40
27.4999942779541
  0
CIRCLE
  5
28C
  8
0
  6
CONTINUOUS
 62
     4
 10
-158.3634860016576
 20
31.35350133162682
 30
0.0
 40
23.00000381469727
  0
CIRCLE
  5
28D
  8
0
  6
CONTINUOUS
 62
     4
 10
-212.8634860016576
 20
31.35350133162682
 30
0.0
 40
2.200000047683716
  0
CIRCLE
  5
28E
  8
0
  6
CONTINUOUS
 62
     4
 10
-190.3634860016576
 20
31.35350133162682
 30
0.0
 40
1.799999952316284
  0
CIRCLE
  5
28F
  8
0
  6
CONTINUOUS
 62
     4
 10
-131.1134860016576
 20
78.55188466292564
 30
0.0
 40
2.200000047683716
  0
CIRCLE
  5
290
  8
0
  6
CONTINUOUS
 62
     4
 10
-142.3634860016576
 20
59.06631184798424
 30
0.0
 40
1.799999952316284
  0
CIRCLE
  5
291
  8
0
  6
CONTINUOUS
 62
     4
 10
-185.6134860016576
 20
-15.84488199967201
 30
0.0
 40
2.200000047683716
  0
CIRCLE
  5
292
  8
0
  6
CONTINUOUS
 62
     4
 10
-174.3634860016576
 20
3.640689861595078
 30
0.0
 40
1.799999952316284
  0
CIRCLE
  5
293
  8
0
  6
CONTINUOUS
 62
     4
 10
-142.3634860016576
 20
3.640689861595078
 30
0.0
 40
1.799999952316284
  0
CIRCLE
  5
294
  8
0
  6
CONTINUOUS
 62
     4
 10
-131.1134860016576
 20
-15.84488199967201
 30
0.0
 40
2.200000047683716
  0
CIRCLE
  5
295
  8
0
  6
CONTINUOUS
 62
     4
 10
-174.3634860016576
 20
59.06631184798424
 30
0.0
 40
1.799999952316284
  0
CIRCLE
  5
296
  8
0
  6
CONTINUOUS
 62
     4
 10
-185.6134860016576
 20
78.55188466292564
 30
0.0
 40
2.200000047683716
  0
ARC
  5
297
  8
0
  6
CONTINUOUS
 62
     4
 10
-158.3634860016576
 20
95.35350514632408
 30
0.0
 40
5.5
 50
318.9129185006128
 51
582.0558839553127
  0
ARC
  5
298
  8
0
  6
CONTINUOUS
 62
     4
 10
-190.3634860016576
 20
86.77913380843346
 30
0.0
 40
5.5
 50
348.9129176278916
 51
612.0558916203279
  0
ARC
  5
299
  8
0
  6
CONTINUOUS
 62
     4
 10
-213.789114663767
 20
63.35350514632408
 30
0.0
 40
5.5
 50
18.91291675517037
 51
282.0558856249648
  0
ARC
  5
29A
  8
0
  6
CONTINUOUS
 62
     4
 10
-213.789114663767
 20
-0.6465034367447657
 30
0.0
 40
5.5
 50
78.91291842482248
 51
342.0558736342386
  0
ARC
  5
29B
  8
0
  6
CONTINUOUS
 62
     4
 10
-190.3634860016576
 20
-24.07213114517982
 30
0.0
 40
5.5
 50
108.9129192596485
 51
372.0558949596322
  0
ARC
  5
29C
  8
0
  6
CONTINUOUS
 62
     4
 10
-158.3634860016576
 20
-32.64650629776772
 30
0.0
 40
5.5
 50
138.9129200944746
 51
402.055888964269
  0
ARC
  5
29D
  8
0
  6
CONTINUOUS
 62
     4
 10
-126.3634783722631
 20
-24.07213114517982
 30
0.0
 40
5.5
 50
168.9129140991115
 51
432.0558829689059
  0
ARC
  5
29E
  8
0
  6
CONTINUOUS
 62
     4
 10
-126.3634783722631
 20
86.77913380843346
 30
0.0
 40
5.5
 50
288.9129142506922
 51
552.0558762902974
  0
ARC
  5
29F
  8
0
  6
CONTINUOUS
 62
     4
 10
-207.6841494538061
 20
-25.39180468338783
 30
0.0
 40
12.0
 50
19.05552085975648
 51
30.00000083482606
  0
ARC
  5
2A0
  8
0
  6
CONTINUOUS
 62
     4
 10
-207.6841494538061
 20
-25.39180468338783
 30
0.0
 40
12.0
 50
30.00000083482606
 51
70.94447822962711
  0
ARC
  5
2A1
  8
0
  6
CONTINUOUS
 62
     4
 10
-215.1087557770483
 20
-17.96718214768227
 30
0.0
 40
12.0
 50
224.9999996583773
 51
250.9444800508599
  0
ARC
  5
2A2
  8
0
  6
CONTINUOUS
 62
     4
 10
-215.1087557770483
 20
-17.96718214768227
 30
0.0
 40
12.0
 50
30.00000083482606
 51
70.94447822962711
  0
ARC
  5
2A3
  8
0
  6
CONTINUOUS
 62
     4
 10
-215.1087557770483
 20
-17.96718214768227
 30
0.0
 40
12.0
 50
19.05552085975648
 51
30.00000083482606
  0
ARC
  5
2A4
  8
0
  6
CONTINUOUS
 62
     4
 10
-207.6841494538061
 20
-25.39180468338783
 30
0.0
 40
12.0
 50
199.0555260960839
 51
224.9422982202691
  0
ARC
  5
2A5
  8
0
  6
CONTINUOUS
 62
     4
 10
-229.4490878082983
 20
6.870959293662949
 30
0.0
 40
12.0
 50
169.0555284489813
 51
194.9423005731665
  0
ARC
  5
2A6
  8
0
  6
CONTINUOUS
 62
     4
 10
-232.1666781403295
 20
17.01317502242272
 30
0.0
 40
12.0
 50
349.055520878704
 51
360.000000834826
  0
ARC
  5
2A7
  8
0
  6
CONTINUOUS
 62
     4
 10
-232.1666781403295
 20
17.01317502242272
 30
0.0
 40
12.0
 50
0.0000008348260388
 51
40.94447739480105
  0
ARC
  5
2A8
  8
0
  6
CONTINUOUS
 62
     4
 10
-232.1666781403295
 20
17.01317502242272
 30
0.0
 40
12.0
 50
195.0000056537405
 51
220.9444792160339
  0
ARC
  5
2A9
  8
0
  6
CONTINUOUS
 62
     4
 10
-229.4490878082983
 20
6.870959293662949
 30
0.0
 40
12.0
 50
0.0000008348260388
 51
40.94447739480105
  0
ARC
  5
2AA
  8
0
  6
CONTINUOUS
 62
     4
 10
-229.4490878082983
 20
6.870959293662949
 30
0.0
 40
12.0
 50
349.055520878704
 51
360.000000834826
  0
ARC
  5
2AB
  8
0
  6
CONTINUOUS
 62
     4
 10
-158.3634860016576
 20
31.35350133162682
 30
0.0
 40
72.50000762939453
 50
204.3848768186347
 51
215.7177452555733
  0
ARC
  5
2AC
  8
0
  6
CONTINUOUS
 62
     4
 10
-158.3634860016576
 20
31.35350133162682
 30
0.0
 40
72.50000762939453
 50
234.2819535328579
 51
360.0
  0
LINE
  5
2AD
  8
0
  6
CONTINUOUS
 62
     4
 10
71.12233095390877
 20
3.353504192649766
 30
0.0
 11
124.1223233245142
 21
3.353504192649766
 31
0.0
  0
LINE
  5
2AE
  8
0
  6
CONTINUOUS
 62
     4
 10
9.122340490651936
 20
-9.896500575721817
 30
0.0
 11
12.1223500273951
 21
-9.896500575721817
 31
0.0
  0
LINE
  5
2AF
  8
0
  6
CONTINUOUS
 62
     4
 10
31.12232332451424
 20
57.85350133162682
 30
0.0
 11
31.12232332451424
 21
57.053498279869
 31
0.0
  0
LINE
  5
2B0
  8
0
  6
CONTINUOUS
 62
     4
 10
-12.87765092627922
 20
54.35350514632408
 30
0.0
 11
27.1223500273951
 21
54.35350514632408
 31
0.0
  0
LINE
  5
2B1
  8
0
  6
CONTINUOUS
 62
     4
 10
24.12234049065194
 20
-6.146508681953506
 30
0.0
 11
27.69789629204354
 21
-6.146508681953506
 31
0.0
  0
LINE
  5
2B2
  8
0
  6
CONTINUOUS
 62
     4
 10
24.12234049065194
 20
-6.146500456512527
 30
0.0
 11
27.74271898491463
 21
-6.146500456512527
 31
0.0
  0
LINE
  5
2B3
  8
0
  6
CONTINUOUS
 62
     4
 10
24.12234049065194
 20
68.85350514632408
 30
0.0
 11
27.70700197441659
 21
68.85350514632408
 31
0.0
  0
LINE
  5
2B4
  8
0
  6
CONTINUOUS
 62
     4
 10
60.22236757500252
 20
94.35350514632408
 30
0.0
 11
60.22236757500252
 21
91.35350514632408
 31
0.0
  0
LINE
  5
2B5
  8
0
  6
CONTINUOUS
 62
     4
 10
24.12234049065194
 20
73.01220418196861
 30
0.0
 11
24.12234049065194
 21
66.65349293929283
 31
0.0
  0
LINE
  5
2B6
  8
0
  6
CONTINUOUS
 62
     4
 10
24.12234049065194
 20
-10.32883929032143
 30
0.0
 11
24.12234049065194
 21
-3.946501839340286
 31
0.0
  0
LINE
  5
2B7
  8
0
  6
CONTINUOUS
 62
     4
 10
81.12233095390877
 20
118.3534975169296
 30
0.0
 11
60.1223614714869
 21
118.3534975169296
 31
0.0
  0
LINE
  5
2B8
  8
0
  6
CONTINUOUS
 62
     4
 10
101.1223309539088
 20
91.35350514632408
 30
0.0
 11
101.1223309539088
 21
62.57693959456627
 31
0.0
  0
LINE
  5
2B9
  8
0
  6
CONTINUOUS
 62
     4
 10
58.49799471123299
 20
117.4156694529647
 30
0.0
 11
58.49799471123299
 21
95.34904957991783
 31
0.0
  0
LINE
  5
2BA
  8
0
  6
CONTINUOUS
 62
     4
 10
81.02234771569795
 20
94.35350657744014
 30
0.0
 11
82.74669443942469
 21
95.34905864042842
 31
0.0
  0
LINE
  5
2BB
  8
0
  6
CONTINUOUS
 62
     4
 10
82.74669771416268
 20
117.4156694529647
 30
0.0
 11
82.74669771416268
 21
95.34904957991783
 31
0.0
  0
LINE
  5
2BC
  8
0
  6
CONTINUOUS
 62
     4
 10
81.0223629973658
 20
94.35350514632408
 30
0.0
 11
81.0223629973658
 21
91.35350514632408
 31
0.0
  0
LINE
  5
2BD
  8
0
  6
CONTINUOUS
 62
     4
 10
77.92234926445565
 20
104.3534975169296
 30
0.0
 11
77.92234926445565
 21
98.91515828353111
 31
0.0
  0
LINE
  5
2BE
  8
0
  6
CONTINUOUS
 62
     4
 10
60.1223469933044
 20
118.3534945076481
 30
0.0
 11
58.49798116690783
 21
117.4156664436832
 31
0.0
  0
LINE
  5
2BF
  8
0
  6
CONTINUOUS
 62
     4
 10
63.32234316094002
 20
104.3534975169296
 30
0.0
 11
63.32234316094002
 21
101.3419466136092
 31
0.0
  0
LINE
  5
2C0
  8
0
  6
CONTINUOUS
 62
     4
 10
81.12235239892402
 20
118.3534969564107
 30
0.0
 11
82.74671574760208
 21
117.4156703229573
 31
0.0
  0
LINE
  5
2C1
  8
0
  6
CONTINUOUS
 62
     4
 10
60.2223426508599
 20
94.35350102267738
 30
0.0
 11
58.49800170847635
 21
95.34904974780555
 31
0.0
  0
LINE
  5
2C2
  8
0
  6
CONTINUOUS
 62
     4
 10
77.92234316445462
 20
104.3534953876342
 30
0.0
 11
78.65605155437481
 21
118.3534854015402
 31
0.0
  0
LINE
  5
2C3
  8
0
  6
CONTINUOUS
 62
     4
 10
21.12233286125741
 20
91.35350514632408
 30
0.0
 11
101.1223309539088
 21
91.35350514632408
 31
0.0
  0
LINE
  5
2C4
  8
0
  6
CONTINUOUS
 62
     4
 10
62.58860665384458
 20
118.353484385321
 30
0.0
 11
63.32231584234808
 21
104.353479133538
 31
0.0
  0
LINE
  5
2C5
  8
0
  6
CONTINUOUS
 62
     4
 10
78.92371492607674
 20
104.3534975169296
 30
0.0
 11
62.32097749931893
 21
104.3534975169296
 31
0.0
  0
LINE
  5
2C6
  8
0
  6
CONTINUOUS
 62
     4
 10
102.6223614714869
 20
102.3535051463241
 30
0.0
 11
102.6223614714869
 21
62.40333272200768
 31
0.0
  0
LINE
  5
2C7
  8
0
  6
CONTINUOUS
 62
     4
 10
118.6223538420924
 20
146.8535051463241
 30
0.0
 11
118.6223538420924
 21
60.48900319319908
 31
0.0
  0
LINE
  5
2C8
  8
0
  6
CONTINUOUS
 62
     4
 10
124.1223233245142
 20
62.81409169417564
 30
0.0
 11
124.1223233245142
 21
58.85349370223229
 31
0.0
  0
LINE
  5
2C9
  8
0
  6
CONTINUOUS
 62
     4
 10
3.122334170958084
 20
-9.896515438827251
 30
0.0
 11
6.122327662495877
 21
-8.164468357833599
 31
0.0
  0
LINE
  5
2CA
  8
0
  6
CONTINUOUS
 62
     4
 10
21.12233095390877
 20
3.853505146324082
 30
0.0
 11
167.1223233245142
 21
3.853505146324082
 31
0.0
  0
LINE
  5
2CB
  8
0
  6
CONTINUOUS
 62
     4
 10
27.1223500273951
 20
54.85350133162682
 30
0.0
 11
27.1223500273951
 21
7.853492748557969
 31
0.0
  0
LINE
  5
2CC
  8
0
  6
CONTINUOUS
 62
     4
 10
27.1223500273951
 20
7.853492748557969
 30
0.0
 11
209.1223538420924
 21
7.853492748557969
 31
0.0
  0
LINE
  5
2CD
  8
0
  6
CONTINUOUS
 62
     4
 10
27.1223500273951
 20
54.85350133162682
 30
0.0
 11
209.1223538420924
 21
54.85350133162682
 31
0.0
  0
LINE
  5
2CE
  8
0
  6
CONTINUOUS
 62
     4
 10
136.6223233245142
 20
146.8535051463241
 30
0.0
 11
136.6223233245142
 21
68.81734944564049
 31
0.0
  0
LINE
  5
2CF
  8
0
  6
CONTINUOUS
 62
     4
 10
9.122340490651936
 20
72.60350514632408
 30
0.0
 11
12.1223500273951
 21
72.60350514632408
 31
0.0
  0
LINE
  5
2D0
  8
0
  6
CONTINUOUS
 62
     4
 10
104.1223614714869
 20
103.8535051463241
 30
0.0
 11
118.6223538420924
 21
103.8535051463241
 31
0.0
  0
LINE
  5
2D1
  8
0
  6
CONTINUOUS
 62
     4
 10
21.12233095390877
 20
58.85349370223229
 30
0.0
 11
167.1223233245142
 21
58.85349370223229
 31
0.0
  0
LINE
  5
2D2
  8
0
  6
CONTINUOUS
 62
     4
 10
31.12232166251426
 20
57.05350801022586
 30
0.0
 11
32.16155582389121
 21
58.85351434638504
 31
0.0
  0
LINE
  5
2D3
  8
0
  6
CONTINUOUS
 62
     4
 10
-12.87765092627922
 20
8.353493702232285
 30
0.0
 11
27.1223500273951
 21
8.353493702232285
 31
0.0
  0
LINE
  5
2D4
  8
0
  6
CONTINUOUS
 62
     4
 10
31.12232332451424
 20
4.853498470603867
 30
0.0
 11
31.12232332451424
 21
5.653497707664414
 31
0.0
  0
LINE
  5
2D5
  8
0
  6
CONTINUOUS
 62
     4
 10
-12.87765092627922
 20
57.85350133162682
 30
0.0
 11
31.58422975761971
 21
57.85350133162682
 31
0.0
  0
LINE
  5
2D6
  8
0
  6
CONTINUOUS
 62
     4
 10
6.122331907583089
 20
-8.164453494728164
 30
0.0
 11
6.122331907583089
 21
-9.896500575721817
 31
0.0
  0
LINE
  5
2D7
  8
0
  6
CONTINUOUS
 62
     4
 10
129.6223233245142
 20
63.40350056868736
 30
0.0
 11
129.6223233245142
 21
58.85349370223229
 31
0.0
  0
LINE
  5
2D8
  8
0
  6
CONTINUOUS
 62
     4
 10
136.1223538420924
 20
63.40350056868736
 30
0.0
 11
136.1223538420924
 21
58.85349370223229
 31
0.0
  0
LINE
  5
2D9
  8
0
  6
CONTINUOUS
 62
     4
 10
141.1223538420924
 20
68.48275471907799
 30
0.0
 11
141.1223538420924
 21
58.85349370223229
 31
0.0
  0
LINE
  5
2DA
  8
0
  6
CONTINUOUS
 62
     4
 10
130.3223507903346
 20
64.10349751692955
 30
0.0
 11
135.4223263762721
 21
64.10349751692955
 31
0.0
  0
LINE
  5
2DB
  8
0
  6
CONTINUOUS
 62
     4
 10
6.122331907583089
 20
67.35350514632408
 30
0.0
 11
24.12234049065194
 21
67.35350514632408
 31
0.0
  0
LINE
  5
2DC
  8
0
  6
CONTINUOUS
 62
     4
 10
20.12234455969985
 20
65.1534926742704
 30
0.0
 11
21.16157681372818
 21
63.35348964173589
 31
0.0
  0
LINE
  5
2DD
  8
0
  6
CONTINUOUS
 62
     4
 10
20.12232259587017
 20
61.55350260015756
 30
0.0
 11
21.16155675724713
 21
63.35350893631674
 31
0.0
  0
LINE
  5
2DE
  8
0
  6
CONTINUOUS
 62
     4
 10
0.1223576567896316
 20
72.60350514632408
 30
0.0
 11
0.1223576567896316
 21
58.85349370223229
 31
0.0
  0
LINE
  5
2DF
  8
0
  6
CONTINUOUS
 62
     4
 10
21.12233286125741
 20
-28.64650820511635
 30
0.0
 11
101.1223309539088
 21
-28.64650820511635
 31
0.0
  0
LINE
  5
2E0
  8
0
  6
CONTINUOUS
 62
     4
 10
6.122331907583089
 20
67.85349751692955
 30
0.0
 11
6.122331907583089
 21
58.85349370223229
 31
0.0
  0
LINE
  5
2E1
  8
0
  6
CONTINUOUS
 62
     4
 10
6.122331907583089
 20
61.55349446517174
 30
0.0
 11
20.12235765678963
 21
61.55349446517174
 31
0.0
  0
LINE
  5
2E2
  8
0
  6
CONTINUOUS
 62
     4
 10
6.122331907583089
 20
65.15350056868736
 30
0.0
 11
20.12235765678963
 21
65.15350056868736
 31
0.0
  0
LINE
  5
2E3
  8
0
  6
CONTINUOUS
 62
     4
 10
20.12235765678963
 20
65.15350056868736
 30
0.0
 11
20.12235765678963
 21
61.55349446517174
 31
0.0
  0
LINE
  5
2E4
  8
0
  6
CONTINUOUS
 62
     4
 10
23.12232332451424
 20
73.7732362864608
 30
0.0
 11
23.12232332451424
 21
71.85348988753502
 31
0.0
  0
LINE
  5
2E5
  8
0
  6
CONTINUOUS
 62
     4
 10
0.1223576567896316
 20
72.60350514632408
 30
0.0
 11
3.122322847677083
 21
72.60350514632408
 31
0.0
  0
LINE
  5
2E6
  8
0
  6
CONTINUOUS
 62
     4
 10
136.6223233245142
 20
-6.103240478218154
 30
0.0
 11
136.6223233245142
 21
-84.14650248307045
 31
0.0
  0
LINE
  5
2E7
  8
0
  6
CONTINUOUS
 62
     4
 10
101.1223309539088
 20
-28.64650820511635
 30
0.0
 11
101.1223309539088
 21
0.2155032275313573
 31
0.0
  0
LINE
  5
2E8
  8
0
  6
CONTINUOUS
 62
     4
 10
6.122331907583089
 20
70.87145711165611
 30
0.0
 11
6.122331907583089
 21
72.60350514632408
 31
0.0
  0
LINE
  5
2E9
  8
0
  6
CONTINUOUS
 62
     4
 10
3.122340032401894
 20
72.60349196652304
 30
0.0
 11
6.122333523939687
 21
70.87144488552939
 31
0.0
  0
LINE
  5
2EA
  8
0
  6
CONTINUOUS
 62
     4
 10
6.122354559850237
 20
72.6034835324658
 30
0.0
 11
9.12234805138803
 21
70.87143645147215
 31
0.0
  0
LINE
  5
2EB
  8
0
  6
CONTINUOUS
 62
     4
 10
9.122340490651936
 20
70.87145711165611
 30
0.0
 11
9.122340490651936
 21
72.60350514632408
 31
0.0
  0
LINE
  5
2EC
  8
0
  6
CONTINUOUS
 62
     4
 10
12.1223500273951
 20
78.60350514632408
 30
0.0
 11
21.12233286125741
 21
78.60350514632408
 31
0.0
  0
LINE
  5
2ED
  8
0
  6
CONTINUOUS
 62
     4
 10
21.12233286125741
 20
-28.64650820511635
 30
0.0
 11
21.12233286125741
 21
-12.05150698441322
 31
0.0
  0
LINE
  5
2EE
  8
0
  6
CONTINUOUS
 62
     4
 10
102.6223614714869
 20
-39.64651011246498
 30
0.0
 11
102.6223614714869
 21
0.3638053057784276
 31
0.0
  0
LINE
  5
2EF
  8
0
  6
CONTINUOUS
 62
     4
 10
0.1223576567896316
 20
-9.896500575721817
 30
0.0
 11
3.122322847677083
 21
-9.896500575721817
 31
0.0
  0
LINE
  5
2F0
  8
0
  6
CONTINUOUS
 62
     4
 10
118.6223538420924
 20
-84.14650248307045
 30
0.0
 11
118.6223538420924
 21
2.20239068251793
 31
0.0
  0
LINE
  5
2F1
  8
0
  6
CONTINUOUS
 62
     4
 10
124.1223233245142
 20
-0.1069211842423243
 30
0.0
 11
124.1223233245142
 21
3.853496563255234
 31
0.0
  0
LINE
  5
2F2
  8
0
  6
CONTINUOUS
 62
     4
 10
104.1223614714869
 20
-41.14651011246498
 30
0.0
 11
118.6223538420924
 21
-41.14651011246498
 31
0.0
  0
LINE
  5
2F3
  8
0
  6
CONTINUOUS
 62
     4
 10
31.12234174667049
 20
5.653506622542338
 30
0.0
 11
32.16157447753596
 21
3.853502764101663
 31
0.0
  0
LINE
  5
2F4
  8
0
  6
CONTINUOUS
 62
     4
 10
-12.87765092627922
 20
4.853498470603867
 30
0.0
 11
31.58422975761971
 21
4.853498470603867
 31
0.0
  0
LINE
  5
2F5
  8
0
  6
CONTINUOUS
 62
     4
 10
129.6223233245142
 20
-0.6965021969681544
 30
0.0
 11
129.6223233245142
 21
3.853496563255234
 31
0.0
  0
LINE
  5
2F6
  8
0
  6
CONTINUOUS
 62
     4
 10
136.1223538420924
 20
-0.6965021969681544
 30
0.0
 11
136.1223538420924
 21
3.853496563255234
 31
0.0
  0
LINE
  5
2F7
  8
0
  6
CONTINUOUS
 62
     4
 10
141.1223538420924
 20
-5.773833441913681
 30
0.0
 11
141.1223538420924
 21
3.853496563255234
 31
0.0
  0
LINE
  5
2F8
  8
0
  6
CONTINUOUS
 62
     4
 10
130.3223507903346
 20
-1.396502006233291
 30
0.0
 11
135.4223263762721
 21
-1.396502006233291
 31
0.0
  0
LINE
  5
2F9
  8
0
  6
CONTINUOUS
 62
     4
 10
6.122331907583089
 20
-4.646501559198455
 30
0.0
 11
24.12234049065194
 21
-4.646501559198455
 31
0.0
  0
LINE
  5
2FA
  8
0
  6
CONTINUOUS
 62
     4
 10
20.12234946746935
 20
-2.44651779838695
 30
0.0
 11
21.16158172149767
 21
-0.6465147658524444
 31
0.0
  0
LINE
  5
2FB
  8
0
  6
CONTINUOUS
 62
     4
 10
20.12234425281042
 20
1.153510187637338
 30
0.0
 11
21.16157674525732
 21
-0.6464932578502527
 31
0.0
  0
LINE
  5
2FC
  8
0
  6
CONTINUOUS
 62
     4
 10
6.122331907583089
 20
-5.146502125442581
 30
0.0
 11
6.122331907583089
 21
3.853496563255234
 31
0.0
  0
LINE
  5
2FD
  8
0
  6
CONTINUOUS
 62
     4
 10
6.122331907583089
 20
1.153497707664414
 30
0.0
 11
20.12235765678963
 21
1.153497707664414
 31
0.0
  0
LINE
  5
2FE
  8
0
  6
CONTINUOUS
 62
     4
 10
6.122331907583089
 20
-2.446502912223892
 30
0.0
 11
20.12235765678963
 21
-2.446502912223892
 31
0.0
  0
LINE
  5
2FF
  8
0
  6
CONTINUOUS
 62
     4
 10
20.12235765678963
 20
-2.446502912223892
 30
0.0
 11
20.12235765678963
 21
1.153497707664414
 31
0.0
  0
LINE
  5
300
  8
0
  6
CONTINUOUS
 62
     4
 10
23.12232332451424
 20
-11.06623505371864
 30
0.0
 11
23.12232332451424
 21
-9.146495807350235
 31
0.0
  0
LINE
  5
301
  8
0
  6
CONTINUOUS
 62
     4
 10
12.1223500273951
 20
-15.89650725144203
 30
0.0
 11
21.12233286125741
 21
-15.89650725144203
 31
0.0
  0
LINE
  5
302
  8
0
  6
CONTINUOUS
 62
     4
 10
0.1223576567896316
 20
-5.146502125442581
 30
0.0
 11
6.122331907583089
 21
-5.146502125442581
 31
0.0
  0
LINE
  5
303
  8
0
  6
CONTINUOUS
 62
     4
 10
12.1223500273951
 20
-15.89650152939613
 30
0.0
 11
12.1223500273951
 21
-9.896500575721817
 31
0.0
  0
LINE
  5
304
  8
0
  6
CONTINUOUS
 62
     4
 10
0.1223576567896316
 20
-9.896500575721817
 30
0.0
 11
0.1223576567896316
 21
3.853496563255234
 31
0.0
  0
LINE
  5
305
  8
0
  6
CONTINUOUS
 62
     4
 10
71.12233095390877
 20
3.353504192649766
 30
0.0
 11
71.12233095390877
 21
3.853505146324082
 31
0.0
  0
LINE
  5
306
  8
0
  6
CONTINUOUS
 62
     4
 10
-12.87765092627922
 20
57.85350133162682
 30
0.0
 11
-12.87765092627922
 21
4.853498470603867
 31
0.0
  0
LINE
  5
307
  8
0
  6
CONTINUOUS
 62
     4
 10
9.122340490651936
 20
-8.164453494728164
 30
0.0
 11
9.122340490651936
 21
-9.896500575721817
 31
0.0
  0
LINE
  5
308
  8
0
  6
CONTINUOUS
 62
     4
 10
6.122350192801974
 20
-9.896510546813275
 30
0.0
 11
9.122343271386683
 21
-8.164463704238202
 31
0.0
  0
LINE
  5
309
  8
0
  6
CONTINUOUS
 62
     4
 10
21.12233286125741
 20
91.35350514632408
 30
0.0
 11
21.12233286125741
 21
74.75851155501549
 31
0.0
  0
LINE
  5
30A
  8
0
  6
CONTINUOUS
 62
     4
 10
0.1223576567896316
 20
67.85349751692955
 30
0.0
 11
6.122331907583089
 21
67.85349751692955
 31
0.0
  0
LINE
  5
30B
  8
0
  6
CONTINUOUS
 62
     4
 10
12.1223500273951
 20
78.60350514632408
 30
0.0
 11
12.1223500273951
 21
72.60350514632408
 31
0.0
  0
LINE
  5
30C
  8
0
  6
CONTINUOUS
 62
     4
 10
71.12233095390877
 20
59.35348988753502
 30
0.0
 11
124.1223233245142
 21
59.35348988753502
 31
0.0
  0
LINE
  5
30D
  8
0
  6
CONTINUOUS
 62
     4
 10
71.12233095390877
 20
59.35348988753502
 30
0.0
 11
71.12233095390877
 21
58.85349370223229
 31
0.0
  0
LINE
  5
30E
  8
0
  6
CONTINUOUS
 62
     4
 10
118.6223538420924
 20
-84.14650248307045
 30
0.0
 11
202.1223233245142
 21
-84.14650248307045
 31
0.0
  0
LINE
  5
30F
  8
0
  6
CONTINUOUS
 62
     4
 10
104.1223572704988
 20
103.8535045406782
 30
0.0
 11
102.6223556781145
 21
102.3535029482939
 31
0.0
  0
LINE
  5
310
  8
0
  6
CONTINUOUS
 62
     4
 10
102.6223567792009
 20
-39.64650863379212
 30
0.0
 11
104.1223583715852
 21
-41.14651022617638
 31
0.0
  0
LINE
  5
311
  8
0
  6
CONTINUOUS
 62
     4
 10
-123.4134880976679
 20
-24.07212308190584
 30
0.0
 11
-124.8884903864863
 21
-26.62690194156586
 31
0.0
  0
LINE
  5
312
  8
0
  6
CONTINUOUS
 62
     4
 10
-124.888479898142
 20
-26.62664126175697
 30
0.0
 11
-127.8384844757787
 21
-26.62664126175697
 31
0.0
  0
LINE
  5
313
  8
0
  6
CONTINUOUS
 62
     4
 10
-127.8384769193452
 20
-26.62690301461954
 30
0.0
 11
-129.313477300815
 21
-24.07212745858421
 31
0.0
  0
LINE
  5
314
  8
0
  6
CONTINUOUS
 62
     4
 10
-129.3134870065672
 20
-24.07212009627939
 30
0.0
 11
-127.8384885324462
 21
-21.51734784386873
 31
0.0
  0
LINE
  5
315
  8
0
  6
CONTINUOUS
 62
     4
 10
-127.8384768463842
 20
-21.51719378250893
 30
0.0
 11
-124.888479898142
 21
-21.51719378250893
 31
0.0
  0
LINE
  5
316
  8
0
  6
CONTINUOUS
 62
     4
 10
-124.8884730513395
 20
-21.51735882779646
 30
0.0
 11
-123.4134745772184
 21
-24.07213108020711
 31
0.0
  0
LINE
  5
317
  8
0
  6
CONTINUOUS
 62
     4
 10
-100.3830859162084
 20
0.8284955142134862
 30
0.0
 11
-100.3830859162084
 21
-2.121507394493179
 31
0.0
  0
LINE
  5
318
  8
0
  6
CONTINUOUS
 62
     4
 10
-100.383212257061
 20
-2.12127763652758
 30
0.0
 11
-102.9379845094717
 21
-3.596276110648674
 31
0.0
  0
LINE
  5
319
  8
0
  6
CONTINUOUS
 62
     4
 10
-102.9378492599898
 20
-3.596503825524692
 30
0.0
 11
-105.4926281196498
 21
-2.121501536706333
 31
0.0
  0
LINE
  5
31A
  8
0
  6
CONTINUOUS
 62
     4
 10
-105.4926363922826
 20
-2.121500241935806
 30
0.0
 11
-105.4926363922826
 21
0.8284993289107518
 31
0.0
  0
LINE
  5
31B
  8
0
  6
CONTINUOUS
 62
     4
 10
-105.4927016418463
 20
0.8286389409604311
 30
0.0
 11
-102.9379293894357
 21
2.303637415081525
 31
0.0
  0
LINE
  5
31C
  8
0
  6
CONTINUOUS
 62
     4
 10
-102.9378462743633
 20
2.303495083374614
 30
0.0
 11
-100.3830740219527
 21
0.82849660925352
 31
0.0
  0
LINE
  5
31D
  8
0
  6
CONTINUOUS
 62
     4
 10
-102.9378562194728
 20
66.30349139369848
 30
0.0
 11
-100.3830773598128
 21
64.82848910488012
 31
0.0
  0
LINE
  5
31E
  8
0
  6
CONTINUOUS
 62
     4
 10
-100.383337686228
 20
64.82849599105064
 30
0.0
 11
-100.383337686228
 21
61.87849904280846
 31
0.0
  0
LINE
  5
31F
  8
0
  6
CONTINUOUS
 62
     4
 10
-100.3830759501046
 20
61.8784998086612
 30
0.0
 11
-102.93785150614
 21
60.40349942719148
 31
0.0
  0
LINE
  5
320
  8
0
  6
CONTINUOUS
 62
     4
 10
-102.9378589666807
 20
60.40349289775226
 30
0.0
 11
-105.4926312190913
 21
61.87849137187335
 31
0.0
  0
LINE
  5
321
  8
0
  6
CONTINUOUS
 62
     4
 10
-105.4927889801733
 20
61.87850667220299
 30
0.0
 11
-105.4927889801733
 21
64.82850362044518
 31
0.0
  0
LINE
  5
322
  8
0
  6
CONTINUOUS
 62
     4
 10
-105.4926234405524
 20
64.82850176931832
 30
0.0
 11
-102.9378478845171
 21
66.30350215078805
 31
0.0
  0
LINE
  5
323
  8
0
  6
CONTINUOUS
 62
     4
 10
-127.8384768463842
 20
89.33388997298424
 30
0.0
 11
-124.8884722687475
 21
89.33388997298424
 31
0.0
  0
LINE
  5
324
  8
0
  6
CONTINUOUS
 62
     4
 10
-124.8887013281966
 20
89.33376447094541
 30
0.0
 11
-123.4137028540755
 21
86.77899221853475
 31
0.0
  0
LINE
  5
325
  8
0
  6
CONTINUOUS
 62
     4
 10
-123.4134802099901
 20
86.77912966100676
 30
0.0
 11
-124.8884796377855
 21
84.22435575678377
 31
0.0
  0
LINE
  5
326
  8
0
  6
CONTINUOUS
 62
     4
 10
-124.888479898142
 20
84.22433949691002
 30
0.0
 11
-127.8384844757787
 21
84.22433949691002
 31
0.0
  0
LINE
  5
327
  8
0
  6
CONTINUOUS
 62
     4
 10
-127.8386217203819
 20
84.22428169340945
 30
0.0
 11
-129.313620194503
 21
86.77905394582011
 31
0.0
  0
LINE
  5
328
  8
0
  6
CONTINUOUS
 62
     4
 10
-129.3134715579657
 20
86.77913048374829
 30
0.0
 11
-127.838471176496
 21
89.33390603978363
 31
0.0
  0
LINE
  5
329
  8
0
  6
CONTINUOUS
 62
     4
 10
21.12233095390877
 20
59.15349293929283
 30
0.0
 11
21.12233095390877
 21
58.29136372786705
 31
0.0
  0
LINE
  5
32A
  8
0
  6
CONTINUOUS
 62
     4
 10
6.122331907583089
 20
59.15349293929283
 30
0.0
 11
21.12233095390877
 21
59.15349293929283
 31
0.0
  0
LINE
  5
32B
  8
0
  6
CONTINUOUS
 62
     4
 10
21.12233095390877
 20
3.553508770286484
 30
0.0
 11
21.12233095390877
 21
4.415639889060898
 31
0.0
  0
LINE
  5
32C
  8
0
  6
CONTINUOUS
 62
     4
 10
6.122331907583089
 20
3.553508770286484
 30
0.0
 11
21.12233095390877
 21
3.553508770286484
 31
0.0
  0
CIRCLE
  5
32D
  8
0
  6
CONTINUOUS
 62
     4
 10
-67.43081922309318
 20
-21.14649676102455
 30
0.0
 40
7.000000476837158
  0
CIRCLE
  5
32E
  8
0
  6
CONTINUOUS
 62
     4
 10
-67.43081922309318
 20
83.85349751692955
 30
0.0
 40
7.000000476837158
  0
CIRCLE
  5
32F
  8
0
  6
CONTINUOUS
 62
     4
 10
-105.8634783722631
 20
-59.5791692616349
 30
0.0
 40
8.75
  0
CIRCLE
  5
330
  8
0
  6
CONTINUOUS
 62
     4
 10
-105.8634783722631
 20
122.2861681101913
 30
0.0
 40
8.75
  0
ARC
  5
331
  8
0
  6
CONTINUOUS
 62
     4
 10
100.6223691008814
 20
73.85349751692955
 30
0.0
 40
2.0
 50
284.4764809885263
 51
360.0
  0
ARC
  5
332
  8
0
  6
CONTINUOUS
 62
     4
 10
130.3223507903346
 20
63.40350056868736
 30
0.0
 40
0.699999988079071
 50
90.00000250447816
 51
180.0000050089563
  0
ARC
  5
333
  8
0
  6
CONTINUOUS
 62
     4
 10
135.4223263762721
 20
63.40350056868736
 30
0.0
 40
0.699999988079071
 50
0.0
 51
90.00000250447816
  0
ARC
  5
334
  8
0
  6
CONTINUOUS
 62
     4
 10
100.6223691008814
 20
-11.14649771469887
 30
0.0
 40
2.0
 50
0.0
 51
75.5235190114737
  0
ARC
  5
335
  8
0
  6
CONTINUOUS
 62
     4
 10
130.3223507903346
 20
-0.6965021969681544
 30
0.0
 40
0.699999988079071
 50
179.999991348578
 51
270.0000006832453
  0
ARC
  5
336
  8
0
  6
CONTINUOUS
 62
     4
 10
135.4223263762721
 20
-0.6965021969681544
 30
0.0
 40
0.699999988079071
 50
269.9999974955218
 51
360.0
  0
CIRCLE
  5
337
  8
0
  6
CONTINUOUS
 62
     4
 10
-103.8634860016576
 20
31.35350133162682
 30
0.0
 40
2.200000047683716
  0
CIRCLE
  5
338
  8
0
  6
CONTINUOUS
 62
     4
 10
-126.3634860016576
 20
31.35350133162682
 30
0.0
 40
1.799999952316284
  0
ARC
  5
339
  8
0
  6
CONTINUOUS
 62
     4
 10
-102.9378497101537
 20
-0.6465034367447657
 30
0.0
 40
5.5
 50
198.912911746214
 51
462.0558806160084
  0
ARC
  5
33A
  8
0
  6
CONTINUOUS
 62
     4
 10
-102.9378497101537
 20
63.35350514632408
 30
0.0
 40
5.5
 50
258.9129202460553
 51
522.0558822856606
  0
ARC
  5
33B
  8
0
  6
CONTINUOUS
 62
     4
 10
-53.3635012604467
 20
31.35350133162682
 30
0.0
 40
8.75
 50
114.0994165757086
 51
243.7380872490864
  0
POLYLINE
  5
33C
  8
0
  6
CONTINUOUS
 62
     4
 66
     1
 10
0.0
 20
0.0
 30
0.0
  0
VERTEX
  5
3FF
  8
0
  6
CONTINUOUS
 62
     4
 10
10.56898050530037
 20
75.06094838362877
 30
0.0
 40
0.18
 41
0.18
  0
VERTEX
  5
400
  8
0
  6
CONTINUOUS
 62
     4
 10
13.88148220888203
 20
75.60233107747904
 30
0.0
 40
0.18
 41
0.18
  0
VERTEX
  5
401
  8
0
  6
CONTINUOUS
 62
     4
 10
17.34356314763001
 20
75.59128718605867
 30
0.0
 40
0.18
 41
0.18
  0
VERTEX
  5
402
  8
0
  6
CONTINUOUS
 62
     4
 10
20.66719996381676
 20
74.91823083457298
 30
0.0
 40
0.18
 41
0.18
  0
VERTEX
  5
403
  8
0
  6
CONTINUOUS
 62
     4
 10
23.56436929971474
 20
73.4735761482273
 30
0.0
 40
0.18
 41
0.18
  0
VERTEX
  5
404
  8
0
  6
CONTINUOUS
 62
     4
 10
25.81911620255617
 20
71.2098362908221
 30
0.0
 40
0.18
 41
0.18
  0
VERTEX
  5
405
  8
0
  6
CONTINUOUS
 62
     4
 10
27.90548422791299
 20
68.67360681160444
 30
0.0
 40
0.18
 41
0.18
  0
VERTEX
  5
406
  8
0
  6
CONTINUOUS
 62
     4
 10
30.27989412819692
 20
66.38185742187642
 30
0.0
 40
0.18
 41
0.18
  0
VERTEX
  5
407
  8
0
  6
CONTINUOUS
 62
     4
 10
32.91917163421415
 20
64.42145511757667
 30
0.0
 40
0.18
 41
0.18
  0
VERTEX
  5
408
  8
0
  6
CONTINUOUS
 62
     4
 10
35.77276859641666
 20
62.85472680373322
 30
0.0
 40
0.18
 41
0.18
  0
VERTEX
  5
409
  8
0
  6
CONTINUOUS
 62
     4
 10
38.79036315169799
 20
61.74184065482483
 30
0.0
 40
0.18
 41
0.18
  0
VERTEX
  5
40A
  8
0
  6
CONTINUOUS
 62
     4
 10
41.92909503112995
 20
61.07178262519136
 30
0.0
 40
0.18
 41
0.18
  0
VERTEX
  5
40B
  8
0
  6
CONTINUOUS
 62
     4
 10
45.15508818069818
 20
60.74783093051822
 30
0.0
 40
0.18
 41
0.18
  0
VERTEX
  5
40C
  8
0
  6
CONTINUOUS
 62
     4
 10
48.43500065270136
 20
60.66816851164214
 30
0.0
 40
0.18
 41
0.18
  0
VERTEX
  5
40D
  8
0
  6
CONTINUOUS
 62
     4
 10
51.7354904994381
 20
60.7309783093998
 30
0.0
 40
0.18
 41
0.18
  0
VERTEX
  5
40E
  8
0
  6
CONTINUOUS
 62
     4
 10
55.02510746305622
 20
60.84085002072079
 30
0.0
 40
0.18
 41
0.18
  0
VERTEX
  5
40F
  8
0
  6
CONTINUOUS
 62
     4
 10
58.29111439747666
 20
60.96575072066186
 30
0.0
 40
0.18
 41
0.18
  0
VERTEX
  5
410
  8
0
  6
CONTINUOUS
 62
     4
 10
61.53145344363059
 20
61.10981598576578
 30
0.0
 40
0.18
 41
0.18
  0
VERTEX
  5
411
  8
0
  6
CONTINUOUS
 62
     4
 10
64.74419142766436
 20
61.27760367520377
 30
0.0
 40
0.18
 41
0.18
  0
VERTEX
  5
412
  8
0
  6
CONTINUOUS
 62
     4
 10
67.92739517572426
 20
61.47367164814708
 30
0.0
 40
0.18
 41
0.18
  0
VERTEX
  5
413
  8
0
  6
CONTINUOUS
 62
     4
 10
71.08082730342166
 20
61.69980315277373
 30
0.0
 40
0.18
 41
0.18
  0
VERTEX
  5
414
  8
0
  6
CONTINUOUS
 62
     4
 10
74.21265833458625
 20
61.94402461481808
 30
0.0
 40
0.18
 41
0.18
  0
VERTEX
  5
415
  8
0
  6
CONTINUOUS
 62
     4
 10
77.33365979196418
 20
62.19010676652446
 30
0.0
 40
0.18
 41
0.18
  0
VERTEX
  5
416
  8
0
  6
CONTINUOUS
 62
     4
 10
80.45460396801416
 20
62.42181908075136
 30
0.0
 40
0.18
 41
0.18
  0
VERTEX
  5
417
  8
0
  6
CONTINUOUS
 62
     4
 10
83.586263155195
 20
62.62293103035737
 30
0.0
 40
0.18
 41
0.18
  0
VERTEX
  5
418
  8
0
  6
CONTINUOUS
 62
     4
 10
86.73940964596542
 20
62.77721208820103
 30
0.0
 40
0.18
 41
0.18
  0
VERTEX
  5
419
  8
0
  6
CONTINUOUS
 62
     4
 10
89.9248157327842
 20
62.86843172714086
 30
0.0
 40
0.18
 41
0.18
  0
VERTEX
  5
41A
  8
0
  6
CONTINUOUS
 62
     4
 10
93.15325370811011
 20
62.88035942003541
 30
0.0
 40
0.18
 41
0.18
  0
VERTEX
  5
41B
  8
0
  6
CONTINUOUS
 62
     4
 10
96.43549586440187
 20
62.79676463974323
 30
0.0
 40
0.18
 41
0.18
  0
VERTEX
  5
41C
  8
0
  6
CONTINUOUS
 62
     4
 10
99.78231449411828
 20
62.60141685912286
 30
0.0
 40
0.18
 41
0.18
  0
VERTEX
  5
41D
  8
0
  6
CONTINUOUS
 62
     4
 10
103.2044818897181
 20
62.27808555103285
 30
0.0
 40
0.18
 41
0.18
  0
VERTEX
  5
41E
  8
0
  6
CONTINUOUS
 62
     4
 10
106.71277034366
 20
61.81054018833171
 30
0.0
 40
0.18
 41
0.18
  0
VERTEX
  5
41F
  8
0
  6
CONTINUOUS
 62
     4
 10
110.3042709553867
 20
61.20901775507515
 30
0.0
 40
0.18
 41
0.18
  0
VERTEX
  5
420
  8
0
  6
CONTINUOUS
 62
     4
 10
113.8827436592223
 20
60.66431285590771
 30
0.0
 40
0.18
 41
0.18
  0
VERTEX
  5
421
  8
0
  6
CONTINUOUS
 62
     4
 10
117.3129790936633
 20
60.44260973966951
 30
0.0
 40
0.18
 41
0.18
  0
VERTEX
  5
422
  8
0
  6
CONTINUOUS
 62
     4
 10
120.4596377085572
 20
60.81034451697357
 30
0.0
 40
0.18
 41
0.18
  0
VERTEX
  5
423
  8
0
  6
CONTINUOUS
 62
     4
 10
123.1873799537516
 20
62.03395329843299
 30
0.0
 40
0.18
 41
0.18
  0
VERTEX
  5
424
  8
0
  6
CONTINUOUS
 62
     4
 10
125.4112660310938
 20
64.28179442825062
 30
0.0
 40
0.18
 41
0.18
  0
VERTEX
  5
425
  8
0
  6
CONTINUOUS
 62
     4
 10
127.567182017091
 20
66.70870043316627
 30
0.0
 40
0.18
 41
0.18
  0
VERTEX
  5
426
  8
0
  6
CONTINUOUS
 62
     4
 10
130.2283608850427
 20
68.19592482190544
 30
0.0
 40
0.18
 41
0.18
  0
VERTEX
  5
427
  8
0
  6
CONTINUOUS
 62
     4
 10
133.3574635424442
 20
68.7901299629828
 30
0.0
 40
0.18
 41
0.18
  0
VERTEX
  5
428
  8
0
  6
CONTINUOUS
 62
     4
 10
136.7784526778526
 20
68.80274729537204
 30
0.0
 40
0.18
 41
0.18
  0
VERTEX
  5
429
  8
0
  6
CONTINUOUS
 62
     4
 10
140.315290979825
 20
68.5452082580469
 30
0.0
 40
0.18
 41
0.18
  0
VERTEX
  5
42A
  8
0
  6
CONTINUOUS
 62
     4
 10
143.7982990994937
 20
68.31811283657976
 30
0.0
 40
0.18
 41
0.18
  0
VERTEX
  5
42B
  8
0
  6
CONTINUOUS
 62
     4
 10
147.163775688608
 20
68.24151642200775
 30
0.0
 40
0.18
 41
0.18
  0
VERTEX
  5
42C
  8
0
  6
CONTINUOUS
 62
     4
 10
150.4355296540096
 20
68.28639154447873
 30
0.0
 40
0.18
 41
0.18
  0
VERTEX
  5
42D
  8
0
  6
CONTINUOUS
 62
     4
 10
153.6399918142409
 20
68.41924403367298
 30
0.0
 40
0.18
 41
0.18
  0
VERTEX
  5
42E
  8
0
  6
CONTINUOUS
 62
     4
 10
156.8035929878442
 20
68.60657971927068
 30
0.0
 40
0.18
 41
0.18
  0
VERTEX
  5
42F
  8
0
  6
CONTINUOUS
 62
     4
 10
159.9527639933619
 20
68.81490443095208
 30
0.0
 40
0.18
 41
0.18
  0
VERTEX
  5
430
  8
0
  6
CONTINUOUS
 62
     4
 10
163.1139356493364
 20
69.01072399839738
 30
0.0
 40
0.18
 41
0.18
  0
VERTEX
  5
431
  8
0
  6
CONTINUOUS
 62
     4
 10
166.3127596522249
 20
69.16213006590036
 30
0.0
 40
0.18
 41
0.18
  0
VERTEX
  5
432
  8
0
  6
CONTINUOUS
 62
     4
 10
169.5515269093515
 20
69.28476251378018
 30
0.0
 40
0.18
 41
0.18
  0
VERTEX
  5
433
  8
0
  6
CONTINUOUS
 62
     4
 10
172.805673376707
 20
69.44892142913105
 30
0.0
 40
0.18
 41
0.18
  0
VERTEX
  5
434
  8
0
  6
CONTINUOUS
 62
     4
 10
176.0491527965079
 20
69.72792377702869
 30
0.0
 40
0.18
 41
0.18
  0
VERTEX
  5
435
  8
0
  6
CONTINUOUS
 62
     4
 10
179.2559189109709
 20
70.19508652254875
 30
0.0
 40
0.18
 41
0.18
  0
VERTEX
  5
436
  8
0
  6
CONTINUOUS
 62
     4
 10
182.4000556151251
 20
70.92320972634956
 30
0.0
 40
0.18
 41
0.18
  0
VERTEX
  5
437
  8
0
  6
CONTINUOUS
 62
     4
 10
185.4652599370465
 20
71.94691470484858
 30
0.0
 40
0.18
 41
0.18
  0
VERTEX
  5
438
  8
0
  6
CONTINUOUS
 62
     4
 10
188.4512710543293
 20
73.23711106668409
 30
0.0
 40
0.18
 41
0.18
  0
VERTEX
  5
439
  8
0
  6
CONTINUOUS
 62
     4
 10
191.367017688465
 20
74.73523363611378
 30
0.0
 40
0.18
 41
0.18
  0
VERTEX
  5
43A
  8
0
  6
CONTINUOUS
 62
     4
 10
194.2841256459614
 20
76.19113501189504
 30
0.0
 40
0.18
 41
0.18
  0
VERTEX
  5
43B
  8
0
  6
CONTINUOUS
 62
     4
 10
197.3048696428059
 20
77.26101453465236
 30
0.0
 40
0.18
 41
0.18
  0
VERTEX
  5
43C
  8
0
  6
CONTINUOUS
 62
     4
 10
200.4997928327735
 20
77.6647402494476
 30
0.0
 40
0.18
 41
0.18
  0
VERTEX
  5
43D
  8
0
  6
CONTINUOUS
 62
     4
 10
203.7864452407121
 20
77.43020498259746
 30
0.0
 40
0.18
 41
0.18
  0
VERTEX
  5
43E
  8
0
  6
CONTINUOUS
 62
     4
 10
207.0366219360402
 20
76.67742112314842
 30
0.0
 40
0.18
 41
0.18
  0
VERTEX
  5
43F
  8
0
  6
CONTINUOUS
 62
     4
 10
210.1221097014672
 20
75.5264177439804
 30
0.0
 40
0.18
 41
0.18
  0
SEQEND
  5
3FE
  8
0
  6
CONTINUOUS
 62
     4
  0
POLYLINE
  5
33D
  8
0
  6
CONTINUOUS
 62
     4
 66
     1
 10
0.0
 20
0.0
 30
0.0
  0
VERTEX
  5
441
  8
0
  6
CONTINUOUS
 62
     4
 10
10.56898050530037
 20
-12.35394810456093
 30
0.0
 40
0.18
 41
0.18
  0
VERTEX
  5
442
  8
0
  6
CONTINUOUS
 62
     4
 10
13.88148216856029
 20
-12.89533052530731
 30
0.0
 40
0.18
 41
0.18
  0
VERTEX
  5
443
  8
0
  6
CONTINUOUS
 62
     4
 10
17.34356301266483
 20
-12.88428600252228
 30
0.0
 40
0.18
 41
0.18
  0
VERTEX
  5
444
  8
0
  6
CONTINUOUS
 62
     4
 10
20.6671997362083
 20
-12.21122894751811
 30
0.0
 40
0.18
 41
0.18
  0
VERTEX
  5
445
  8
0
  6
CONTINUOUS
 62
     4
 10
23.56436903778497
 20
-10.76657377160706
 30
0.0
 40
0.18
 41
0.18
  0
VERTEX
  5
446
  8
0
  6
CONTINUOUS
 62
     4
 10
25.819115979995
 20
-8.502833848565878
 30
0.0
 40
0.18
 41
0.18
  0
VERTEX
  5
447
  8
0
  6
CONTINUOUS
 62
     4
 10
27.90548400313317
 20
-5.966604433169444
 30
0.0
 40
0.18
 41
0.18
  0
VERTEX
  5
448
  8
0
  6
CONTINUOUS
 62
     4
 10
30.27989388306482
 20
-3.674855037618791
 30
0.0
 40
0.18
 41
0.18
  0
VERTEX
  5
449
  8
0
  6
CONTINUOUS
 62
     4
 10
32.91917136727503
 20
-1.71445268024609
 30
0.0
 40
0.18
 41
0.18
  0
VERTEX
  5
44A
  8
0
  6
CONTINUOUS
 62
     4
 10
35.77276831019501
 20
-0.1477242901091614
 30
0.0
 40
0.18
 41
0.18
  0
VERTEX
  5
44B
  8
0
  6
CONTINUOUS
 62
     4
 10
38.79036285247703
 20
0.9651619332044841
 30
0.0
 40
0.18
 41
0.18
  0
VERTEX
  5
44C
  8
0
  6
CONTINUOUS
 62
     4
 10
41.92909472566499
 20
1.635220012661253
 30
0.0
 40
0.18
 41
0.18
  0
VERTEX
  5
44D
  8
0
  6
CONTINUOUS
 62
     4
 10
45.15508787454827
 20
1.959171734627192
 30
0.0
 40
0.18
 41
0.18
  0
VERTEX
  5
44E
  8
0
  6
CONTINUOUS
 62
     4
 10
48.43500035034504
 20
2.038834163838876
 30
0.0
 40
0.18
 41
0.18
  0
VERTEX
  5
44F
  8
0
  6
CONTINUOUS
 62
     4
 10
51.7354902042735
 20
1.976024365032877
 30
0.0
 40
0.18
 41
0.18
  0
VERTEX
  5
450
  8
0
  6
CONTINUOUS
 62
     4
 10
55.0251071767706
 20
1.866152648841002
 30
0.0
 40
0.18
 41
0.18
  0
VERTEX
  5
451
  8
0
  6
CONTINUOUS
 62
     4
 10
58.29111411955184
 20
1.741251947989647
 30
0.0
 40
0.18
 41
0.18
  0
VERTEX
  5
452
  8
0
  6
CONTINUOUS
 62
     4
 10
61.53145317363023
 20
1.59718668514358
 30
0.0
 40
0.18
 41
0.18
  0
VERTEX
  5
453
  8
0
  6
CONTINUOUS
 62
     4
 10
64.74419116535449
 20
1.429398999921058
 30
0.0
 40
0.18
 41
0.18
  0
VERTEX
  5
454
  8
0
  6
CONTINUOUS
 62
     4
 10
67.92739492107326
 20
1.233331031940341
 30
0.0
 40
0.18
 41
0.18
  0
VERTEX
  5
455
  8
0
  6
CONTINUOUS
 62
     4
 10
71.0808270561391
 20
1.007199531278643
 30
0.0
 40
0.18
 41
0.18
  0
VERTEX
  5
456
  8
0
  6
CONTINUOUS
 62
     4
 10
74.21265809387863
 20
0.7629780711498413
 30
0.0
 40
0.18
 41
0.18
  0
VERTEX
  5
457
  8
0
  6
CONTINUOUS
 62
     4
 10
77.33365955707689
 20
0.5168959194826841
 30
0.0
 40
0.18
 41
0.18
  0
VERTEX
  5
458
  8
0
  6
CONTINUOUS
 62
     4
 10
80.4546037382342
 20
0.2851836035960176
 30
0.0
 40
0.18
 41
0.18
  0
VERTEX
  5
459
  8
0
  6
CONTINUOUS
 62
     4
 10
83.58626292985082
 20
0.0840716508086876
 30
0.0
 40
0.18
 41
0.18
  0
VERTEX
  5
45A
  8
0
  6
CONTINUOUS
 62
     4
 10
86.73940942442704
 20
-0.0702094115604597
 30
0.0
 40
0.18
 41
0.18
  0
VERTEX
  5
45B
  8
0
  6
CONTINUOUS
 62
     4
 10
89.92481551446313
 20
-0.1614290561925785
 30
0.0
 40
0.18
 41
0.18
  0
VERTEX
  5
45C
  8
0
  6
CONTINUOUS
 62
     4
 10
93.1532534924594
 20
-0.1733567557688229
 30
0.0
 40
0.18
 41
0.18
  0
VERTEX
  5
45D
  8
0
  6
CONTINUOUS
 62
     4
 10
96.43549565091614
 20
-0.0897619829703467
 30
0.0
 40
0.18
 41
0.18
  0
VERTEX
  5
45E
  8
0
  6
CONTINUOUS
 62
     4
 10
99.78231428233357
 20
0.1055857895216961
 30
0.0
 40
0.18
 41
0.18
  0
VERTEX
  5
45F
  8
0
  6
CONTINUOUS
 62
     4
 10
103.204481679212
 20
0.4289170890261513
 30
0.0
 40
0.18
 41
0.18
  0
VERTEX
  5
460
  8
0
  6
CONTINUOUS
 62
     4
 10
106.7127701340518
 20
0.8964624428618644
 30
0.0
 40
0.18
 41
0.18
  0
VERTEX
  5
461
  8
0
  6
CONTINUOUS
 62
     4
 10
110.3042707491836
 20
1.497984872636202
 30
0.0
 40
0.18
 41
0.18
  0
VERTEX
  5
462
  8
0
  6
CONTINUOUS
 62
     4
 10
113.8827434639428
 20
2.042689783327814
 30
0.0
 40
0.18
 41
0.18
  0
VERTEX
  5
463
  8
0
  6
CONTINUOUS
 62
     4
 10
117.3129789162466
 20
2.264392924843317
 30
0.0
 40
0.18
 41
0.18
  0
VERTEX
  5
464
  8
0
  6
CONTINUOUS
 62
     4
 10
120.4596375552315
 20
1.896658185061362
 30
0.0
 40
0.18
 41
0.18
  0
VERTEX
  5
465
  8
0
  6
CONTINUOUS
 62
     4
 10
123.1873798300338
 20
0.6730494518606029
 30
0.0
 40
0.18
 41
0.18
  0
VERTEX
  5
466
  8
0
  6
CONTINUOUS
 62
     4
 10
125.4112659313646
 20
-1.574791640745793
 30
0.0
 40
0.18
 41
0.18
  0
VERTEX
  5
467
  8
0
  6
CONTINUOUS
 62
     4
 10
127.5671819070671
 20
-4.001697675264746
 30
0.0
 40
0.18
 41
0.18
  0
VERTEX
  5
468
  8
0
  6
CONTINUOUS
 62
     4
 10
130.2283607544214
 20
-5.488922114500904
 30
0.0
 40
0.18
 41
0.18
  0
VERTEX
  5
469
  8
0
  6
CONTINUOUS
 62
     4
 10
133.3574634007583
 20
-6.083127288961896
 30
0.0
 40
0.18
 41
0.18
  0
VERTEX
  5
46A
  8
0
  6
CONTINUOUS
 62
     4
 10
136.7784525336921
 20
-6.095744639295223
 30
0.0
 40
0.18
 41
0.18
  0
VERTEX
  5
46B
  8
0
  6
CONTINUOUS
 62
     4
 10
140.315290840837
 20
-5.838205606148378
 30
0.0
 40
0.18
 41
0.18
  0
VERTEX
  5
46C
  8
0
  6
CONTINUOUS
 62
     4
 10
143.7982989711344
 20
-5.611110178894071
 30
0.0
 40
0.18
 41
0.18
  0
VERTEX
  5
46D
  8
0
  6
CONTINUOUS
 62
     4
 10
147.1637755701816
 20
-5.5345137591141
 30
0.0
 40
0.18
 41
0.18
  0
VERTEX
  5
46E
  8
0
  6
CONTINUOUS
 62
     4
 10
150.4355295442372
 20
-5.579388878010573
 30
0.0
 40
0.18
 41
0.18
  0
VERTEX
  5
46F
  8
0
  6
CONTINUOUS
 62
     4
 10
153.6399917119851
 20
-5.712241365083527
 30
0.0
 40
0.18
 41
0.18
  0
VERTEX
  5
470
  8
0
  6
CONTINUOUS
 62
     4
 10
156.8035928921092
 20
-5.899577049832996
 30
0.0
 40
0.18
 41
0.18
  0
VERTEX
  5
471
  8
0
  6
CONTINUOUS
 62
     4
 10
159.9527639032935
 20
-6.107901761759022
 30
0.0
 40
0.18
 41
0.18
  0
VERTEX
  5
472
  8
0
  6
CONTINUOUS
 62
     4
 10
163.1139355642218
 20
-6.303721330361645
 30
0.0
 40
0.18
 41
0.18
  0
VERTEX
  5
473
  8
0
  6
CONTINUOUS
 62
     4
 10
166.312759571624
 20
-6.455127399488013
 30
0.0
 40
0.18
 41
0.18
  0
VERTEX
  5
474
  8
0
  6
CONTINUOUS
 62
     4
 10
169.5515268338483
 20
-6.577759847481097
 30
0.0
 40
0.18
 41
0.18
  0
VERTEX
  5
475
  8
0
  6
CONTINUOUS
 62
     4
 10
172.8056733069613
 20
-6.741918761390068
 30
0.0
 40
0.18
 41
0.18
  0
VERTEX
  5
476
  8
0
  6
CONTINUOUS
 62
     4
 10
176.0491527330399
 20
-7.02092110668388
 30
0.0
 40
0.18
 41
0.18
  0
VERTEX
  5
477
  8
0
  6
CONTINUOUS
 62
     4
 10
179.2559188541612
 20
-7.488083848831487
 30
0.0
 40
0.18
 41
0.18
  0
VERTEX
  5
478
  8
0
  6
CONTINUOUS
 62
     4
 10
182.4000555651943
 20
-8.216207048965959
 30
0.0
 40
0.18
 41
0.18
  0
VERTEX
  5
479
  8
0
  6
CONTINUOUS
 62
     4
 10
185.4652598938045
 20
-9.239912024974862
 30
0.0
 40
0.18
 41
0.18
  0
VERTEX
  5
47A
  8
0
  6
CONTINUOUS
 62
     4
 10
188.4512710174752
 20
-10.53010838577488
 30
0.0
 40
0.18
 41
0.18
  0
VERTEX
  5
47B
  8
0
  6
CONTINUOUS
 62
     4
 10
191.3670176573837
 20
-12.02823095641507
 30
0.0
 40
0.18
 41
0.18
  0
VERTEX
  5
47C
  8
0
  6
CONTINUOUS
 62
     4
 10
194.2841256195923
 20
-13.48413233684712
 30
0.0
 40
0.18
 41
0.18
  0
VERTEX
  5
47D
  8
0
  6
CONTINUOUS
 62
     4
 10
197.3048696206039
 20
-14.55401186595275
 30
0.0
 40
0.18
 41
0.18
  0
VERTEX
  5
47E
  8
0
  6
CONTINUOUS
 62
     4
 10
200.4997928152889
 20
-14.9577375858477
 30
0.0
 40
0.18
 41
0.18
  0
VERTEX
  5
47F
  8
0
  6
CONTINUOUS
 62
     4
 10
203.7864452289571
 20
-14.72320232117923
 30
0.0
 40
0.18
 41
0.18
  0
VERTEX
  5
480
  8
0
  6
CONTINUOUS
 62
     4
 10
207.0366219303426
 20
-13.97041846163113
 30
0.0
 40
0.18
 41
0.18
  0
VERTEX
  5
481
  8
0
  6
CONTINUOUS
 62
     4
 10
210.1221097014674
 20
-12.8194150807267
 30
0.0
 40
0.18
 41
0.18
  0
SEQEND
  5
440
  8
0
  6
CONTINUOUS
 62
     4
  0
LINE
  5
33E
  8
0
  6
CONTINUOUS
 62
     4
 10
209.6223233245142
 20
3.853496563255234
 30
0.0
 11
212.6223843596705
 21
3.853496563255234
 31
0.0
  0
LINE
  5
33F
  8
0
  6
CONTINUOUS
 62
     4
 10
202.1223233245142
 20
103.8534975169296
 30
0.0
 11
207.1223233245142
 21
103.8534975169296
 31
0.0
  0
LINE
  5
340
  8
0
  6
CONTINUOUS
 62
     4
 10
202.1223233245142
 20
77.6210146067733
 30
0.0
 11
202.1223233245142
 21
146.8535051463241
 31
0.0
  0
LINE
  5
341
  8
0
  6
CONTINUOUS
 62
     4
 10
207.1223233245142
 20
0.3534984706038671
 30
0.0
 11
207.1223233245142
 21
-41.14649866837318
 31
0.0
  0
LINE
  5
342
  8
0
  6
CONTINUOUS
 62
     4
 10
118.6223538420924
 20
146.8535051463241
 30
0.0
 11
202.1223233245142
 21
146.8535051463241
 31
0.0
  0
LINE
  5
343
  8
0
  6
CONTINUOUS
 62
     4
 10
187.1223233245142
 20
62.35350514632408
 30
0.0
 11
232.6223843596705
 21
62.35350514632408
 31
0.0
  0
LINE
  5
344
  8
0
  6
CONTINUOUS
 62
     4
 10
193.6223080657252
 20
-4.04650144594963
 30
0.0
 11
193.6223080657252
 21
0.3534984706038671
 31
0.0
  0
LINE
  5
345
  8
0
  6
CONTINUOUS
 62
     4
 10
169.1223538420924
 20
69.35707570296471
 30
0.0
 11
169.1223538420924
 21
60.85349751692955
 31
0.0
  0
LINE
  5
346
  8
0
  6
CONTINUOUS
 62
     4
 10
202.1223233245142
 20
-41.14649866837318
 30
0.0
 11
207.1223233245142
 21
-41.14649866837318
 31
0.0
  0
LINE
  5
347
  8
0
  6
CONTINUOUS
 62
     4
 10
144.1223538420924
 20
68.29566670638268
 30
0.0
 11
144.1223538420924
 21
58.85349370223229
 31
0.0
  0
LINE
  5
348
  8
0
  6
CONTINUOUS
 62
     4
 10
194.3222897551783
 20
-4.746501136005477
 30
0.0
 11
199.422311117483
 21
-4.746501136005477
 31
0.0
  0
LINE
  5
349
  8
0
  6
CONTINUOUS
 62
     4
 10
209.6223233245142
 20
58.85349370223229
 30
0.0
 11
212.6223843596705
 21
58.85349370223229
 31
0.0
  0
LINE
  5
34A
  8
0
  6
CONTINUOUS
 62
     4
 10
209.1223538420924
 20
4.353497516929551
 30
0.0
 11
209.1223538420924
 21
58.35349751692955
 31
0.0
  0
LINE
  5
34B
  8
0
  6
CONTINUOUS
 62
     4
 10
213.1223385833033
 20
57.55350209456627
 30
0.0
 11
234.1223691008814
 21
57.55350209456627
 31
0.0
  0
LINE
  5
34C
  8
0
  6
CONTINUOUS
 62
     4
 10
185.1223843596705
 20
71.46332265120689
 30
0.0
 11
185.1223843596705
 21
64.34760762435143
 31
0.0
  0
LINE
  5
34D
  8
0
  6
CONTINUOUS
 62
     4
 10
144.1223538420924
 20
-5.597719776809768
 30
0.0
 11
144.1223538420924
 21
3.853496563255234
 31
0.0
  0
LINE
  5
34E
  8
0
  6
CONTINUOUS
 62
     4
 10
200.1223843596705
 20
66.75350667220299
 30
0.0
 11
200.1223843596705
 21
62.35350514632408
 31
0.0
  0
LINE
  5
34F
  8
0
  6
CONTINUOUS
 62
     4
 10
194.3222897551783
 20
67.45350362044518
 30
0.0
 11
199.422311117483
 21
67.45350362044518
 31
0.0
  0
LINE
  5
350
  8
0
  6
CONTINUOUS
 62
     4
 10
213.1223385833033
 20
5.153496753990098
 30
0.0
 11
234.1223691008814
 21
5.153496753990098
 31
0.0
  0
LINE
  5
351
  8
0
  6
CONTINUOUS
 62
     4
 10
232.6223460445132
 20
0.3535104171046299
 30
0.0
 11
234.1223502234376
 21
1.21953824913588
 31
0.0
  0
LINE
  5
352
  8
0
  6
CONTINUOUS
 62
     4
 10
232.6223811458536
 20
62.35349768209106
 30
0.0
 11
234.1223721102793
 21
61.48747747945434
 31
0.0
  0
LINE
  5
353
  8
0
  6
CONTINUOUS
 62
     4
 10
187.1223233245142
 20
0.3534984706038671
 30
0.0
 11
232.6223843596705
 21
0.3534984706038671
 31
0.0
  0
LINE
  5
354
  8
0
  6
CONTINUOUS
 62
     4
 10
188.1223288595799
 20
0.3535014610088041
 30
0.0
 11
185.1223256748114
 21
-2.646501723759698
 31
0.0
  0
LINE
  5
355
  8
0
  6
CONTINUOUS
 62
     4
 10
193.6223080657252
 20
66.75350667220299
 30
0.0
 11
193.6223080657252
 21
62.35350514632408
 31
0.0
  0
LINE
  5
356
  8
0
  6
CONTINUOUS
 62
     4
 10
169.1223538420924
 20
-6.560769903839187
 30
0.0
 11
169.1223538420924
 21
1.853497516929551
 31
0.0
  0
LINE
  5
357
  8
0
  6
CONTINUOUS
 62
     4
 10
234.1223691008814
 20
1.219522011100693
 30
0.0
 11
234.1223691008814
 21
61.48747731429283
 31
0.0
  0
LINE
  5
358
  8
0
  6
CONTINUOUS
 62
     4
 10
185.1223843596705
 20
-9.110040176094131
 30
0.0
 11
185.1223843596705
 21
-1.640607345283584
 31
0.0
  0
LINE
  5
359
  8
0
  6
CONTINUOUS
 62
     4
 10
185.122363438387
 20
65.3534895423786
 30
0.0
 11
188.122361228359
 21
62.35349175240661
 31
0.0
  0
LINE
  5
35A
  8
0
  6
CONTINUOUS
 62
     4
 10
202.1223233245142
 20
-14.91401098984535
 30
0.0
 11
202.1223233245142
 21
-84.14650248307045
 31
0.0
  0
LINE
  5
35B
  8
0
  6
CONTINUOUS
 62
     4
 10
200.1223843596705
 20
-4.04650144594963
 30
0.0
 11
200.1223843596705
 21
0.3534984706038671
 31
0.0
  0
LINE
  5
35C
  8
0
  6
CONTINUOUS
 62
     4
 10
207.1223233245142
 20
62.35350514632408
 30
0.0
 11
207.1223233245142
 21
103.8534975169296
 31
0.0
  0
LINE
  5
35D
  8
0
  6
CONTINUOUS
 62
     4
 10
213.1223385833033
 20
4.353497516929551
 30
0.0
 11
213.1223385833033
 21
14.55945683699791
 31
0.0
  0
LINE
  5
35E
  8
0
  6
CONTINUOUS
 62
     4
 10
219.1223691008814
 20
141.353489887535
 30
0.0
 11
219.1223691008814
 21
131.353489887535
 31
0.0
  0
LINE
  5
35F
  8
0
  6
CONTINUOUS
 62
     4
 10
202.1223233245142
 20
131.353489887535
 30
0.0
 11
219.1223691008814
 21
131.353489887535
 31
0.0
  0
LINE
  5
360
  8
0
  6
CONTINUOUS
 62
     4
 10
202.1223233245142
 20
141.353489887535
 30
0.0
 11
219.1223691008814
 21
141.353489887535
 31
0.0
  0
LINE
  5
361
  8
0
  6
CONTINUOUS
 62
     4
 10
213.1223385833033
 20
17.62528897505943
 30
0.0
 11
213.1223385833033
 21
58.35349751692955
 31
0.0
  0
ARC
  5
362
  8
0
  6
CONTINUOUS
 62
     4
 10
209.6223233245142
 20
4.353497516929551
 30
0.0
 40
0.5
 50
179.999991348578
 51
270.0000006832453
  0
ARC
  5
363
  8
0
  6
CONTINUOUS
 62
     4
 10
212.6223843596705
 20
4.353497516929551
 30
0.0
 40
0.5
 50
269.9999974955218
 51
360.0
  0
ARC
  5
364
  8
0
  6
CONTINUOUS
 62
     4
 10
209.6223233245142
 20
58.35349751692955
 30
0.0
 40
0.5
 50
90.00000250447816
 51
180.0000050089563
  0
ARC
  5
365
  8
0
  6
CONTINUOUS
 62
     4
 10
167.1223233245142
 20
60.85349751692955
 30
0.0
 40
2.0
 50
269.9999974955218
 51
360.0
  0
ARC
  5
366
  8
0
  6
CONTINUOUS
 62
     4
 10
199.422311117483
 20
66.75350667220299
 30
0.0
 40
0.699999988079071
 50
0.0
 51
90.00000250447816
  0
ARC
  5
367
  8
0
  6
CONTINUOUS
 62
     4
 10
194.3222897551783
 20
66.75350667220299
 30
0.0
 40
0.699999988079071
 50
90.00000250447816
 51
180.0000050089563
  0
ARC
  5
368
  8
0
  6
CONTINUOUS
 62
     4
 10
187.1223233245142
 20
64.35350514632408
 30
0.0
 40
2.0
 50
179.999991348578
 51
270.0000006832453
  0
ARC
  5
369
  8
0
  6
CONTINUOUS
 62
     4
 10
167.1223233245142
 20
1.853497516929551
 30
0.0
 40
2.0
 50
0.0
 51
90.00000250447816
  0
ARC
  5
36A
  8
0
  6
CONTINUOUS
 62
     4
 10
187.1223233245142
 20
-1.646501052558975
 30
0.0
 40
2.0
 50
90.00000250447816
 51
180.0000050089563
  0
ARC
  5
36B
  8
0
  6
CONTINUOUS
 62
     4
 10
194.3222897551783
 20
-4.04650144594963
 30
0.0
 40
0.699999988079071
 50
179.999991348578
 51
270.0000006832453
  0
ARC
  5
36C
  8
0
  6
CONTINUOUS
 62
     4
 10
199.422311117483
 20
-4.04650144594963
 30
0.0
 40
0.699999988079071
 50
269.9999974955218
 51
360.0
  0
ARC
  5
36D
  8
0
  6
CONTINUOUS
 62
     4
 10
212.6223843596705
 20
58.35349751692955
 30
0.0
 40
0.5
 50
0.0
 51
90.00000250447816
  0
CIRCLE
  5
36E
  8
0
  6
CONTINUOUS
 62
     2
 10
-158.3634860016576
 20
136.353489887535
 30
0.0
 40
6.499999523162842
  0
CIRCLE
  5
36F
  8
0
  6
CONTINUOUS
 62
     2
 10
-249.2961489655248
 20
83.85349751692955
 30
0.0
 40
6.499999523162842
  0
CIRCLE
  5
370
  8
0
  6
CONTINUOUS
 62
     2
 10
-249.2961489655248
 20
-21.14649676102455
 30
0.0
 40
6.499999523162842
  0
CIRCLE
  5
371
  8
0
  6
CONTINUOUS
 62
     2
 10
-263.3634707428686
 20
31.35350133162682
 30
0.0
 40
8.0
  0
CIRCLE
  5
372
  8
0
  6
CONTINUOUS
 62
     2
 10
-210.8634860016576
 20
122.2861681101913
 30
0.0
 40
8.0
  0
CIRCLE
  5
373
  8
0
  6
CONTINUOUS
 62
     2
 10
-210.8634860016576
 20
-59.5791692616349
 30
0.0
 40
8.0
  0
CIRCLE
  5
374
  8
0
  6
CONTINUOUS
 62
     2
 10
-158.3634860016576
 20
-73.64649485367592
 30
0.0
 40
6.499999523162842
  0
CIRCLE
  5
375
  8
0
  6
CONTINUOUS
 62
     2
 10
-67.43081922309318
 20
-21.14649676102455
 30
0.0
 40
6.499999523162842
  0
CIRCLE
  5
376
  8
0
  6
CONTINUOUS
 62
     2
 10
-67.43081922309318
 20
83.85349751692955
 30
0.0
 40
6.499999523162842
  0
CIRCLE
  5
377
  8
0
  6
CONTINUOUS
 62
     2
 10
-105.8634783722631
 20
-59.5791692616349
 30
0.0
 40
8.0
  0
CIRCLE
  5
378
  8
0
  6
CONTINUOUS
 62
     2
 10
-105.8634783722631
 20
122.2861681101913
 30
0.0
 40
8.0
  0
ARC
  5
379
  8
0
  6
CONTINUOUS
 62
     2
 10
-53.3635012604467
 20
31.35350133162682
 30
0.0
 40
8.0
 50
118.1523005650324
 51
241.6396072492483
  0
TEXT
  5
37A
  8
0
 62
     3
 10
-248.4893646604081
 20
-109.3000952001149
 30
0.0
 40
3.542000031471253
  1
仕　様
 41
0.7763025729980766
  7
FDASTYLE1
 72
     5
 11
-236.6567480927964
 21
-109.3000952001149
 31
0.0
  0
TEXT
  5
37B
  8
0
 62
     3
 10
-248.4893646604081
 20
-115.7680921788747
 30
0.0
 40
3.542000031471253
  1
1.最大貫通穴径　　　  　　　　　　　　　　　　　46 　　　mm
 41
0.8257163644265416
  7
FDASTYLE1
 72
     5
 11
-101.5158281928559
 21
-115.7680921788747
 31
0.0
  0
TEXT
  5
37C
  8
0
 62
     3
 10
-248.4893646604081
 20
-122.2360891576344
 30
0.0
 40
3.542000031471253
  1
2.ﾋﾟｽﾄﾝｽﾄﾛ-ｸ　    　　 　　  　　25　　  mm
 41
0.8818723443047484
  7
FDASTYLE1
 72
     5
 11
-101.5158281928559
 21
-122.2360891576344
 31
0.0
  0
TEXT
  5
37D
  8
0
 62
     3
 10
-248.4893646604081
 20
-128.7041029210621
 30
0.0
 40
3.542000031471253
  1
3.ﾋﾟｽﾄﾝ表面積　　 　　  　　　　押側 　271.7  cm
 41
0.8635201658409503
  7
FDASTYLE1
 72
     5
 11
-101.5158281928559
 21
-128.7041029210621
 31
0.0
  0
TEXT
  5
37E
  8
0
 62
     3
 10
-248.4893646604081
 20
-135.1720915074879
 30
0.0
 40
3.542000031471253
  1
　　　　　　　　     　　　　　　　　引側 　265.2　 cm
 41
0.8424812483752591
  7
FDASTYLE1
 72
     5
 11
-101.5158281928559
 21
-135.1720915074879
 31
0.0
  0
TEXT
  5
37F
  8
0
 62
     3
 10
-248.4893646604081
 20
-141.6400968785817
 30
0.0
 40
3.542000031471253
  1
4.ﾋﾟｽﾄﾝ推力　　(0.5MPa時) 押側  　12.4  kN
 41
0.8856367878063308
  7
FDASTYLE1
 72
     5
 11
-101.5158281928559
 21
-141.6400968785817
 31
0.0
  0
TEXT
  5
380
  8
0
 62
     3
 10
-248.4893646604081
 20
-148.1080854650075
 30
0.0
 40
3.542000031471253
  1
　　                   引側  　12    kN
 41
0.8971254508608221
  7
FDASTYLE1
 72
     5
 11
-101.5158281928559
 21
-148.1080854650075
 31
0.0
  0
TEXT
  5
381
  8
0
 62
     3
 10
-248.4893646604081
 20
-161.044096207195
 30
0.0
 40
3.542000031471253
  1
　　  　　　        　　 　　　最低    0.2 MPa
 41
0.8707686076323942
  7
FDASTYLE1
 72
     5
 11
-101.5158281928559
 21
-161.044096207195
 31
0.0
  0
TEXT
  5
382
  8
0
 62
     3
 10
-248.4893646604081
 20
-167.5120847936207
 30
0.0
 40
3.542000031471253
  1
6.最高使用回転速度　　　　　　　　　　     　5500　min
 41
0.8424812483752591
  7
FDASTYLE1
 72
     5
 11
-101.5158281928559
 21
-167.5120847936207
 31
0.0
  0
TEXT
  5
383
  8
0
 62
     3
 10
-248.4893646604081
 20
-173.9800901647145
 30
0.0
 40
3.542000031471253
  1
7.慣性ﾓ-ﾒﾝﾄ  　　  　　　 　　　　　 0.071
 41
0.8656749726311419
  7
FDASTYLE1
 72
     5
 11
-118.9533662444612
 21
-173.9800901647145
 31
0.0
  0
TEXT
  5
384
  8
0
 62
     3
 10
-248.4893643981477
 20
-180.4480955358083
 30
0.0
 40
3.542000031471253
  1
8.質　量　　　 　　　　　　　　　　　　　　　 　17.5  kg
 41
0.8356941591406938
  7
FDASTYLE1
 72
     5
 11
-101.5158457643052
 21
-180.4480955358083
 31
0.0
  0
TEXT
  5
385
  8
0
 62
     3
 10
-248.4893646604081
 20
-154.5760908361012
 30
0.0
 40
3.542000031471253
  1
5.使用圧力　　　   　　 　　 　　　最高    0.8 MPa
 41
0.8563914026102779
  7
FDASTYLE1
 72
     5
 11
-101.5158281928559
 21
-154.5760908361012
 31
0.0
  0
TEXT
  5
386
  8
0
 62
     3
 10
-248.4555185085793
 20
-186.8775841589505
 30
0.0
 40
3.465000104904175
  1
※注　　　意※　供給ｴｱ-ﾊ5μﾌｨﾙﾀ-ｦ通ｼﾀ､乾燥空気ｦ使用ﾉ事
 41
0.8476499890615544
  7
FDASTYLE1
 72
     5
 11
-100.4124399191399
 21
-186.8775841589505
 31
0.0
  0
TEXT
  5
387
  8
0
 62
     3
 10
-101.460874934352
 20
-165.0245748984767
 30
0.0
 40
1.771000015735626
  1
-1
 41
0.8971965697702707
  7
FDASTYLE1
 72
     5
 11
-97.72425890699677
 21
-165.0245748984767
 31
0.0
  0
TEXT
  5
388
  8
0
 62
     3
 10
-116.9293673879167
 20
-171.4598208005959
 30
0.0
 40
1.771000015735626
  1
　
 41
0.732601052640233
  7
FDASTYLE1
 72
     5
 11
-115.3724436170121
 21
-171.4598208005959
 31
0.0
  0
TEXT
  5
389
  8
0
 62
     3
 10
-115.5281370169183
 20
-173.9800901647145
 30
0.0
 40
3.542000031471253
  1
kg
 41
0.8971965697702707
  7
FDASTYLE1
 72
     5
 11
-108.0549049622079
 21
-173.9800901647145
 31
0.0
  0
TEXT
  5
38A
  8
0
 62
     3
 10
-106.0309061056634
 20
-171.4598208005959
 30
0.0
 40
1.771000015735626
  1
･
 41
0.8791212631682795
  7
FDASTYLE1
 72
     5
 11
-104.4739823347588
 21
-171.4598208005959
 31
0.0
  0
TEXT
  5
38B
  8
0
 62
     3
 10
-104.629675734665
 20
-173.9800901647145
 30
0.0
 40
3.542000031471253
  1
m
 41
0.8791212631682756
  7
FDASTYLE1
 72
     5
 11
-101.5158281928559
 21
-173.9800901647145
 31
0.0
  0
TEXT
  5
38C
  8
0
 62
     3
 10
-101.2867522711247
 20
-171.3386075575841
 30
0.0
 40
1.771000015735626
  1
2
 41
0.8791212631682795
  7
FDASTYLE1
 72
     5
 11
-99.72982850022018
 21
-171.3386075575841
 31
0.0
  0
INSERT
  5
38D
  8
0
  6
CONTINUOUS
  2
DA_IMAGEDIMGROUP_1
 10
0.0
 20
0.0
 30
0.0
  0
INSERT
  5
38E
  8
0
  6
CONTINUOUS
  2
DA_IMAGEDIMGROUP_2
 10
0.0
 20
0.0
 30
0.0
  0
INSERT
  5
38F
  8
0
  6
CONTINUOUS
  2
DA_IMAGEDIMGROUP_3
 10
0.0
 20
0.0
 30
0.0
  0
INSERT
  5
390
  8
0
  6
CONTINUOUS
  2
DA_IMAGEDIMGROUP_4
 10
0.0
 20
0.0
 30
0.0
  0
INSERT
  5
391
  8
0
  6
CONTINUOUS
  2
DA_IMAGEDIMGROUP_5
 10
0.0
 20
0.0
 30
0.0
  0
INSERT
  5
392
  8
0
  6
CONTINUOUS
  2
DA_IMAGEDIMGROUP_6
 10
0.0
 20
0.0
 30
0.0
  0
INSERT
  5
393
  8
0
  6
CONTINUOUS
  2
DA_IMAGEDIMGROUP_7
 10
0.0
 20
0.0
 30
0.0
  0
INSERT
  5
394
  8
0
  6
CONTINUOUS
  2
DA_IMAGEDIMGROUP_8
 10
0.0
 20
0.0
 30
0.0
  0
INSERT
  5
395
  8
0
  6
CONTINUOUS
  2
DA_IMAGEDIMGROUP_9
 10
0.0
 20
0.0
 30
0.0
  0
INSERT
  5
396
  8
0
  6
CONTINUOUS
  2
DA_IMAGEDIMGROUP_10
 10
0.0
 20
0.0
 30
0.0
  0
INSERT
  5
397
  8
0
  6
CONTINUOUS
  2
DA_IMAGEDIMGROUP_11
 10
0.0
 20
0.0
 30
0.0
  0
INSERT
  5
398
  8
0
  6
CONTINUOUS
  2
DA_IMAGEDIMGROUP_12
 10
0.0
 20
0.0
 30
0.0
  0
INSERT
  5
399
  8
0
  6
CONTINUOUS
  2
DA_IMAGEDIMGROUP_13
 10
0.0
 20
0.0
 30
0.0
  0
INSERT
  5
39A
  8
0
  6
CONTINUOUS
  2
DA_IMAGEDIMGROUP_14
 10
0.0
 20
0.0
 30
0.0
  0
INSERT
  5
39B
  8
0
  6
CONTINUOUS
  2
DA_IMAGEDIMGROUP_15
 10
0.0
 20
0.0
 30
0.0
  0
INSERT
  5
39C
  8
0
  6
CONTINUOUS
  2
DA_IMAGEDIMGROUP_16
 10
0.0
 20
0.0
 30
0.0
  0
INSERT
  5
39D
  8
0
  6
CONTINUOUS
  2
DA_IMAGEDIMGROUP_17
 10
0.0
 20
0.0
 30
0.0
  0
INSERT
  5
39E
  8
0
  6
CONTINUOUS
  2
DA_IMAGEDIMGROUP_18
 10
0.0
 20
0.0
 30
0.0
  0
INSERT
  5
39F
  8
0
  6
CONTINUOUS
  2
DA_IMAGEDIMGROUP_19
 10
0.0
 20
0.0
 30
0.0
  0
INSERT
  5
3A0
  8
0
  6
CONTINUOUS
  2
DA_IMAGEDIMGROUP_20
 10
0.0
 20
0.0
 30
0.0
  0
INSERT
  5
3A1
  8
0
  6
CONTINUOUS
  2
DA_IMAGEDIMGROUP_21
 10
0.0
 20
0.0
 30
0.0
  0
INSERT
  5
3A2
  8
0
  6
CONTINUOUS
  2
DA_IMAGEDIMGROUP_22
 10
0.0
 20
0.0
 30
0.0
  0
INSERT
  5
3A3
  8
0
  6
CONTINUOUS
  2
DA_IMAGEDIMGROUP_23
 10
0.0
 20
0.0
 30
0.0
  0
INSERT
  5
3A4
  8
0
  6
CONTINUOUS
  2
DA_IMAGEDIMGROUP_24
 10
0.0
 20
0.0
 30
0.0
  0
POLYLINE
  5
3A5
  8
0
  6
CONTINUOUS
 62
     4
 66
     1
 10
0.0
 20
0.0
 30
0.0
 70
     1
  0
VERTEX
  5
482
  8
0
  6
CONTINUOUS
 62
     4
 10
1.0
 20
0.0
 30
0.0
  0
VERTEX
  5
483
  8
0
  6
CONTINUOUS
 62
     4
 10
0.9807852804032304
 20
0.1950903220161283
 30
0.0
  0
VERTEX
  5
484
  8
0
  6
CONTINUOUS
 62
     4
 10
0.9238795325112867
 20
0.3826834323650898
 30
0.0
  0
VERTEX
  5
485
  8
0
  6
CONTINUOUS
 62
     4
 10
0.8314696123025452
 20
0.5555702330196022
 30
0.0
  0
VERTEX
  5
486
  8
0
  6
CONTINUOUS
 62
     4
 10
0.7071067811865476
 20
0.7071067811865475
 30
0.0
  0
VERTEX
  5
487
  8
0
  6
CONTINUOUS
 62
     4
 10
0.5555702330196023
 20
0.8314696123025452
 30
0.0
  0
VERTEX
  5
488
  8
0
  6
CONTINUOUS
 62
     4
 10
0.3826834323650898
 20
0.9238795325112867
 30
0.0
  0
VERTEX
  5
489
  8
0
  6
CONTINUOUS
 62
     4
 10
0.1950903220161283
 20
0.9807852804032304
 30
0.0
  0
VERTEX
  5
48A
  8
0
  6
CONTINUOUS
 62
     4
 10
0.0000000000000001
 20
1.0
 30
0.0
  0
VERTEX
  5
48B
  8
0
  6
CONTINUOUS
 62
     4
 10
-0.1950903220161282
 20
0.9807852804032304
 30
0.0
  0
VERTEX
  5
48C
  8
0
  6
CONTINUOUS
 62
     4
 10
-0.3826834323650897
 20
0.9238795325112867
 30
0.0
  0
VERTEX
  5
48D
  8
0
  6
CONTINUOUS
 62
     4
 10
-0.555570233019602
 20
0.8314696123025455
 30
0.0
  0
VERTEX
  5
48E
  8
0
  6
CONTINUOUS
 62
     4
 10
-0.7071067811865475
 20
0.7071067811865476
 30
0.0
  0
VERTEX
  5
48F
  8
0
  6
CONTINUOUS
 62
     4
 10
-0.8314696123025454
 20
0.5555702330196022
 30
0.0
  0
VERTEX
  5
490
  8
0
  6
CONTINUOUS
 62
     4
 10
-0.9238795325112869
 20
0.3826834323650895
 30
0.0
  0
VERTEX
  5
491
  8
0
  6
CONTINUOUS
 62
     4
 10
-0.9807852804032305
 20
0.1950903220161277
 30
0.0
  0
VERTEX
  5
492
  8
0
  6
CONTINUOUS
 62
     4
 10
-1.0
 20
-0.0000000000000008
 30
0.0
  0
VERTEX
  5
493
  8
0
  6
CONTINUOUS
 62
     4
 10
-0.9807852804032302
 20
-0.1950903220161292
 30
0.0
  0
VERTEX
  5
494
  8
0
  6
CONTINUOUS
 62
     4
 10
-0.9238795325112863
 20
-0.3826834323650909
 30
0.0
  0
VERTEX
  5
495
  8
0
  6
CONTINUOUS
 62
     4
 10
-0.8314696123025445
 20
-0.5555702330196034
 30
0.0
  0
VERTEX
  5
496
  8
0
  6
CONTINUOUS
 62
     4
 10
-0.7071067811865464
 20
-0.7071067811865487
 30
0.0
  0
VERTEX
  5
497
  8
0
  6
CONTINUOUS
 62
     4
 10
-0.5555702330196007
 20
-0.8314696123025462
 30
0.0
  0
VERTEX
  5
498
  8
0
  6
CONTINUOUS
 62
     4
 10
-0.3826834323650879
 20
-0.9238795325112875
 30
0.0
  0
VERTEX
  5
499
  8
0
  6
CONTINUOUS
 62
     4
 10
-0.1950903220161261
 20
-0.9807852804032309
 30
0.0
  0
VERTEX
  5
49A
  8
0
  6
CONTINUOUS
 62
     4
 10
0.0000000000000025
 20
-1.0
 30
0.0
  0
VERTEX
  5
49B
  8
0
  6
CONTINUOUS
 62
     4
 10
0.1950903220161309
 20
-0.9807852804032299
 30
0.0
  0
VERTEX
  5
49C
  8
0
  6
CONTINUOUS
 62
     4
 10
0.3826834323650925
 20
-0.9238795325112856
 30
0.0
  0
VERTEX
  5
49D
  8
0
  6
CONTINUOUS
 62
     4
 10
0.5555702330196048
 20
-0.8314696123025435
 30
0.0
  0
VERTEX
  5
49E
  8
0
  6
CONTINUOUS
 62
     4
 10
0.7071067811865499
 20
-0.7071067811865451
 30
0.0
  0
VERTEX
  5
49F
  8
0
  6
CONTINUOUS
 62
     4
 10
0.8314696123025472
 20
-0.5555702330195993
 30
0.0
  0
VERTEX
  5
4A0
  8
0
  6
CONTINUOUS
 62
     4
 10
0.9238795325112882
 20
-0.3826834323650863
 30
0.0
  0
VERTEX
  5
4A1
  8
0
  6
CONTINUOUS
 62
     4
 10
0.9807852804032312
 20
-0.1950903220161244
 30
0.0
  0
SEQEND
  5
4A2
  8
0
  6
CONTINUOUS
 62
     4
  0
POLYLINE
  5
3A6
  8
0
  6
CONTINUOUS
 62
     4
 66
     1
 10
0.0
 20
0.0
 30
0.0
 70
     1
  0
VERTEX
  5
4A4
  8
0
  6
CONTINUOUS
 62
     4
 10
136.1223538420924
 20
1.228497516929551
 30
0.0
  0
VERTEX
  5
4A5
  8
0
  6
CONTINUOUS
 62
     4
 10
136.1195030265291
 20
1.338421078016898
 30
0.0
  0
VERTEX
  5
4A6
  8
0
  6
CONTINUOUS
 62
     4
 10
136.1109555811385
 20
1.448151795825821
 30
0.0
  0
VERTEX
  5
4A7
  8
0
  6
CONTINUOUS
 62
     4
 10
136.0967265010443
 20
1.557497165390535
 30
0.0
  0
VERTEX
  5
4A8
  8
0
  6
CONTINUOUS
 62
     4
 10
136.076840748888
 20
1.666265357777016
 30
0.0
  0
VERTEX
  5
4A9
  8
0
  6
CONTINUOUS
 62
     4
 10
136.0513332110361
 20
1.774265556616139
 30
0.0
  0
VERTEX
  5
4AA
  8
0
  6
CONTINUOUS
 62
     4
 10
136.0202486363775
 20
1.881308292860426
 30
0.0
  0
VERTEX
  5
4AB
  8
0
  6
CONTINUOUS
 62
     4
 10
135.9836415578188
 20
1.987205777177137
 30
0.0
  0
VERTEX
  5
4AC
  8
0
  6
CONTINUOUS
 62
     4
 10
135.941576196615
 20
2.091772229394576
 30
0.0
  0
VERTEX
  5
4AD
  8
0
  6
CONTINUOUS
 62
     4
 10
135.8941263497034
 20
2.194824204423632
 30
0.0
  0
VERTEX
  5
4AE
  8
0
  6
CONTINUOUS
 62
     4
 10
135.8413752602392
 20
2.296180914082809
 30
0.0
  0
VERTEX
  5
4AF
  8
0
  6
CONTINUOUS
 62
     4
 10
135.7834154715582
 20
2.395664544262123
 30
0.0
  0
VERTEX
  5
4B0
  8
0
  6
CONTINUOUS
 62
     4
 10
135.7203486648247
 20
2.493100566869474
 30
0.0
  0
VERTEX
  5
4B1
  8
0
  6
CONTINUOUS
 62
     4
 10
135.6522854806478
 20
2.588318046012227
 30
0.0
  0
VERTEX
  5
4B2
  8
0
  6
CONTINUOUS
 62
     4
 10
135.5793453249806
 20
2.681149937876848
 30
0.0
  0
VERTEX
  5
4B3
  8
0
  6
CONTINUOUS
 62
     4
 10
135.5016561596416
 20
2.771433383780518
 30
0.0
  0
VERTEX
  5
4B4
  8
0
  6
CONTINUOUS
 62
     4
 10
135.4193542778255
 20
2.859009995880602
 30
0.0
  0
VERTEX
  5
4B5
  8
0
  6
CONTINUOUS
 62
     4
 10
135.3325840649994
 20
2.943726135040741
 30
0.0
  0
VERTEX
  5
4B6
  8
0
  6
CONTINUOUS
 62
     4
 10
135.2414977456014
 20
3.025433180366113
 30
0.0
  0
VERTEX
  5
4B7
  8
0
  6
CONTINUOUS
 62
     4
 10
135.1462551159871
 20
3.103987789934975
 30
0.0
  0
VERTEX
  5
4B8
  8
0
  6
CONTINUOUS
 62
     4
 10
135.0470232640924
 20
3.179252152269109
 30
0.0
  0
VERTEX
  5
4B9
  8
0
  6
CONTINUOUS
 62
     4
 10
134.9439762763047
 20
3.251094228101979
 30
0.0
  0
VERTEX
  5
4BA
  8
0
  6
CONTINUOUS
 62
     4
 10
134.8372949320564
 20
3.319387982020471
 30
0.0
  0
VERTEX
  5
4BB
  8
0
  6
CONTINUOUS
 62
     4
 10
134.7271663866757
 20
3.38401360357384
 30
0.0
  0
VERTEX
  5
4BC
  8
0
  6
CONTINUOUS
 62
     4
 10
134.6137838430531
 20
3.444857717461947
 30
0.0
  0
VERTEX
  5
4BD
  8
0
  6
CONTINUOUS
 62
     4
 10
134.4973462126978
 20
3.501813582434063
 30
0.0
  0
VERTEX
  5
4BE
  8
0
  6
CONTINUOUS
 62
     4
 10
134.3780577667793
 20
3.554781278549294
 30
0.0
  0
VERTEX
  5
4BF
  8
0
  6
CONTINUOUS
 62
     4
 10
134.2561277777662
 20
3.603667882470111
 30
0.0
  0
VERTEX
  5
4C0
  8
0
  6
CONTINUOUS
 62
     4
 10
134.1317701522912
 20
3.648387630481456
 30
0.0
  0
VERTEX
  5
4C1
  8
0
  6
CONTINUOUS
 62
     4
 10
134.0052030558865
 20
3.688862068949445
 30
0.0
  0
VERTEX
  5
4C2
  8
0
  6
CONTINUOUS
 62
     4
 10
133.876648530247
 20
3.725020191955699
 30
0.0
  0
VERTEX
  5
4C3
  8
0
  6
CONTINUOUS
 62
     4
 10
133.7463321036937
 20
3.756798565865851
 30
0.0
  0
VERTEX
  5
4C4
  8
0
  6
CONTINUOUS
 62
     4
 10
133.6144823955207
 20
3.7841414406137
 30
0.0
  0
VERTEX
  5
4C5
  8
0
  6
CONTINUOUS
 62
     4
 10
133.4813307149189
 20
3.807000847505767
 30
0.0
  0
VERTEX
  5
4C6
  8
0
  6
CONTINUOUS
 62
     4
 10
133.3471106551813
 20
3.825336683374683
 30
0.0
  0
VERTEX
  5
4C7
  8
0
  6
CONTINUOUS
 62
     4
 10
133.212057683901
 20
3.839116780933777
 30
0.0
  0
VERTEX
  5
4C8
  8
0
  6
CONTINUOUS
 62
     4
 10
133.0764087298809
 20
3.84831696520942
 30
0.0
  0
VERTEX
  5
4C9
  8
0
  6
CONTINUOUS
 62
     4
 10
132.9404017674802
 20
3.85292109595215
 30
0.0
  0
VERTEX
  5
4CA
  8
0
  6
CONTINUOUS
 62
     4
 10
132.8042753991264
 20
3.85292109595215
 30
0.0
  0
VERTEX
  5
4CB
  8
0
  6
CONTINUOUS
 62
     4
 10
132.6682684367258
 20
3.84831696520942
 30
0.0
  0
VERTEX
  5
4CC
  8
0
  6
CONTINUOUS
 62
     4
 10
132.5326194827057
 20
3.839116780933777
 30
0.0
  0
VERTEX
  5
4CD
  8
0
  6
CONTINUOUS
 62
     4
 10
132.3975665114253
 20
3.825336683374683
 30
0.0
  0
VERTEX
  5
4CE
  8
0
  6
CONTINUOUS
 62
     4
 10
132.2633464516877
 20
3.807000847505766
 30
0.0
  0
VERTEX
  5
4CF
  8
0
  6
CONTINUOUS
 62
     4
 10
132.1301947710859
 20
3.7841414406137
 30
0.0
  0
VERTEX
  5
4D0
  8
0
  6
CONTINUOUS
 62
     4
 10
131.9983450629129
 20
3.756798565865851
 30
0.0
  0
VERTEX
  5
4D1
  8
0
  6
CONTINUOUS
 62
     4
 10
131.8680286363596
 20
3.725020191955699
 30
0.0
  0
VERTEX
  5
4D2
  8
0
  6
CONTINUOUS
 62
     4
 10
131.7394741107201
 20
3.688862068949445
 30
0.0
  0
VERTEX
  5
4D3
  8
0
  6
CONTINUOUS
 62
     4
 10
131.6129070143154
 20
3.648387630481456
 30
0.0
  0
VERTEX
  5
4D4
  8
0
  6
CONTINUOUS
 62
     4
 10
131.4885493888404
 20
3.603667882470111
 30
0.0
  0
VERTEX
  5
4D5
  8
0
  6
CONTINUOUS
 62
     4
 10
131.3666193998273
 20
3.554781278549294
 30
0.0
  0
VERTEX
  5
4D6
  8
0
  6
CONTINUOUS
 62
     4
 10
131.2473309539088
 20
3.501813582434063
 30
0.0
  0
VERTEX
  5
4D7
  8
0
  6
CONTINUOUS
 62
     4
 10
131.1308933235535
 20
3.444857717461947
 30
0.0
  0
VERTEX
  5
4D8
  8
0
  6
CONTINUOUS
 62
     4
 10
131.0175107799309
 20
3.38401360357384
 30
0.0
  0
VERTEX
  5
4D9
  8
0
  6
CONTINUOUS
 62
     4
 10
130.9073822345502
 20
3.319387982020471
 30
0.0
  0
VERTEX
  5
4DA
  8
0
  6
CONTINUOUS
 62
     4
 10
130.8007008903019
 20
3.251094228101978
 30
0.0
  0
VERTEX
  5
4DB
  8
0
  6
CONTINUOUS
 62
     4
 10
130.6976539025143
 20
3.179252152269109
 30
0.0
  0
VERTEX
  5
4DC
  8
0
  6
CONTINUOUS
 62
     4
 10
130.5984220506196
 20
3.103987789934974
 30
0.0
  0
VERTEX
  5
4DD
  8
0
  6
CONTINUOUS
 62
     4
 10
130.5031794210052
 20
3.025433180366111
 30
0.0
  0
VERTEX
  5
4DE
  8
0
  6
CONTINUOUS
 62
     4
 10
130.4120931016072
 20
2.943726135040739
 30
0.0
  0
VERTEX
  5
4DF
  8
0
  6
CONTINUOUS
 62
     4
 10
130.3253228887812
 20
2.8590099958806
 30
0.0
  0
VERTEX
  5
4E0
  8
0
  6
CONTINUOUS
 62
     4
 10
130.2430210069651
 20
2.771433383780516
 30
0.0
  0
VERTEX
  5
4E1
  8
0
  6
CONTINUOUS
 62
     4
 10
130.165331841626
 20
2.681149937876846
 30
0.0
  0
VERTEX
  5
4E2
  8
0
  6
CONTINUOUS
 62
     4
 10
130.0923916859588
 20
2.588318046012224
 30
0.0
  0
VERTEX
  5
4E3
  8
0
  6
CONTINUOUS
 62
     4
 10
130.024328501782
 20
2.493100566869471
 30
0.0
  0
VERTEX
  5
4E4
  8
0
  6
CONTINUOUS
 62
     4
 10
129.9612616950484
 20
2.395664544262119
 30
0.0
  0
VERTEX
  5
4E5
  8
0
  6
CONTINUOUS
 62
     4
 10
129.9033019063674
 20
2.296180914082805
 30
0.0
  0
VERTEX
  5
4E6
  8
0
  6
CONTINUOUS
 62
     4
 10
129.8505508169032
 20
2.194824204423628
 30
0.0
  0
VERTEX
  5
4E7
  8
0
  6
CONTINUOUS
 62
     4
 10
129.8031009699917
 20
2.091772229394572
 30
0.0
  0
VERTEX
  5
4E8
  8
0
  6
CONTINUOUS
 62
     4
 10
129.7610356087878
 20
1.987205777177133
 30
0.0
  0
VERTEX
  5
4E9
  8
0
  6
CONTINUOUS
 62
     4
 10
129.7244285302291
 20
1.881308292860421
 30
0.0
  0
VERTEX
  5
4EA
  8
0
  6
CONTINUOUS
 62
     4
 10
129.6933439555705
 20
1.774265556616135
 30
0.0
  0
VERTEX
  5
4EB
  8
0
  6
CONTINUOUS
 62
     4
 10
129.6678364177186
 20
1.666265357777012
 30
0.0
  0
VERTEX
  5
4EC
  8
0
  6
CONTINUOUS
 62
     4
 10
129.6479506655623
 20
1.55749716539053
 30
0.0
  0
VERTEX
  5
4ED
  8
0
  6
CONTINUOUS
 62
     4
 10
129.6337215854681
 20
1.448151795825816
 30
0.0
  0
VERTEX
  5
4EE
  8
0
  6
CONTINUOUS
 62
     4
 10
129.6251741400775
 20
1.338421078016893
 30
0.0
  0
VERTEX
  5
4EF
  8
0
  6
CONTINUOUS
 62
     4
 10
129.6223233245142
 20
1.228497516929545
 30
0.0
  0
VERTEX
  5
4F0
  8
0
  6
CONTINUOUS
 62
     4
 10
129.6251741400775
 20
1.118573955842198
 30
0.0
  0
VERTEX
  5
4F1
  8
0
  6
CONTINUOUS
 62
     4
 10
129.6337215854681
 20
1.008843238033274
 30
0.0
  0
VERTEX
  5
4F2
  8
0
  6
CONTINUOUS
 62
     4
 10
129.6479506655623
 20
0.8994978684685605
 30
0.0
  0
VERTEX
  5
4F3
  8
0
  6
CONTINUOUS
 62
     4
 10
129.6678364177186
 20
0.790729676082079
 30
0.0
  0
VERTEX
  5
4F4
  8
0
  6
CONTINUOUS
 62
     4
 10
129.6933439555705
 20
0.682729477242956
 30
0.0
  0
VERTEX
  5
4F5
  8
0
  6
CONTINUOUS
 62
     4
 10
129.7244285302291
 20
0.5756867409986692
 30
0.0
  0
VERTEX
  5
4F6
  8
0
  6
CONTINUOUS
 62
     4
 10
129.7610356087878
 20
0.4697892566819575
 30
0.0
  0
VERTEX
  5
4F7
  8
0
  6
CONTINUOUS
 62
     4
 10
129.8031009699917
 20
0.3652228044645192
 30
0.0
  0
VERTEX
  5
4F8
  8
0
  6
CONTINUOUS
 62
     4
 10
129.8505508169032
 20
0.262170829435463
 30
0.0
  0
VERTEX
  5
4F9
  8
0
  6
CONTINUOUS
 62
     4
 10
129.9033019063674
 20
0.1608141197762862
 30
0.0
  0
VERTEX
  5
4FA
  8
0
  6
CONTINUOUS
 62
     4
 10
129.9612616950484
 20
0.0613304895969726
 30
0.0
  0
VERTEX
  5
4FB
  8
0
  6
CONTINUOUS
 62
     4
 10
130.024328501782
 20
-0.036105533010379
 30
0.0
  0
VERTEX
  5
4FC
  8
0
  6
CONTINUOUS
 62
     4
 10
130.0923916859588
 20
-0.1313230121531319
 30
0.0
  0
VERTEX
  5
4FD
  8
0
  6
CONTINUOUS
 62
     4
 10
130.165331841626
 20
-0.2241549040177533
 30
0.0
  0
VERTEX
  5
4FE
  8
0
  6
CONTINUOUS
 62
     4
 10
130.2430210069651
 20
-0.3144383499214236
 30
0.0
  0
VERTEX
  5
4FF
  8
0
  6
CONTINUOUS
 62
     4
 10
130.3253228887812
 20
-0.4020149620215068
 30
0.0
  0
VERTEX
  5
500
  8
0
  6
CONTINUOUS
 62
     4
 10
130.4120931016072
 20
-0.4867311011816464
 30
0.0
  0
VERTEX
  5
501
  8
0
  6
CONTINUOUS
 62
     4
 10
130.5031794210052
 20
-0.5684381465070181
 30
0.0
  0
VERTEX
  5
502
  8
0
  6
CONTINUOUS
 62
     4
 10
130.5984220506196
 20
-0.6469927560758808
 30
0.0
  0
VERTEX
  5
503
  8
0
  6
CONTINUOUS
 62
     4
 10
130.6976539025143
 20
-0.7222571184100148
 30
0.0
  0
VERTEX
  5
504
  8
0
  6
CONTINUOUS
 62
     4
 10
130.8007008903019
 20
-0.7940991942428832
 30
0.0
  0
VERTEX
  5
505
  8
0
  6
CONTINUOUS
 62
     4
 10
130.9073822345502
 20
-0.8623929481613755
 30
0.0
  0
VERTEX
  5
506
  8
0
  6
CONTINUOUS
 62
     4
 10
131.017510779931
 20
-0.9270185697147437
 30
0.0
  0
VERTEX
  5
507
  8
0
  6
CONTINUOUS
 62
     4
 10
131.1308933235535
 20
-0.9878626836028501
 30
0.0
  0
VERTEX
  5
508
  8
0
  6
CONTINUOUS
 62
     4
 10
131.2473309539088
 20
-1.044818548574966
 30
0.0
  0
VERTEX
  5
509
  8
0
  6
CONTINUOUS
 62
     4
 10
131.3666193998273
 20
-1.097786244690197
 30
0.0
  0
VERTEX
  5
50A
  8
0
  6
CONTINUOUS
 62
     4
 10
131.4885493888404
 20
-1.146672848611014
 30
0.0
  0
VERTEX
  5
50B
  8
0
  6
CONTINUOUS
 62
     4
 10
131.6129070143154
 20
-1.191392596622358
 30
0.0
  0
VERTEX
  5
50C
  8
0
  6
CONTINUOUS
 62
     4
 10
131.7394741107201
 20
-1.231867035090347
 30
0.0
  0
VERTEX
  5
50D
  8
0
  6
CONTINUOUS
 62
     4
 10
131.8680286363596
 20
-1.2680251580966
 30
0.0
  0
VERTEX
  5
50E
  8
0
  6
CONTINUOUS
 62
     4
 10
131.9983450629129
 20
-1.299803532006753
 30
0.0
  0
VERTEX
  5
50F
  8
0
  6
CONTINUOUS
 62
     4
 10
132.1301947710859
 20
-1.327146406754601
 30
0.0
  0
VERTEX
  5
510
  8
0
  6
CONTINUOUS
 62
     4
 10
132.2633464516878
 20
-1.350005813646667
 30
0.0
  0
VERTEX
  5
511
  8
0
  6
CONTINUOUS
 62
     4
 10
132.3975665114254
 20
-1.368341649515583
 30
0.0
  0
VERTEX
  5
512
  8
0
  6
CONTINUOUS
 62
     4
 10
132.5326194827057
 20
-1.382121747074677
 30
0.0
  0
VERTEX
  5
513
  8
0
  6
CONTINUOUS
 62
     4
 10
132.6682684367258
 20
-1.391321931350319
 30
0.0
  0
VERTEX
  5
514
  8
0
  6
CONTINUOUS
 62
     4
 10
132.8042753991264
 20
-1.395926062093049
 30
0.0
  0
VERTEX
  5
515
  8
0
  6
CONTINUOUS
 62
     4
 10
132.9404017674802
 20
-1.395926062093049
 30
0.0
  0
VERTEX
  5
516
  8
0
  6
CONTINUOUS
 62
     4
 10
133.0764087298809
 20
-1.391321931350318
 30
0.0
  0
VERTEX
  5
517
  8
0
  6
CONTINUOUS
 62
     4
 10
133.212057683901
 20
-1.382121747074674
 30
0.0
  0
VERTEX
  5
518
  8
0
  6
CONTINUOUS
 62
     4
 10
133.3471106551813
 20
-1.36834164951558
 30
0.0
  0
VERTEX
  5
519
  8
0
  6
CONTINUOUS
 62
     4
 10
133.4813307149189
 20
-1.350005813646663
 30
0.0
  0
VERTEX
  5
51A
  8
0
  6
CONTINUOUS
 62
     4
 10
133.6144823955207
 20
-1.327146406754597
 30
0.0
  0
VERTEX
  5
51B
  8
0
  6
CONTINUOUS
 62
     4
 10
133.7463321036938
 20
-1.299803532006747
 30
0.0
  0
VERTEX
  5
51C
  8
0
  6
CONTINUOUS
 62
     4
 10
133.876648530247
 20
-1.268025158096594
 30
0.0
  0
VERTEX
  5
51D
  8
0
  6
CONTINUOUS
 62
     4
 10
134.0052030558866
 20
-1.23186703509034
 30
0.0
  0
VERTEX
  5
51E
  8
0
  6
CONTINUOUS
 62
     4
 10
134.1317701522912
 20
-1.191392596622351
 30
0.0
  0
VERTEX
  5
51F
  8
0
  6
CONTINUOUS
 62
     4
 10
134.2561277777662
 20
-1.146672848611005
 30
0.0
  0
VERTEX
  5
520
  8
0
  6
CONTINUOUS
 62
     4
 10
134.3780577667793
 20
-1.097786244690188
 30
0.0
  0
VERTEX
  5
521
  8
0
  6
CONTINUOUS
 62
     4
 10
134.4973462126978
 20
-1.044818548574956
 30
0.0
  0
VERTEX
  5
522
  8
0
  6
CONTINUOUS
 62
     4
 10
134.6137838430531
 20
-0.9878626836028395
 30
0.0
  0
VERTEX
  5
523
  8
0
  6
CONTINUOUS
 62
     4
 10
134.7271663866757
 20
-0.9270185697147326
 30
0.0
  0
VERTEX
  5
524
  8
0
  6
CONTINUOUS
 62
     4
 10
134.8372949320564
 20
-0.8623929481613635
 30
0.0
  0
VERTEX
  5
525
  8
0
  6
CONTINUOUS
 62
     4
 10
134.9439762763048
 20
-0.7940991942428703
 30
0.0
  0
VERTEX
  5
526
  8
0
  6
CONTINUOUS
 62
     4
 10
135.0470232640924
 20
-0.7222571184100006
 30
0.0
  0
VERTEX
  5
527
  8
0
  6
CONTINUOUS
 62
     4
 10
135.1462551159871
 20
-0.6469927560758659
 30
0.0
  0
VERTEX
  5
528
  8
0
  6
CONTINUOUS
 62
     4
 10
135.2414977456014
 20
-0.5684381465070028
 30
0.0
  0
VERTEX
  5
529
  8
0
  6
CONTINUOUS
 62
     4
 10
135.3325840649994
 20
-0.4867311011816302
 30
0.0
  0
VERTEX
  5
52A
  8
0
  6
CONTINUOUS
 62
     4
 10
135.4193542778255
 20
-0.4020149620214901
 30
0.0
  0
VERTEX
  5
52B
  8
0
  6
CONTINUOUS
 62
     4
 10
135.5016561596416
 20
-0.3144383499214065
 30
0.0
  0
VERTEX
  5
52C
  8
0
  6
CONTINUOUS
 62
     4
 10
135.5793453249807
 20
-0.2241549040177358
 30
0.0
  0
VERTEX
  5
52D
  8
0
  6
CONTINUOUS
 62
     4
 10
135.6522854806478
 20
-0.1313230121531139
 30
0.0
  0
VERTEX
  5
52E
  8
0
  6
CONTINUOUS
 62
     4
 10
135.7203486648247
 20
-0.0361055330103603
 30
0.0
  0
VERTEX
  5
52F
  8
0
  6
CONTINUOUS
 62
     4
 10
135.7834154715582
 20
0.0613304895969915
 30
0.0
  0
VERTEX
  5
530
  8
0
  6
CONTINUOUS
 62
     4
 10
135.8413752602392
 20
0.1608141197763056
 30
0.0
  0
VERTEX
  5
531
  8
0
  6
CONTINUOUS
 62
     4
 10
135.8941263497034
 20
0.2621708294354826
 30
0.0
  0
VERTEX
  5
532
  8
0
  6
CONTINUOUS
 62
     4
 10
135.941576196615
 20
0.3652228044645393
 30
0.0
  0
VERTEX
  5
533
  8
0
  6
CONTINUOUS
 62
     4
 10
135.9836415578188
 20
0.4697892566819778
 30
0.0
  0
VERTEX
  5
534
  8
0
  6
CONTINUOUS
 62
     4
 10
136.0202486363775
 20
0.5756867409986898
 30
0.0
  0
VERTEX
  5
535
  8
0
  6
CONTINUOUS
 62
     4
 10
136.0513332110361
 20
0.6827294772429767
 30
0.0
  0
VERTEX
  5
536
  8
0
  6
CONTINUOUS
 62
     4
 10
136.076840748888
 20
0.7907296760821
 30
0.0
  0
VERTEX
  5
537
  8
0
  6
CONTINUOUS
 62
     4
 10
136.0967265010443
 20
0.8994978684685815
 30
0.0
  0
VERTEX
  5
538
  8
0
  6
CONTINUOUS
 62
     4
 10
136.1109555811385
 20
1.008843238033296
 30
0.0
  0
VERTEX
  5
539
  8
0
  6
CONTINUOUS
 62
     4
 10
136.1195030265291
 20
1.118573955842219
 30
0.0
  0
SEQEND
  5
4A3
  8
0
  6
CONTINUOUS
 62
     4
  0
POLYLINE
  5
3A7
  8
0
  6
CONTINUOUS
 62
     4
 66
     1
 10
0.0
 20
0.0
 30
0.0
 70
     1
  0
VERTEX
  5
53A
  8
0
  6
CONTINUOUS
 62
     4
 10
1.0
 20
0.0
 30
0.0
  0
VERTEX
  5
53B
  8
0
  6
CONTINUOUS
 62
     4
 10
0.9807852804032304
 20
0.1950903220161283
 30
0.0
  0
VERTEX
  5
53C
  8
0
  6
CONTINUOUS
 62
     4
 10
0.9238795325112867
 20
0.3826834323650898
 30
0.0
  0
VERTEX
  5
53D
  8
0
  6
CONTINUOUS
 62
     4
 10
0.8314696123025452
 20
0.5555702330196022
 30
0.0
  0
VERTEX
  5
53E
  8
0
  6
CONTINUOUS
 62
     4
 10
0.7071067811865476
 20
0.7071067811865475
 30
0.0
  0
VERTEX
  5
53F
  8
0
  6
CONTINUOUS
 62
     4
 10
0.5555702330196023
 20
0.8314696123025452
 30
0.0
  0
VERTEX
  5
540
  8
0
  6
CONTINUOUS
 62
     4
 10
0.3826834323650898
 20
0.9238795325112867
 30
0.0
  0
VERTEX
  5
541
  8
0
  6
CONTINUOUS
 62
     4
 10
0.1950903220161283
 20
0.9807852804032304
 30
0.0
  0
VERTEX
  5
542
  8
0
  6
CONTINUOUS
 62
     4
 10
0.0000000000000001
 20
1.0
 30
0.0
  0
VERTEX
  5
543
  8
0
  6
CONTINUOUS
 62
     4
 10
-0.1950903220161282
 20
0.9807852804032304
 30
0.0
  0
VERTEX
  5
544
  8
0
  6
CONTINUOUS
 62
     4
 10
-0.3826834323650897
 20
0.9238795325112867
 30
0.0
  0
VERTEX
  5
545
  8
0
  6
CONTINUOUS
 62
     4
 10
-0.555570233019602
 20
0.8314696123025455
 30
0.0
  0
VERTEX
  5
546
  8
0
  6
CONTINUOUS
 62
     4
 10
-0.7071067811865475
 20
0.7071067811865476
 30
0.0
  0
VERTEX
  5
547
  8
0
  6
CONTINUOUS
 62
     4
 10
-0.8314696123025454
 20
0.5555702330196022
 30
0.0
  0
VERTEX
  5
548
  8
0
  6
CONTINUOUS
 62
     4
 10
-0.9238795325112869
 20
0.3826834323650895
 30
0.0
  0
VERTEX
  5
549
  8
0
  6
CONTINUOUS
 62
     4
 10
-0.9807852804032305
 20
0.1950903220161277
 30
0.0
  0
VERTEX
  5
54A
  8
0
  6
CONTINUOUS
 62
     4
 10
-1.0
 20
-0.0000000000000008
 30
0.0
  0
VERTEX
  5
54B
  8
0
  6
CONTINUOUS
 62
     4
 10
-0.9807852804032302
 20
-0.1950903220161292
 30
0.0
  0
VERTEX
  5
54C
  8
0
  6
CONTINUOUS
 62
     4
 10
-0.9238795325112863
 20
-0.3826834323650909
 30
0.0
  0
VERTEX
  5
54D
  8
0
  6
CONTINUOUS
 62
     4
 10
-0.8314696123025445
 20
-0.5555702330196034
 30
0.0
  0
VERTEX
  5
54E
  8
0
  6
CONTINUOUS
 62
     4
 10
-0.7071067811865464
 20
-0.7071067811865487
 30
0.0
  0
VERTEX
  5
54F
  8
0
  6
CONTINUOUS
 62
     4
 10
-0.5555702330196007
 20
-0.8314696123025462
 30
0.0
  0
VERTEX
  5
550
  8
0
  6
CONTINUOUS
 62
     4
 10
-0.3826834323650879
 20
-0.9238795325112875
 30
0.0
  0
VERTEX
  5
551
  8
0
  6
CONTINUOUS
 62
     4
 10
-0.1950903220161261
 20
-0.9807852804032309
 30
0.0
  0
VERTEX
  5
552
  8
0
  6
CONTINUOUS
 62
     4
 10
0.0000000000000025
 20
-1.0
 30
0.0
  0
VERTEX
  5
553
  8
0
  6
CONTINUOUS
 62
     4
 10
0.1950903220161309
 20
-0.9807852804032299
 30
0.0
  0
VERTEX
  5
554
  8
0
  6
CONTINUOUS
 62
     4
 10
0.3826834323650925
 20
-0.9238795325112856
 30
0.0
  0
VERTEX
  5
555
  8
0
  6
CONTINUOUS
 62
     4
 10
0.5555702330196048
 20
-0.8314696123025435
 30
0.0
  0
VERTEX
  5
556
  8
0
  6
CONTINUOUS
 62
     4
 10
0.7071067811865499
 20
-0.7071067811865451
 30
0.0
  0
VERTEX
  5
557
  8
0
  6
CONTINUOUS
 62
     4
 10
0.8314696123025472
 20
-0.5555702330195993
 30
0.0
  0
VERTEX
  5
558
  8
0
  6
CONTINUOUS
 62
     4
 10
0.9238795325112882
 20
-0.3826834323650863
 30
0.0
  0
VERTEX
  5
559
  8
0
  6
CONTINUOUS
 62
     4
 10
0.9807852804032312
 20
-0.1950903220161244
 30
0.0
  0
SEQEND
  5
55A
  8
0
  6
CONTINUOUS
 62
     4
  0
POLYLINE
  5
3A8
  8
0
  6
CONTINUOUS
 62
     4
 66
     1
 10
0.0
 20
0.0
 30
0.0
 70
     1
  0
VERTEX
  5
55C
  8
0
  6
CONTINUOUS
 62
     4
 10
136.1223538420924
 20
61.47849751692955
 30
0.0
  0
VERTEX
  5
55D
  8
0
  6
CONTINUOUS
 62
     4
 10
136.1195030265291
 20
61.58842118784017
 30
0.0
  0
VERTEX
  5
55E
  8
0
  6
CONTINUOUS
 62
     4
 10
136.1109555811385
 20
61.6981520152797
 30
0.0
  0
VERTEX
  5
55F
  8
0
  6
CONTINUOUS
 62
     4
 10
136.0967265010443
 20
61.80749749409002
 30
0.0
  0
VERTEX
  5
560
  8
0
  6
CONTINUOUS
 62
     4
 10
136.076840748888
 20
61.91626579514546
 30
0.0
  0
VERTEX
  5
561
  8
0
  6
CONTINUOUS
 62
     4
 10
136.0513332110361
 20
62.02426610188625
 30
0.0
  0
VERTEX
  5
562
  8
0
  6
CONTINUOUS
 62
     4
 10
136.0202486363775
 20
62.13130894507561
 30
0.0
  0
VERTEX
  5
563
  8
0
  6
CONTINUOUS
 62
     4
 10
135.9836415578188
 20
62.23720653519319
 30
0.0
  0
VERTEX
  5
564
  8
0
  6
CONTINUOUS
 62
     4
 10
135.941576196615
 20
62.34177309188168
 30
0.0
  0
VERTEX
  5
565
  8
0
  6
CONTINUOUS
 62
     4
 10
135.8941263497034
 20
62.44482516986869
 30
0.0
  0
VERTEX
  5
566
  8
0
  6
CONTINUOUS
 62
     4
 10
135.8413752602392
 20
62.54618198079211
 30
0.0
  0
VERTEX
  5
567
  8
0
  6
CONTINUOUS
 62
     4
 10
135.7834154715582
 20
62.64566571036428
 30
0.0
  0
VERTEX
  5
568
  8
0
  6
CONTINUOUS
 62
     4
 10
135.7203486648247
 20
62.74310183031876
 30
0.0
  0
VERTEX
  5
569
  8
0
  6
CONTINUOUS
 62
     4
 10
135.6522854806478
 20
62.83831940459213
 30
0.0
  0
VERTEX
  5
56A
  8
0
  6
CONTINUOUS
 62
     4
 10
135.5793453249806
 20
62.93115138920394
 30
0.0
  0
VERTEX
  5
56B
  8
0
  6
CONTINUOUS
 62
     4
 10
135.5016561596416
 20
63.02143492530869
 30
0.0
  0
VERTEX
  5
56C
  8
0
  6
CONTINUOUS
 62
     4
 10
135.4193542778255
 20
63.10901162490548
 30
0.0
  0
VERTEX
  5
56D
  8
0
  6
CONTINUOUS
 62
     4
 10
135.3325840649994
 20
63.19372784870447
 30
0.0
  0
VERTEX
  5
56E
  8
0
  6
CONTINUOUS
 62
     4
 10
135.2414977456014
 20
63.27543497566234
 30
0.0
  0
VERTEX
  5
56F
  8
0
  6
CONTINUOUS
 62
     4
 10
135.1462551159871
 20
63.35398966371415
 30
0.0
  0
VERTEX
  5
570
  8
0
  6
CONTINUOUS
 62
     4
 10
135.0470232640924
 20
63.42925410124398
 30
0.0
  0
VERTEX
  5
571
  8
0
  6
CONTINUOUS
 62
     4
 10
134.9439762763047
 20
63.50109624885338
 30
0.0
  0
VERTEX
  5
572
  8
0
  6
CONTINUOUS
 62
     4
 10
134.8372949320564
 20
63.56939007100331
 30
0.0
  0
VERTEX
  5
573
  8
0
  6
CONTINUOUS
 62
     4
 10
134.7271663866757
 20
63.63401575712334
 30
0.0
  0
VERTEX
  5
574
  8
0
  6
CONTINUOUS
 62
     4
 10
134.6137838430531
 20
63.69485993180005
 30
0.0
  0
VERTEX
  5
575
  8
0
  6
CONTINUOUS
 62
     4
 10
134.4973462126978
 20
63.75181585367607
 30
0.0
  0
VERTEX
  5
576
  8
0
  6
CONTINUOUS
 62
     4
 10
134.3780577667793
 20
63.80478360271067
 30
0.0
  0
VERTEX
  5
577
  8
0
  6
CONTINUOUS
 62
     4
 10
134.2561277777662
 20
63.8536702554735
 30
0.0
  0
VERTEX
  5
578
  8
0
  6
CONTINUOUS
 62
     4
 10
134.1317701522912
 20
63.89839004816378
 30
0.0
  0
VERTEX
  5
579
  8
0
  6
CONTINUOUS
 62
     4
 10
134.0052030558865
 20
63.93886452706929
 30
0.0
  0
VERTEX
  5
57A
  8
0
  6
CONTINUOUS
 62
     4
 10
133.876648530247
 20
63.97502268620067
 30
0.0
  0
VERTEX
  5
57B
  8
0
  6
CONTINUOUS
 62
     4
 10
133.7463321036937
 20
64.00680109186021
 30
0.0
  0
VERTEX
  5
57C
  8
0
  6
CONTINUOUS
 62
     4
 10
133.6144823955207
 20
64.03414399392598
 30
0.0
  0
VERTEX
  5
57D
  8
0
  6
CONTINUOUS
 62
     4
 10
133.4813307149189
 20
64.0570034236566
 30
0.0
  0
VERTEX
  5
57E
  8
0
  6
CONTINUOUS
 62
     4
 10
133.3471106551813
 20
64.07533927784462
 30
0.0
  0
VERTEX
  5
57F
  8
0
  6
CONTINUOUS
 62
     4
 10
133.212057683901
 20
64.08911938917125
 30
0.0
  0
VERTEX
  5
580
  8
0
  6
CONTINUOUS
 62
     4
 10
133.0764087298809
 20
64.09831958263868
 30
0.0
  0
VERTEX
  5
581
  8
0
  6
CONTINUOUS
 62
     4
 10
132.9404017674802
 20
64.10292371798134
 30
0.0
  0
VERTEX
  5
582
  8
0
  6
CONTINUOUS
 62
     4
 10
132.8042753991264
 20
64.10292371798134
 30
0.0
  0
VERTEX
  5
583
  8
0
  6
CONTINUOUS
 62
     4
 10
132.6682684367258
 20
64.09831958263868
 30
0.0
  0
VERTEX
  5
584
  8
0
  6
CONTINUOUS
 62
     4
 10
132.5326194827057
 20
64.08911938917125
 30
0.0
  0
VERTEX
  5
585
  8
0
  6
CONTINUOUS
 62
     4
 10
132.3975665114253
 20
64.07533927784462
 30
0.0
  0
VERTEX
  5
586
  8
0
  6
CONTINUOUS
 62
     4
 10
132.2633464516877
 20
64.0570034236566
 30
0.0
  0
VERTEX
  5
587
  8
0
  6
CONTINUOUS
 62
     4
 10
132.1301947710859
 20
64.03414399392598
 30
0.0
  0
VERTEX
  5
588
  8
0
  6
CONTINUOUS
 62
     4
 10
131.9983450629129
 20
64.00680109186021
 30
0.0
  0
VERTEX
  5
589
  8
0
  6
CONTINUOUS
 62
     4
 10
131.8680286363596
 20
63.97502268620067
 30
0.0
  0
VERTEX
  5
58A
  8
0
  6
CONTINUOUS
 62
     4
 10
131.7394741107201
 20
63.93886452706929
 30
0.0
  0
VERTEX
  5
58B
  8
0
  6
CONTINUOUS
 62
     4
 10
131.6129070143154
 20
63.89839004816378
 30
0.0
  0
VERTEX
  5
58C
  8
0
  6
CONTINUOUS
 62
     4
 10
131.4885493888404
 20
63.8536702554735
 30
0.0
  0
VERTEX
  5
58D
  8
0
  6
CONTINUOUS
 62
     4
 10
131.3666193998273
 20
63.80478360271067
 30
0.0
  0
VERTEX
  5
58E
  8
0
  6
CONTINUOUS
 62
     4
 10
131.2473309539088
 20
63.75181585367607
 30
0.0
  0
VERTEX
  5
58F
  8
0
  6
CONTINUOUS
 62
     4
 10
131.1308933235535
 20
63.69485993180005
 30
0.0
  0
VERTEX
  5
590
  8
0
  6
CONTINUOUS
 62
     4
 10
131.0175107799309
 20
63.63401575712334
 30
0.0
  0
VERTEX
  5
591
  8
0
  6
CONTINUOUS
 62
     4
 10
130.9073822345502
 20
63.56939007100331
 30
0.0
  0
VERTEX
  5
592
  8
0
  6
CONTINUOUS
 62
     4
 10
130.8007008903019
 20
63.50109624885338
 30
0.0
  0
VERTEX
  5
593
  8
0
  6
CONTINUOUS
 62
     4
 10
130.6976539025143
 20
63.42925410124398
 30
0.0
  0
VERTEX
  5
594
  8
0
  6
CONTINUOUS
 62
     4
 10
130.5984220506196
 20
63.35398966371415
 30
0.0
  0
VERTEX
  5
595
  8
0
  6
CONTINUOUS
 62
     4
 10
130.5031794210052
 20
63.27543497566234
 30
0.0
  0
VERTEX
  5
596
  8
0
  6
CONTINUOUS
 62
     4
 10
130.4120931016072
 20
63.19372784870447
 30
0.0
  0
VERTEX
  5
597
  8
0
  6
CONTINUOUS
 62
     4
 10
130.3253228887812
 20
63.10901162490548
 30
0.0
  0
VERTEX
  5
598
  8
0
  6
CONTINUOUS
 62
     4
 10
130.2430210069651
 20
63.02143492530869
 30
0.0
  0
VERTEX
  5
599
  8
0
  6
CONTINUOUS
 62
     4
 10
130.165331841626
 20
62.93115138920394
 30
0.0
  0
VERTEX
  5
59A
  8
0
  6
CONTINUOUS
 62
     4
 10
130.0923916859588
 20
62.83831940459212
 30
0.0
  0
VERTEX
  5
59B
  8
0
  6
CONTINUOUS
 62
     4
 10
130.024328501782
 20
62.74310183031876
 30
0.0
  0
VERTEX
  5
59C
  8
0
  6
CONTINUOUS
 62
     4
 10
129.9612616950484
 20
62.64566571036428
 30
0.0
  0
VERTEX
  5
59D
  8
0
  6
CONTINUOUS
 62
     4
 10
129.9033019063674
 20
62.54618198079211
 30
0.0
  0
VERTEX
  5
59E
  8
0
  6
CONTINUOUS
 62
     4
 10
129.8505508169032
 20
62.44482516986869
 30
0.0
  0
VERTEX
  5
59F
  8
0
  6
CONTINUOUS
 62
     4
 10
129.8031009699917
 20
62.34177309188168
 30
0.0
  0
VERTEX
  5
5A0
  8
0
  6
CONTINUOUS
 62
     4
 10
129.7610356087878
 20
62.23720653519319
 30
0.0
  0
VERTEX
  5
5A1
  8
0
  6
CONTINUOUS
 62
     4
 10
129.7244285302291
 20
62.13130894507561
 30
0.0
  0
VERTEX
  5
5A2
  8
0
  6
CONTINUOUS
 62
     4
 10
129.6933439555705
 20
62.02426610188624
 30
0.0
  0
VERTEX
  5
5A3
  8
0
  6
CONTINUOUS
 62
     4
 10
129.6678364177186
 20
61.91626579514546
 30
0.0
  0
VERTEX
  5
5A4
  8
0
  6
CONTINUOUS
 62
     4
 10
129.6479506655623
 20
61.80749749409002
 30
0.0
  0
VERTEX
  5
5A5
  8
0
  6
CONTINUOUS
 62
     4
 10
129.6337215854681
 20
61.6981520152797
 30
0.0
  0
VERTEX
  5
5A6
  8
0
  6
CONTINUOUS
 62
     4
 10
129.6251741400775
 20
61.58842118784017
 30
0.0
  0
VERTEX
  5
5A7
  8
0
  6
CONTINUOUS
 62
     4
 10
129.6223233245142
 20
61.47849751692954
 30
0.0
  0
VERTEX
  5
5A8
  8
0
  6
CONTINUOUS
 62
     4
 10
129.6251741400775
 20
61.36857384601893
 30
0.0
  0
VERTEX
  5
5A9
  8
0
  6
CONTINUOUS
 62
     4
 10
129.6337215854681
 20
61.2588430185794
 30
0.0
  0
VERTEX
  5
5AA
  8
0
  6
CONTINUOUS
 62
     4
 10
129.6479506655623
 20
61.14949753976907
 30
0.0
  0
VERTEX
  5
5AB
  8
0
  6
CONTINUOUS
 62
     4
 10
129.6678364177186
 20
61.04072923871364
 30
0.0
  0
VERTEX
  5
5AC
  8
0
  6
CONTINUOUS
 62
     4
 10
129.6933439555705
 20
60.93272893197285
 30
0.0
  0
VERTEX
  5
5AD
  8
0
  6
CONTINUOUS
 62
     4
 10
129.7244285302291
 20
60.82568608878349
 30
0.0
  0
VERTEX
  5
5AE
  8
0
  6
CONTINUOUS
 62
     4
 10
129.7610356087878
 20
60.71978849866591
 30
0.0
  0
VERTEX
  5
5AF
  8
0
  6
CONTINUOUS
 62
     4
 10
129.8031009699917
 20
60.61522194197742
 30
0.0
  0
VERTEX
  5
5B0
  8
0
  6
CONTINUOUS
 62
     4
 10
129.8505508169032
 20
60.5121698639904
 30
0.0
  0
VERTEX
  5
5B1
  8
0
  6
CONTINUOUS
 62
     4
 10
129.9033019063674
 20
60.41081305306699
 30
0.0
  0
VERTEX
  5
5B2
  8
0
  6
CONTINUOUS
 62
     4
 10
129.9612616950484
 20
60.31132932349481
 30
0.0
  0
VERTEX
  5
5B3
  8
0
  6
CONTINUOUS
 62
     4
 10
130.024328501782
 20
60.21389320354033
 30
0.0
  0
VERTEX
  5
5B4
  8
0
  6
CONTINUOUS
 62
     4
 10
130.0923916859588
 20
60.11867562926697
 30
0.0
  0
VERTEX
  5
5B5
  8
0
  6
CONTINUOUS
 62
     4
 10
130.165331841626
 20
60.02584364465515
 30
0.0
  0
VERTEX
  5
5B6
  8
0
  6
CONTINUOUS
 62
     4
 10
130.2430210069651
 20
59.93556010855041
 30
0.0
  0
VERTEX
  5
5B7
  8
0
  6
CONTINUOUS
 62
     4
 10
130.3253228887812
 20
59.84798340895361
 30
0.0
  0
VERTEX
  5
5B8
  8
0
  6
CONTINUOUS
 62
     4
 10
130.4120931016072
 20
59.76326718515463
 30
0.0
  0
VERTEX
  5
5B9
  8
0
  6
CONTINUOUS
 62
     4
 10
130.5031794210052
 20
59.68156005819675
 30
0.0
  0
VERTEX
  5
5BA
  8
0
  6
CONTINUOUS
 62
     4
 10
130.5984220506196
 20
59.60300537014495
 30
0.0
  0
VERTEX
  5
5BB
  8
0
  6
CONTINUOUS
 62
     4
 10
130.6976539025143
 20
59.52774093261512
 30
0.0
  0
VERTEX
  5
5BC
  8
0
  6
CONTINUOUS
 62
     4
 10
130.8007008903019
 20
59.45589878500572
 30
0.0
  0
VERTEX
  5
5BD
  8
0
  6
CONTINUOUS
 62
     4
 10
130.9073822345502
 20
59.38760496285578
 30
0.0
  0
VERTEX
  5
5BE
  8
0
  6
CONTINUOUS
 62
     4
 10
131.017510779931
 20
59.32297927673575
 30
0.0
  0
VERTEX
  5
5BF
  8
0
  6
CONTINUOUS
 62
     4
 10
131.1308933235535
 20
59.26213510205904
 30
0.0
  0
VERTEX
  5
5C0
  8
0
  6
CONTINUOUS
 62
     4
 10
131.2473309539088
 20
59.20517918018302
 30
0.0
  0
VERTEX
  5
5C1
  8
0
  6
CONTINUOUS
 62
     4
 10
131.3666193998273
 20
59.15221143114842
 30
0.0
  0
VERTEX
  5
5C2
  8
0
  6
CONTINUOUS
 62
     4
 10
131.4885493888404
 20
59.10332477838561
 30
0.0
  0
VERTEX
  5
5C3
  8
0
  6
CONTINUOUS
 62
     4
 10
131.6129070143154
 20
59.05860498569531
 30
0.0
  0
VERTEX
  5
5C4
  8
0
  6
CONTINUOUS
 62
     4
 10
131.7394741107201
 20
59.01813050678981
 30
0.0
  0
VERTEX
  5
5C5
  8
0
  6
CONTINUOUS
 62
     4
 10
131.8680286363596
 20
58.98197234765843
 30
0.0
  0
VERTEX
  5
5C6
  8
0
  6
CONTINUOUS
 62
     4
 10
131.9983450629129
 20
58.95019394199889
 30
0.0
  0
VERTEX
  5
5C7
  8
0
  6
CONTINUOUS
 62
     4
 10
132.1301947710859
 20
58.92285103993311
 30
0.0
  0
VERTEX
  5
5C8
  8
0
  6
CONTINUOUS
 62
     4
 10
132.2633464516878
 20
58.8999916102025
 30
0.0
  0
VERTEX
  5
5C9
  8
0
  6
CONTINUOUS
 62
     4
 10
132.3975665114254
 20
58.88165575601447
 30
0.0
  0
VERTEX
  5
5CA
  8
0
  6
CONTINUOUS
 62
     4
 10
132.5326194827057
 20
58.86787564468786
 30
0.0
  0
VERTEX
  5
5CB
  8
0
  6
CONTINUOUS
 62
     4
 10
132.6682684367258
 20
58.85867545122042
 30
0.0
  0
VERTEX
  5
5CC
  8
0
  6
CONTINUOUS
 62
     4
 10
132.8042753991264
 20
58.85407131587776
 30
0.0
  0
VERTEX
  5
5CD
  8
0
  6
CONTINUOUS
 62
     4
 10
132.9404017674802
 20
58.85407131587776
 30
0.0
  0
VERTEX
  5
5CE
  8
0
  6
CONTINUOUS
 62
     4
 10
133.0764087298809
 20
58.85867545122042
 30
0.0
  0
VERTEX
  5
5CF
  8
0
  6
CONTINUOUS
 62
     4
 10
133.212057683901
 20
58.86787564468786
 30
0.0
  0
VERTEX
  5
5D0
  8
0
  6
CONTINUOUS
 62
     4
 10
133.3471106551813
 20
58.88165575601447
 30
0.0
  0
VERTEX
  5
5D1
  8
0
  6
CONTINUOUS
 62
     4
 10
133.4813307149189
 20
58.8999916102025
 30
0.0
  0
VERTEX
  5
5D2
  8
0
  6
CONTINUOUS
 62
     4
 10
133.6144823955207
 20
58.92285103993312
 30
0.0
  0
VERTEX
  5
5D3
  8
0
  6
CONTINUOUS
 62
     4
 10
133.7463321036938
 20
58.9501939419989
 30
0.0
  0
VERTEX
  5
5D4
  8
0
  6
CONTINUOUS
 62
     4
 10
133.876648530247
 20
58.98197234765843
 30
0.0
  0
VERTEX
  5
5D5
  8
0
  6
CONTINUOUS
 62
     4
 10
134.0052030558866
 20
59.01813050678982
 30
0.0
  0
VERTEX
  5
5D6
  8
0
  6
CONTINUOUS
 62
     4
 10
134.1317701522912
 20
59.05860498569532
 30
0.0
  0
VERTEX
  5
5D7
  8
0
  6
CONTINUOUS
 62
     4
 10
134.2561277777662
 20
59.10332477838561
 30
0.0
  0
VERTEX
  5
5D8
  8
0
  6
CONTINUOUS
 62
     4
 10
134.3780577667793
 20
59.15221143114843
 30
0.0
  0
VERTEX
  5
5D9
  8
0
  6
CONTINUOUS
 62
     4
 10
134.4973462126978
 20
59.20517918018304
 30
0.0
  0
VERTEX
  5
5DA
  8
0
  6
CONTINUOUS
 62
     4
 10
134.6137838430531
 20
59.26213510205906
 30
0.0
  0
VERTEX
  5
5DB
  8
0
  6
CONTINUOUS
 62
     4
 10
134.7271663866757
 20
59.32297927673577
 30
0.0
  0
VERTEX
  5
5DC
  8
0
  6
CONTINUOUS
 62
     4
 10
134.8372949320564
 20
59.38760496285579
 30
0.0
  0
VERTEX
  5
5DD
  8
0
  6
CONTINUOUS
 62
     4
 10
134.9439762763048
 20
59.45589878500573
 30
0.0
  0
VERTEX
  5
5DE
  8
0
  6
CONTINUOUS
 62
     4
 10
135.0470232640924
 20
59.52774093261513
 30
0.0
  0
VERTEX
  5
5DF
  8
0
  6
CONTINUOUS
 62
     4
 10
135.1462551159871
 20
59.60300537014496
 30
0.0
  0
VERTEX
  5
5E0
  8
0
  6
CONTINUOUS
 62
     4
 10
135.2414977456014
 20
59.68156005819677
 30
0.0
  0
VERTEX
  5
5E1
  8
0
  6
CONTINUOUS
 62
     4
 10
135.3325840649994
 20
59.76326718515464
 30
0.0
  0
VERTEX
  5
5E2
  8
0
  6
CONTINUOUS
 62
     4
 10
135.4193542778255
 20
59.84798340895362
 30
0.0
  0
VERTEX
  5
5E3
  8
0
  6
CONTINUOUS
 62
     4
 10
135.5016561596416
 20
59.93556010855042
 30
0.0
  0
VERTEX
  5
5E4
  8
0
  6
CONTINUOUS
 62
     4
 10
135.5793453249807
 20
60.02584364465517
 30
0.0
  0
VERTEX
  5
5E5
  8
0
  6
CONTINUOUS
 62
     4
 10
135.6522854806478
 20
60.11867562926699
 30
0.0
  0
VERTEX
  5
5E6
  8
0
  6
CONTINUOUS
 62
     4
 10
135.7203486648247
 20
60.21389320354035
 30
0.0
  0
VERTEX
  5
5E7
  8
0
  6
CONTINUOUS
 62
     4
 10
135.7834154715582
 20
60.31132932349482
 30
0.0
  0
VERTEX
  5
5E8
  8
0
  6
CONTINUOUS
 62
     4
 10
135.8413752602392
 20
60.41081305306701
 30
0.0
  0
VERTEX
  5
5E9
  8
0
  6
CONTINUOUS
 62
     4
 10
135.8941263497034
 20
60.51216986399042
 30
0.0
  0
VERTEX
  5
5EA
  8
0
  6
CONTINUOUS
 62
     4
 10
135.941576196615
 20
60.61522194197743
 30
0.0
  0
VERTEX
  5
5EB
  8
0
  6
CONTINUOUS
 62
     4
 10
135.9836415578188
 20
60.71978849866592
 30
0.0
  0
VERTEX
  5
5EC
  8
0
  6
CONTINUOUS
 62
     4
 10
136.0202486363775
 20
60.82568608878351
 30
0.0
  0
VERTEX
  5
5ED
  8
0
  6
CONTINUOUS
 62
     4
 10
136.0513332110361
 20
60.93272893197287
 30
0.0
  0
VERTEX
  5
5EE
  8
0
  6
CONTINUOUS
 62
     4
 10
136.076840748888
 20
61.04072923871366
 30
0.0
  0
VERTEX
  5
5EF
  8
0
  6
CONTINUOUS
 62
     4
 10
136.0967265010443
 20
61.14949753976909
 30
0.0
  0
VERTEX
  5
5F0
  8
0
  6
CONTINUOUS
 62
     4
 10
136.1109555811385
 20
61.25884301857942
 30
0.0
  0
VERTEX
  5
5F1
  8
0
  6
CONTINUOUS
 62
     4
 10
136.1195030265291
 20
61.36857384601895
 30
0.0
  0
SEQEND
  5
55B
  8
0
  6
CONTINUOUS
 62
     4
  0
POLYLINE
  5
3A9
  8
0
  6
CONTINUOUS
 62
     4
 66
     1
 10
0.0
 20
0.0
 30
0.0
 70
     1
  0
VERTEX
  5
5F2
  8
0
  6
CONTINUOUS
 62
     4
 10
1.0
 20
0.0
 30
0.0
  0
VERTEX
  5
5F3
  8
0
  6
CONTINUOUS
 62
     4
 10
0.9807852804032304
 20
0.1950903220161283
 30
0.0
  0
VERTEX
  5
5F4
  8
0
  6
CONTINUOUS
 62
     4
 10
0.9238795325112867
 20
0.3826834323650898
 30
0.0
  0
VERTEX
  5
5F5
  8
0
  6
CONTINUOUS
 62
     4
 10
0.8314696123025452
 20
0.5555702330196022
 30
0.0
  0
VERTEX
  5
5F6
  8
0
  6
CONTINUOUS
 62
     4
 10
0.7071067811865476
 20
0.7071067811865475
 30
0.0
  0
VERTEX
  5
5F7
  8
0
  6
CONTINUOUS
 62
     4
 10
0.5555702330196023
 20
0.8314696123025452
 30
0.0
  0
VERTEX
  5
5F8
  8
0
  6
CONTINUOUS
 62
     4
 10
0.3826834323650898
 20
0.9238795325112867
 30
0.0
  0
VERTEX
  5
5F9
  8
0
  6
CONTINUOUS
 62
     4
 10
0.1950903220161283
 20
0.9807852804032304
 30
0.0
  0
VERTEX
  5
5FA
  8
0
  6
CONTINUOUS
 62
     4
 10
0.0000000000000001
 20
1.0
 30
0.0
  0
VERTEX
  5
5FB
  8
0
  6
CONTINUOUS
 62
     4
 10
-0.1950903220161282
 20
0.9807852804032304
 30
0.0
  0
VERTEX
  5
5FC
  8
0
  6
CONTINUOUS
 62
     4
 10
-0.3826834323650897
 20
0.9238795325112867
 30
0.0
  0
VERTEX
  5
5FD
  8
0
  6
CONTINUOUS
 62
     4
 10
-0.555570233019602
 20
0.8314696123025455
 30
0.0
  0
VERTEX
  5
5FE
  8
0
  6
CONTINUOUS
 62
     4
 10
-0.7071067811865475
 20
0.7071067811865476
 30
0.0
  0
VERTEX
  5
5FF
  8
0
  6
CONTINUOUS
 62
     4
 10
-0.8314696123025454
 20
0.5555702330196022
 30
0.0
  0
VERTEX
  5
600
  8
0
  6
CONTINUOUS
 62
     4
 10
-0.9238795325112869
 20
0.3826834323650895
 30
0.0
  0
VERTEX
  5
601
  8
0
  6
CONTINUOUS
 62
     4
 10
-0.9807852804032305
 20
0.1950903220161277
 30
0.0
  0
VERTEX
  5
602
  8
0
  6
CONTINUOUS
 62
     4
 10
-1.0
 20
-0.0000000000000008
 30
0.0
  0
VERTEX
  5
603
  8
0
  6
CONTINUOUS
 62
     4
 10
-0.9807852804032302
 20
-0.1950903220161292
 30
0.0
  0
VERTEX
  5
604
  8
0
  6
CONTINUOUS
 62
     4
 10
-0.9238795325112863
 20
-0.3826834323650909
 30
0.0
  0
VERTEX
  5
605
  8
0
  6
CONTINUOUS
 62
     4
 10
-0.8314696123025445
 20
-0.5555702330196034
 30
0.0
  0
VERTEX
  5
606
  8
0
  6
CONTINUOUS
 62
     4
 10
-0.7071067811865464
 20
-0.7071067811865487
 30
0.0
  0
VERTEX
  5
607
  8
0
  6
CONTINUOUS
 62
     4
 10
-0.5555702330196007
 20
-0.8314696123025462
 30
0.0
  0
VERTEX
  5
608
  8
0
  6
CONTINUOUS
 62
     4
 10
-0.3826834323650879
 20
-0.9238795325112875
 30
0.0
  0
VERTEX
  5
609
  8
0
  6
CONTINUOUS
 62
     4
 10
-0.1950903220161261
 20
-0.9807852804032309
 30
0.0
  0
VERTEX
  5
60A
  8
0
  6
CONTINUOUS
 62
     4
 10
0.0000000000000025
 20
-1.0
 30
0.0
  0
VERTEX
  5
60B
  8
0
  6
CONTINUOUS
 62
     4
 10
0.1950903220161309
 20
-0.9807852804032299
 30
0.0
  0
VERTEX
  5
60C
  8
0
  6
CONTINUOUS
 62
     4
 10
0.3826834323650925
 20
-0.9238795325112856
 30
0.0
  0
VERTEX
  5
60D
  8
0
  6
CONTINUOUS
 62
     4
 10
0.5555702330196048
 20
-0.8314696123025435
 30
0.0
  0
VERTEX
  5
60E
  8
0
  6
CONTINUOUS
 62
     4
 10
0.7071067811865499
 20
-0.7071067811865451
 30
0.0
  0
VERTEX
  5
60F
  8
0
  6
CONTINUOUS
 62
     4
 10
0.8314696123025472
 20
-0.5555702330195993
 30
0.0
  0
VERTEX
  5
610
  8
0
  6
CONTINUOUS
 62
     4
 10
0.9238795325112882
 20
-0.3826834323650863
 30
0.0
  0
VERTEX
  5
611
  8
0
  6
CONTINUOUS
 62
     4
 10
0.9807852804032312
 20
-0.1950903220161244
 30
0.0
  0
SEQEND
  5
612
  8
0
  6
CONTINUOUS
 62
     4
  0
POLYLINE
  5
3AA
  8
0
  6
CONTINUOUS
 62
     4
 66
     1
 10
0.0
 20
0.0
 30
0.0
 70
     1
  0
VERTEX
  5
614
  8
0
  6
CONTINUOUS
 62
     4
 10
200.1223843596705
 20
64.90349293929283
 30
0.0
  0
VERTEX
  5
615
  8
0
  6
CONTINUOUS
 62
     4
 10
200.1195335240304
 20
65.0102758243537
 30
0.0
  0
VERTEX
  5
616
  8
0
  6
CONTINUOUS
 62
     4
 10
200.1109860184446
 20
65.1168713759491
 30
0.0
  0
VERTEX
  5
617
  8
0
  6
CONTINUOUS
 62
     4
 10
200.0967568381423
 20
65.22309258926013
 30
0.0
  0
VERTEX
  5
618
  8
0
  6
CONTINUOUS
 62
     4
 10
200.0768709459408
 20
65.32875311618443
 30
0.0
  0
VERTEX
  5
619
  8
0
  6
CONTINUOUS
 62
     4
 10
200.0513632284525
 20
65.43366759225408
 30
0.0
  0
VERTEX
  5
61A
  8
0
  6
CONTINUOUS
 62
     4
 10
200.0202784348813
 20
65.53765196182789
 30
0.0
  0
VERTEX
  5
61B
  8
0
  6
CONTINUOUS
 62
     4
 10
199.9836710985178
 20
65.64052380098747
 30
0.0
  0
VERTEX
  5
61C
  8
0
  6
CONTINUOUS
 62
     4
 10
199.9416054410692
 20
65.74210263757088
 30
0.0
  0
VERTEX
  5
61D
  8
0
  6
CONTINUOUS
 62
     4
 10
199.8941552599928
 20
65.84221026778202
 30
0.0
  0
VERTEX
  5
61E
  8
0
  6
CONTINUOUS
 62
     4
 10
199.8414037990299
 20
65.94067106882069
 30
0.0
  0
VERTEX
  5
61F
  8
0
  6
CONTINUOUS
 62
     4
 10
199.783443602168
 20
66.03731230698467
 30
0.0
  0
VERTEX
  5
620
  8
0
  6
CONTINUOUS
 62
     4
 10
199.7203763512873
 20
66.13196444070331
 30
0.0
  0
VERTEX
  5
621
  8
0
  6
CONTINUOUS
 62
     4
 10
199.6523126877765
 20
66.22446141797107
 30
0.0
  0
VERTEX
  5
622
  8
0
  6
CONTINUOUS
 62
     4
 10
199.5793720184294
 20
66.31464096765912
 30
0.0
  0
VERTEX
  5
623
  8
0
  6
CONTINUOUS
 62
     4
 10
199.5016823059656
 20
66.40234488419408
 30
0.0
  0
VERTEX
  5
624
  8
0
  6
CONTINUOUS
 62
     4
 10
199.4193798445397
 20
66.48741930510438
 30
0.0
  0
VERTEX
  5
625
  8
0
  6
CONTINUOUS
 62
     4
 10
199.3326090206357
 20
66.56971498094724
 30
0.0
  0
VERTEX
  5
626
  8
0
  6
CONTINUOUS
 62
     4
 10
199.2415220597637
 20
66.64908753714299
 30
0.0
  0
VERTEX
  5
627
  8
0
  6
CONTINUOUS
 62
     4
 10
199.1462787594046
 20
66.72539772725709
 30
0.0
  0
VERTEX
  5
628
  8
0
  6
CONTINUOUS
 62
     4
 10
199.0470462086711
 20
66.79851167728567
 30
0.0
  0
VERTEX
  5
629
  8
0
  6
CONTINUOUS
 62
     4
 10
198.9439984951766
 20
66.86830112051614
 30
0.0
  0
VERTEX
  5
62A
  8
0
  6
CONTINUOUS
 62
     4
 10
198.8373163996265
 20
66.93464362255043
 30
0.0
  0
VERTEX
  5
62B
  8
0
  6
CONTINUOUS
 62
     4
 10
198.7271870786671
 20
66.99742279609664
 30
0.0
  0
VERTEX
  5
62C
  8
0
  6
CONTINUOUS
 62
     4
 10
198.6138037365497
 20
67.05652850515189
 30
0.0
  0
VERTEX
  5
62D
  8
0
  6
CONTINUOUS
 62
     4
 10
198.4973652861842
 20
67.11185705821821
 30
0.0
  0
VERTEX
  5
62E
  8
0
  6
CONTINUOUS
 62
     4
 10
198.3780760001786
 20
67.16331139021276
 30
0.0
  0
VERTEX
  5
62F
  8
0
  6
CONTINUOUS
 62
     4
 10
198.2561451524753
 20
67.21080123275293
 30
0.0
  0
VERTEX
  5
630
  8
0
  6
CONTINUOUS
 62
     4
 10
198.1317866512136
 20
67.25424327251774
 30
0.0
  0
VERTEX
  5
631
  8
0
  6
CONTINUOUS
 62
     4
 10
198.0052186634621
 20
67.29356129740775
 30
0.0
  0
VERTEX
  5
632
  8
0
  6
CONTINUOUS
 62
     4
 10
197.8766632324793
 20
67.32868633024694
 30
0.0
  0
VERTEX
  5
633
  8
0
  6
CONTINUOUS
 62
     4
 10
197.7463458881745
 20
67.35955674979213
 30
0.0
  0
VERTEX
  5
634
  8
0
  6
CONTINUOUS
 62
     4
 10
197.6144952514519
 20
67.38611839883764
 30
0.0
  0
VERTEX
  5
635
  8
0
  6
CONTINUOUS
 62
     4
 10
197.4813426331313
 20
67.40832467922529
 30
0.0
  0
VERTEX
  5
636
  8
0
  6
CONTINUOUS
 62
     4
 10
197.347121628151
 20
67.42613663359356
 30
0.0
  0
VERTEX
  5
637
  8
0
  6
CONTINUOUS
 62
     4
 10
197.2120677057621
 20
67.43952301372194
 30
0.0
  0
VERTEX
  5
638
  8
0
  6
CONTINUOUS
 62
     4
 10
197.0764177964364
 20
67.44846033535096
 30
0.0
  0
VERTEX
  5
639
  8
0
  6
CONTINUOUS
 62
     4
 10
196.9404098762087
 20
67.45293291938157
 30
0.0
  0
VERTEX
  5
63A
  8
0
  6
CONTINUOUS
 62
     4
 10
196.804282549187
 20
67.45293291938157
 30
0.0
  0
VERTEX
  5
63B
  8
0
  6
CONTINUOUS
 62
     4
 10
196.6682746289593
 20
67.44846033535096
 30
0.0
  0
VERTEX
  5
63C
  8
0
  6
CONTINUOUS
 62
     4
 10
196.5326247196335
 20
67.43952301372194
 30
0.0
  0
VERTEX
  5
63D
  8
0
  6
CONTINUOUS
 62
     4
 10
196.3975707972447
 20
67.42613663359356
 30
0.0
  0
VERTEX
  5
63E
  8
0
  6
CONTINUOUS
 62
     4
 10
196.2633497922643
 20
67.40832467922529
 30
0.0
  0
VERTEX
  5
63F
  8
0
  6
CONTINUOUS
 62
     4
 10
196.1301971739438
 20
67.38611839883764
 30
0.0
  0
VERTEX
  5
640
  8
0
  6
CONTINUOUS
 62
     4
 10
195.9983465372212
 20
67.35955674979213
 30
0.0
  0
VERTEX
  5
641
  8
0
  6
CONTINUOUS
 62
     4
 10
195.8680291929164
 20
67.32868633024694
 30
0.0
  0
VERTEX
  5
642
  8
0
  6
CONTINUOUS
 62
     4
 10
195.7394737619336
 20
67.29356129740775
 30
0.0
  0
VERTEX
  5
643
  8
0
  6
CONTINUOUS
 62
     4
 10
195.612905774182
 20
67.25424327251774
 30
0.0
  0
VERTEX
  5
644
  8
0
  6
CONTINUOUS
 62
     4
 10
195.4885472729204
 20
67.21080123275293
 30
0.0
  0
VERTEX
  5
645
  8
0
  6
CONTINUOUS
 62
     4
 10
195.3666164252171
 20
67.16331139021276
 30
0.0
  0
VERTEX
  5
646
  8
0
  6
CONTINUOUS
 62
     4
 10
195.2473271392115
 20
67.11185705821821
 30
0.0
  0
VERTEX
  5
647
  8
0
  6
CONTINUOUS
 62
     4
 10
195.130888688846
 20
67.05652850515189
 30
0.0
  0
VERTEX
  5
648
  8
0
  6
CONTINUOUS
 62
     4
 10
195.0175053467286
 20
66.99742279609664
 30
0.0
  0
VERTEX
  5
649
  8
0
  6
CONTINUOUS
 62
     4
 10
194.9073760257692
 20
66.93464362255043
 30
0.0
  0
VERTEX
  5
64A
  8
0
  6
CONTINUOUS
 62
     4
 10
194.8006939302191
 20
66.86830112051614
 30
0.0
  0
VERTEX
  5
64B
  8
0
  6
CONTINUOUS
 62
     4
 10
194.6976462167246
 20
66.79851167728567
 30
0.0
  0
VERTEX
  5
64C
  8
0
  6
CONTINUOUS
 62
     4
 10
194.5984136659911
 20
66.72539772725709
 30
0.0
  0
VERTEX
  5
64D
  8
0
  6
CONTINUOUS
 62
     4
 10
194.503170365632
 20
66.64908753714299
 30
0.0
  0
VERTEX
  5
64E
  8
0
  6
CONTINUOUS
 62
     4
 10
194.4120834047599
 20
66.56971498094724
 30
0.0
  0
VERTEX
  5
64F
  8
0
  6
CONTINUOUS
 62
     4
 10
194.325312580856
 20
66.48741930510437
 30
0.0
  0
VERTEX
  5
650
  8
0
  6
CONTINUOUS
 62
     4
 10
194.2430101194301
 20
66.40234488419408
 30
0.0
  0
VERTEX
  5
651
  8
0
  6
CONTINUOUS
 62
     4
 10
194.1653204069662
 20
66.31464096765912
 30
0.0
  0
VERTEX
  5
652
  8
0
  6
CONTINUOUS
 62
     4
 10
194.0923797376192
 20
66.22446141797107
 30
0.0
  0
VERTEX
  5
653
  8
0
  6
CONTINUOUS
 62
     4
 10
194.0243160741083
 20
66.13196444070331
 30
0.0
  0
VERTEX
  5
654
  8
0
  6
CONTINUOUS
 62
     4
 10
193.9612488232277
 20
66.03731230698467
 30
0.0
  0
VERTEX
  5
655
  8
0
  6
CONTINUOUS
 62
     4
 10
193.9032886263658
 20
65.94067106882069
 30
0.0
  0
VERTEX
  5
656
  8
0
  6
CONTINUOUS
 62
     4
 10
193.8505371654028
 20
65.84221026778201
 30
0.0
  0
VERTEX
  5
657
  8
0
  6
CONTINUOUS
 62
     4
 10
193.8030869843265
 20
65.74210263757088
 30
0.0
  0
VERTEX
  5
658
  8
0
  6
CONTINUOUS
 62
     4
 10
193.7610213268779
 20
65.64052380098747
 30
0.0
  0
VERTEX
  5
659
  8
0
  6
CONTINUOUS
 62
     4
 10
193.7244139905144
 20
65.53765196182788
 30
0.0
  0
VERTEX
  5
65A
  8
0
  6
CONTINUOUS
 62
     4
 10
193.6933291969432
 20
65.43366759225408
 30
0.0
  0
VERTEX
  5
65B
  8
0
  6
CONTINUOUS
 62
     4
 10
193.6678214794548
 20
65.32875311618443
 30
0.0
  0
VERTEX
  5
65C
  8
0
  6
CONTINUOUS
 62
     4
 10
193.6479355872534
 20
65.22309258926013
 30
0.0
  0
VERTEX
  5
65D
  8
0
  6
CONTINUOUS
 62
     4
 10
193.6337064069511
 20
65.1168713759491
 30
0.0
  0
VERTEX
  5
65E
  8
0
  6
CONTINUOUS
 62
     4
 10
193.6251589013653
 20
65.0102758243537
 30
0.0
  0
VERTEX
  5
65F
  8
0
  6
CONTINUOUS
 62
     4
 10
193.6223080657252
 20
64.90349293929283
 30
0.0
  0
VERTEX
  5
660
  8
0
  6
CONTINUOUS
 62
     4
 10
193.6251589013653
 20
64.79671005423195
 30
0.0
  0
VERTEX
  5
661
  8
0
  6
CONTINUOUS
 62
     4
 10
193.6337064069511
 20
64.69011450263655
 30
0.0
  0
VERTEX
  5
662
  8
0
  6
CONTINUOUS
 62
     4
 10
193.6479355872534
 20
64.58389328932552
 30
0.0
  0
VERTEX
  5
663
  8
0
  6
CONTINUOUS
 62
     4
 10
193.6678214794548
 20
64.47823276240122
 30
0.0
  0
VERTEX
  5
664
  8
0
  6
CONTINUOUS
 62
     4
 10
193.6933291969432
 20
64.37331828633157
 30
0.0
  0
VERTEX
  5
665
  8
0
  6
CONTINUOUS
 62
     4
 10
193.7244139905144
 20
64.26933391675777
 30
0.0
  0
VERTEX
  5
666
  8
0
  6
CONTINUOUS
 62
     4
 10
193.7610213268779
 20
64.16646207759818
 30
0.0
  0
VERTEX
  5
667
  8
0
  6
CONTINUOUS
 62
     4
 10
193.8030869843265
 20
64.06488324101478
 30
0.0
  0
VERTEX
  5
668
  8
0
  6
CONTINUOUS
 62
     4
 10
193.8505371654028
 20
63.96477561080364
 30
0.0
  0
VERTEX
  5
669
  8
0
  6
CONTINUOUS
 62
     4
 10
193.9032886263658
 20
63.86631480976497
 30
0.0
  0
VERTEX
  5
66A
  8
0
  6
CONTINUOUS
 62
     4
 10
193.9612488232277
 20
63.76967357160098
 30
0.0
  0
VERTEX
  5
66B
  8
0
  6
CONTINUOUS
 62
     4
 10
194.0243160741083
 20
63.67502143788234
 30
0.0
  0
VERTEX
  5
66C
  8
0
  6
CONTINUOUS
 62
     4
 10
194.0923797376192
 20
63.58252446061459
 30
0.0
  0
VERTEX
  5
66D
  8
0
  6
CONTINUOUS
 62
     4
 10
194.1653204069662
 20
63.49234491092655
 30
0.0
  0
VERTEX
  5
66E
  8
0
  6
CONTINUOUS
 62
     4
 10
194.2430101194301
 20
63.40464099439158
 30
0.0
  0
VERTEX
  5
66F
  8
0
  6
CONTINUOUS
 62
     4
 10
194.325312580856
 20
63.31956657348128
 30
0.0
  0
VERTEX
  5
670
  8
0
  6
CONTINUOUS
 62
     4
 10
194.41208340476
 20
63.23727089763842
 30
0.0
  0
VERTEX
  5
671
  8
0
  6
CONTINUOUS
 62
     4
 10
194.503170365632
 20
63.15789834144267
 30
0.0
  0
VERTEX
  5
672
  8
0
  6
CONTINUOUS
 62
     4
 10
194.5984136659911
 20
63.08158815132858
 30
0.0
  0
VERTEX
  5
673
  8
0
  6
CONTINUOUS
 62
     4
 10
194.6976462167246
 20
63.00847420129998
 30
0.0
  0
VERTEX
  5
674
  8
0
  6
CONTINUOUS
 62
     4
 10
194.8006939302191
 20
62.93868475806951
 30
0.0
  0
VERTEX
  5
675
  8
0
  6
CONTINUOUS
 62
     4
 10
194.9073760257692
 20
62.87234225603523
 30
0.0
  0
VERTEX
  5
676
  8
0
  6
CONTINUOUS
 62
     4
 10
195.0175053467286
 20
62.80956308248901
 30
0.0
  0
VERTEX
  5
677
  8
0
  6
CONTINUOUS
 62
     4
 10
195.130888688846
 20
62.75045737343378
 30
0.0
  0
VERTEX
  5
678
  8
0
  6
CONTINUOUS
 62
     4
 10
195.2473271392115
 20
62.69512882036746
 30
0.0
  0
VERTEX
  5
679
  8
0
  6
CONTINUOUS
 62
     4
 10
195.3666164252171
 20
62.6436744883729
 30
0.0
  0
VERTEX
  5
67A
  8
0
  6
CONTINUOUS
 62
     4
 10
195.4885472729204
 20
62.59618464583274
 30
0.0
  0
VERTEX
  5
67B
  8
0
  6
CONTINUOUS
 62
     4
 10
195.612905774182
 20
62.55274260606792
 30
0.0
  0
VERTEX
  5
67C
  8
0
  6
CONTINUOUS
 62
     4
 10
195.7394737619336
 20
62.51342458117792
 30
0.0
  0
VERTEX
  5
67D
  8
0
  6
CONTINUOUS
 62
     4
 10
195.8680291929164
 20
62.47829954833873
 30
0.0
  0
VERTEX
  5
67E
  8
0
  6
CONTINUOUS
 62
     4
 10
195.9983465372212
 20
62.44742912879352
 30
0.0
  0
VERTEX
  5
67F
  8
0
  6
CONTINUOUS
 62
     4
 10
196.1301971739438
 20
62.42086747974803
 30
0.0
  0
VERTEX
  5
680
  8
0
  6
CONTINUOUS
 62
     4
 10
196.2633497922644
 20
62.39866119936037
 30
0.0
  0
VERTEX
  5
681
  8
0
  6
CONTINUOUS
 62
     4
 10
196.3975707972447
 20
62.38084924499211
 30
0.0
  0
VERTEX
  5
682
  8
0
  6
CONTINUOUS
 62
     4
 10
196.5326247196335
 20
62.36746286486373
 30
0.0
  0
VERTEX
  5
683
  8
0
  6
CONTINUOUS
 62
     4
 10
196.6682746289594
 20
62.35852554323471
 30
0.0
  0
VERTEX
  5
684
  8
0
  6
CONTINUOUS
 62
     4
 10
196.804282549187
 20
62.3540529592041
 30
0.0
  0
VERTEX
  5
685
  8
0
  6
CONTINUOUS
 62
     4
 10
196.9404098762087
 20
62.3540529592041
 30
0.0
  0
VERTEX
  5
686
  8
0
  6
CONTINUOUS
 62
     4
 10
197.0764177964364
 20
62.35852554323471
 30
0.0
  0
VERTEX
  5
687
  8
0
  6
CONTINUOUS
 62
     4
 10
197.2120677057621
 20
62.36746286486373
 30
0.0
  0
VERTEX
  5
688
  8
0
  6
CONTINUOUS
 62
     4
 10
197.347121628151
 20
62.38084924499211
 30
0.0
  0
VERTEX
  5
689
  8
0
  6
CONTINUOUS
 62
     4
 10
197.4813426331313
 20
62.39866119936038
 30
0.0
  0
VERTEX
  5
68A
  8
0
  6
CONTINUOUS
 62
     4
 10
197.6144952514519
 20
62.42086747974803
 30
0.0
  0
VERTEX
  5
68B
  8
0
  6
CONTINUOUS
 62
     4
 10
197.7463458881745
 20
62.44742912879353
 30
0.0
  0
VERTEX
  5
68C
  8
0
  6
CONTINUOUS
 62
     4
 10
197.8766632324793
 20
62.47829954833873
 30
0.0
  0
VERTEX
  5
68D
  8
0
  6
CONTINUOUS
 62
     4
 10
198.0052186634621
 20
62.51342458117792
 30
0.0
  0
VERTEX
  5
68E
  8
0
  6
CONTINUOUS
 62
     4
 10
198.1317866512137
 20
62.55274260606793
 30
0.0
  0
VERTEX
  5
68F
  8
0
  6
CONTINUOUS
 62
     4
 10
198.2561451524753
 20
62.59618464583274
 30
0.0
  0
VERTEX
  5
690
  8
0
  6
CONTINUOUS
 62
     4
 10
198.3780760001786
 20
62.64367448837292
 30
0.0
  0
VERTEX
  5
691
  8
0
  6
CONTINUOUS
 62
     4
 10
198.4973652861842
 20
62.69512882036747
 30
0.0
  0
VERTEX
  5
692
  8
0
  6
CONTINUOUS
 62
     4
 10
198.6138037365497
 20
62.75045737343378
 30
0.0
  0
VERTEX
  5
693
  8
0
  6
CONTINUOUS
 62
     4
 10
198.7271870786671
 20
62.80956308248902
 30
0.0
  0
VERTEX
  5
694
  8
0
  6
CONTINUOUS
 62
     4
 10
198.8373163996265
 20
62.87234225603524
 30
0.0
  0
VERTEX
  5
695
  8
0
  6
CONTINUOUS
 62
     4
 10
198.9439984951766
 20
62.93868475806953
 30
0.0
  0
VERTEX
  5
696
  8
0
  6
CONTINUOUS
 62
     4
 10
199.0470462086711
 20
63.00847420129999
 30
0.0
  0
VERTEX
  5
697
  8
0
  6
CONTINUOUS
 62
     4
 10
199.1462787594046
 20
63.08158815132859
 30
0.0
  0
VERTEX
  5
698
  8
0
  6
CONTINUOUS
 62
     4
 10
199.2415220597637
 20
63.15789834144268
 30
0.0
  0
VERTEX
  5
699
  8
0
  6
CONTINUOUS
 62
     4
 10
199.3326090206357
 20
63.23727089763843
 30
0.0
  0
VERTEX
  5
69A
  8
0
  6
CONTINUOUS
 62
     4
 10
199.4193798445397
 20
63.3195665734813
 30
0.0
  0
VERTEX
  5
69B
  8
0
  6
CONTINUOUS
 62
     4
 10
199.5016823059656
 20
63.40464099439159
 30
0.0
  0
VERTEX
  5
69C
  8
0
  6
CONTINUOUS
 62
     4
 10
199.5793720184295
 20
63.49234491092656
 30
0.0
  0
VERTEX
  5
69D
  8
0
  6
CONTINUOUS
 62
     4
 10
199.6523126877765
 20
63.58252446061461
 30
0.0
  0
VERTEX
  5
69E
  8
0
  6
CONTINUOUS
 62
     4
 10
199.7203763512874
 20
63.67502143788236
 30
0.0
  0
VERTEX
  5
69F
  8
0
  6
CONTINUOUS
 62
     4
 10
199.783443602168
 20
63.769673571601
 30
0.0
  0
VERTEX
  5
6A0
  8
0
  6
CONTINUOUS
 62
     4
 10
199.8414037990299
 20
63.86631480976499
 30
0.0
  0
VERTEX
  5
6A1
  8
0
  6
CONTINUOUS
 62
     4
 10
199.8941552599928
 20
63.96477561080366
 30
0.0
  0
VERTEX
  5
6A2
  8
0
  6
CONTINUOUS
 62
     4
 10
199.9416054410692
 20
64.0648832410148
 30
0.0
  0
VERTEX
  5
6A3
  8
0
  6
CONTINUOUS
 62
     4
 10
199.9836710985178
 20
64.1664620775982
 30
0.0
  0
VERTEX
  5
6A4
  8
0
  6
CONTINUOUS
 62
     4
 10
200.0202784348813
 20
64.26933391675779
 30
0.0
  0
VERTEX
  5
6A5
  8
0
  6
CONTINUOUS
 62
     4
 10
200.0513632284525
 20
64.3733182863316
 30
0.0
  0
VERTEX
  5
6A6
  8
0
  6
CONTINUOUS
 62
     4
 10
200.0768709459408
 20
64.47823276240125
 30
0.0
  0
VERTEX
  5
6A7
  8
0
  6
CONTINUOUS
 62
     4
 10
200.0967568381423
 20
64.58389328932555
 30
0.0
  0
VERTEX
  5
6A8
  8
0
  6
CONTINUOUS
 62
     4
 10
200.1109860184446
 20
64.69011450263658
 30
0.0
  0
VERTEX
  5
6A9
  8
0
  6
CONTINUOUS
 62
     4
 10
200.1195335240304
 20
64.79671005423198
 30
0.0
  0
SEQEND
  5
613
  8
0
  6
CONTINUOUS
 62
     4
  0
POLYLINE
  5
3AB
  8
0
  6
CONTINUOUS
 62
     4
 66
     1
 10
0.0
 20
0.0
 30
0.0
 70
     1
  0
VERTEX
  5
6AA
  8
0
  6
CONTINUOUS
 62
     4
 10
1.0
 20
0.0
 30
0.0
  0
VERTEX
  5
6AB
  8
0
  6
CONTINUOUS
 62
     4
 10
0.9807852804032304
 20
0.1950903220161283
 30
0.0
  0
VERTEX
  5
6AC
  8
0
  6
CONTINUOUS
 62
     4
 10
0.9238795325112867
 20
0.3826834323650898
 30
0.0
  0
VERTEX
  5
6AD
  8
0
  6
CONTINUOUS
 62
     4
 10
0.8314696123025452
 20
0.5555702330196022
 30
0.0
  0
VERTEX
  5
6AE
  8
0
  6
CONTINUOUS
 62
     4
 10
0.7071067811865476
 20
0.7071067811865475
 30
0.0
  0
VERTEX
  5
6AF
  8
0
  6
CONTINUOUS
 62
     4
 10
0.5555702330196023
 20
0.8314696123025452
 30
0.0
  0
VERTEX
  5
6B0
  8
0
  6
CONTINUOUS
 62
     4
 10
0.3826834323650898
 20
0.9238795325112867
 30
0.0
  0
VERTEX
  5
6B1
  8
0
  6
CONTINUOUS
 62
     4
 10
0.1950903220161283
 20
0.9807852804032304
 30
0.0
  0
VERTEX
  5
6B2
  8
0
  6
CONTINUOUS
 62
     4
 10
0.0000000000000001
 20
1.0
 30
0.0
  0
VERTEX
  5
6B3
  8
0
  6
CONTINUOUS
 62
     4
 10
-0.1950903220161282
 20
0.9807852804032304
 30
0.0
  0
VERTEX
  5
6B4
  8
0
  6
CONTINUOUS
 62
     4
 10
-0.3826834323650897
 20
0.9238795325112867
 30
0.0
  0
VERTEX
  5
6B5
  8
0
  6
CONTINUOUS
 62
     4
 10
-0.555570233019602
 20
0.8314696123025455
 30
0.0
  0
VERTEX
  5
6B6
  8
0
  6
CONTINUOUS
 62
     4
 10
-0.7071067811865475
 20
0.7071067811865476
 30
0.0
  0
VERTEX
  5
6B7
  8
0
  6
CONTINUOUS
 62
     4
 10
-0.8314696123025454
 20
0.5555702330196022
 30
0.0
  0
VERTEX
  5
6B8
  8
0
  6
CONTINUOUS
 62
     4
 10
-0.9238795325112869
 20
0.3826834323650895
 30
0.0
  0
VERTEX
  5
6B9
  8
0
  6
CONTINUOUS
 62
     4
 10
-0.9807852804032305
 20
0.1950903220161277
 30
0.0
  0
VERTEX
  5
6BA
  8
0
  6
CONTINUOUS
 62
     4
 10
-1.0
 20
-0.0000000000000008
 30
0.0
  0
VERTEX
  5
6BB
  8
0
  6
CONTINUOUS
 62
     4
 10
-0.9807852804032302
 20
-0.1950903220161292
 30
0.0
  0
VERTEX
  5
6BC
  8
0
  6
CONTINUOUS
 62
     4
 10
-0.9238795325112863
 20
-0.3826834323650909
 30
0.0
  0
VERTEX
  5
6BD
  8
0
  6
CONTINUOUS
 62
     4
 10
-0.8314696123025445
 20
-0.5555702330196034
 30
0.0
  0
VERTEX
  5
6BE
  8
0
  6
CONTINUOUS
 62
     4
 10
-0.7071067811865464
 20
-0.7071067811865487
 30
0.0
  0
VERTEX
  5
6BF
  8
0
  6
CONTINUOUS
 62
     4
 10
-0.5555702330196007
 20
-0.8314696123025462
 30
0.0
  0
VERTEX
  5
6C0
  8
0
  6
CONTINUOUS
 62
     4
 10
-0.3826834323650879
 20
-0.9238795325112875
 30
0.0
  0
VERTEX
  5
6C1
  8
0
  6
CONTINUOUS
 62
     4
 10
-0.1950903220161261
 20
-0.9807852804032309
 30
0.0
  0
VERTEX
  5
6C2
  8
0
  6
CONTINUOUS
 62
     4
 10
0.0000000000000025
 20
-1.0
 30
0.0
  0
VERTEX
  5
6C3
  8
0
  6
CONTINUOUS
 62
     4
 10
0.1950903220161309
 20
-0.9807852804032299
 30
0.0
  0
VERTEX
  5
6C4
  8
0
  6
CONTINUOUS
 62
     4
 10
0.3826834323650925
 20
-0.9238795325112856
 30
0.0
  0
VERTEX
  5
6C5
  8
0
  6
CONTINUOUS
 62
     4
 10
0.5555702330196048
 20
-0.8314696123025435
 30
0.0
  0
VERTEX
  5
6C6
  8
0
  6
CONTINUOUS
 62
     4
 10
0.7071067811865499
 20
-0.7071067811865451
 30
0.0
  0
VERTEX
  5
6C7
  8
0
  6
CONTINUOUS
 62
     4
 10
0.8314696123025472
 20
-0.5555702330195993
 30
0.0
  0
VERTEX
  5
6C8
  8
0
  6
CONTINUOUS
 62
     4
 10
0.9238795325112882
 20
-0.3826834323650863
 30
0.0
  0
VERTEX
  5
6C9
  8
0
  6
CONTINUOUS
 62
     4
 10
0.9807852804032312
 20
-0.1950903220161244
 30
0.0
  0
SEQEND
  5
6CA
  8
0
  6
CONTINUOUS
 62
     4
  0
POLYLINE
  5
3AC
  8
0
  6
CONTINUOUS
 62
     4
 66
     1
 10
0.0
 20
0.0
 30
0.0
 70
     1
  0
VERTEX
  5
6CC
  8
0
  6
CONTINUOUS
 62
     4
 10
200.1223843596705
 20
-2.196501243293838
 30
0.0
  0
VERTEX
  5
6CD
  8
0
  6
CONTINUOUS
 62
     4
 10
200.1195335240304
 20
-2.089718334521125
 30
0.0
  0
VERTEX
  5
6CE
  8
0
  6
CONTINUOUS
 62
     4
 10
200.1109860184446
 20
-1.983122759255474
 30
0.0
  0
VERTEX
  5
6CF
  8
0
  6
CONTINUOUS
 62
     4
 10
200.0967568381423
 20
-1.876901522357324
 30
0.0
  0
VERTEX
  5
6D0
  8
0
  6
CONTINUOUS
 62
     4
 10
200.0768709459408
 20
-1.771240971970411
 30
0.0
  0
VERTEX
  5
6D1
  8
0
  6
CONTINUOUS
 62
     4
 10
200.0513632284525
 20
-1.66632647260381
 30
0.0
  0
VERTEX
  5
6D2
  8
0
  6
CONTINUOUS
 62
     4
 10
200.0202784348813
 20
-1.562342079939597
 30
0.0
  0
VERTEX
  5
6D3
  8
0
  6
CONTINUOUS
 62
     4
 10
199.9836710985178
 20
-1.459470217936639
 30
0.0
  0
VERTEX
  5
6D4
  8
0
  6
CONTINUOUS
 62
     4
 10
199.9416054410692
 20
-1.357891358796984
 30
0.0
  0
VERTEX
  5
6D5
  8
0
  6
CONTINUOUS
 62
     4
 10
199.8941552599928
 20
-1.257783706356289
 30
0.0
  0
VERTEX
  5
6D6
  8
0
  6
CONTINUOUS
 62
     4
 10
199.8414037990299
 20
-1.159322883453745
 30
0.0
  0
VERTEX
  5
6D7
  8
0
  6
CONTINUOUS
 62
     4
 10
199.783443602168
 20
-1.062681623829935
 30
0.0
  0
VERTEX
  5
6D8
  8
0
  6
CONTINUOUS
 62
     4
 10
199.7203763512873
 20
-0.968029469093161
 30
0.0
  0
VERTEX
  5
6D9
  8
0
  6
CONTINUOUS
 62
     4
 10
199.6523126877765
 20
-0.8755324712858488
 30
0.0
  0
VERTEX
  5
6DA
  8
0
  6
CONTINUOUS
 62
     4
 10
199.5793720184294
 20
-0.7853529015728431
 30
0.0
  0
VERTEX
  5
6DB
  8
0
  6
CONTINUOUS
 62
     4
 10
199.5016823059656
 20
-0.6976489655626448
 30
0.0
  0
VERTEX
  5
6DC
  8
0
  6
CONTINUOUS
 62
     4
 10
199.4193798445397
 20
-0.6125745257610133
 30
0.0
  0
VERTEX
  5
6DD
  8
0
  6
CONTINUOUS
 62
     4
 10
199.3326090206357
 20
-0.5302788316438496
 30
0.0
  0
VERTEX
  5
6DE
  8
0
  6
CONTINUOUS
 62
     4
 10
199.2415220597637
 20
-0.4509062578229
 30
0.0
  0
VERTEX
  5
6DF
  8
0
  6
CONTINUOUS
 62
     4
 10
199.1462787594046
 20
-0.3745960507636281
 30
0.0
  0
VERTEX
  5
6E0
  8
0
  6
CONTINUOUS
 62
     4
 10
199.0470462086711
 20
-0.3014820844995987
 30
0.0
  0
VERTEX
  5
6E1
  8
0
  6
CONTINUOUS
 62
     4
 10
198.9439984951766
 20
-0.2316926257719312
 30
0.0
  0
VERTEX
  5
6E2
  8
0
  6
CONTINUOUS
 62
     4
 10
198.8373163996265
 20
-0.1653501090058516
 30
0.0
  0
VERTEX
  5
6E3
  8
0
  6
CONTINUOUS
 62
     4
 10
198.7271870786671
 20
-0.1025709215191064
 30
0.0
  0
VERTEX
  5
6E4
  8
0
  6
CONTINUOUS
 62
     4
 10
198.6138037365497
 20
-0.0434651993390585
 30
0.0
  0
VERTEX
  5
6E5
  8
0
  6
CONTINUOUS
 62
     4
 10
198.4973652861842
 20
0.0118633660133294
 30
0.0
  0
VERTEX
  5
6E6
  8
0
  6
CONTINUOUS
 62
     4
 10
198.3780760001786
 20
0.0633177094336554
 30
0.0
  0
VERTEX
  5
6E7
  8
0
  6
CONTINUOUS
 62
     4
 10
198.2561451524753
 20
0.1108075625192577
 30
0.0
  0
VERTEX
  5
6E8
  8
0
  6
CONTINUOUS
 62
     4
 10
198.1317866512136
 20
0.1542496119306631
 30
0.0
  0
VERTEX
  5
6E9
  8
0
  6
CONTINUOUS
 62
     4
 10
198.0052186634621
 20
0.193567645551497
 30
0.0
  0
VERTEX
  5
6EA
  8
0
  6
CONTINUOUS
 62
     4
 10
197.8766632324793
 20
0.2286926861904304
 30
0.0
  0
VERTEX
  5
6EB
  8
0
  6
CONTINUOUS
 62
     4
 10
197.7463458881745
 20
0.2595631125906133
 30
0.0
  0
VERTEX
  5
6EC
  8
0
  6
CONTINUOUS
 62
     4
 10
197.6144952514519
 20
0.2861247675342993
 30
0.0
  0
VERTEX
  5
6ED
  8
0
  6
CONTINUOUS
 62
     4
 10
197.4813426331313
 20
0.3083310528530054
 30
0.0
  0
VERTEX
  5
6EE
  8
0
  6
CONTINUOUS
 62
     4
 10
197.347121628151
 20
0.3261430111765362
 30
0.0
  0
VERTEX
  5
6EF
  8
0
  6
CONTINUOUS
 62
     4
 10
197.2120677057621
 20
0.3395293942774487
 30
0.0
  0
VERTEX
  5
6F0
  8
0
  6
CONTINUOUS
 62
     4
 10
197.0764177964364
 20
0.3484667178910601
 30
0.0
  0
VERTEX
  5
6F1
  8
0
  6
CONTINUOUS
 62
     4
 10
196.9404098762087
 20
0.3529393029148289
 30
0.0
  0
VERTEX
  5
6F2
  8
0
  6
CONTINUOUS
 62
     4
 10
196.804282549187
 20
0.3529393029148289
 30
0.0
  0
VERTEX
  5
6F3
  8
0
  6
CONTINUOUS
 62
     4
 10
196.6682746289593
 20
0.3484667178910601
 30
0.0
  0
VERTEX
  5
6F4
  8
0
  6
CONTINUOUS
 62
     4
 10
196.5326247196335
 20
0.3395293942774487
 30
0.0
  0
VERTEX
  5
6F5
  8
0
  6
CONTINUOUS
 62
     4
 10
196.3975707972447
 20
0.3261430111765362
 30
0.0
  0
VERTEX
  5
6F6
  8
0
  6
CONTINUOUS
 62
     4
 10
196.2633497922643
 20
0.308331052853005
 30
0.0
  0
VERTEX
  5
6F7
  8
0
  6
CONTINUOUS
 62
     4
 10
196.1301971739438
 20
0.2861247675342988
 30
0.0
  0
VERTEX
  5
6F8
  8
0
  6
CONTINUOUS
 62
     4
 10
195.9983465372212
 20
0.2595631125906133
 30
0.0
  0
VERTEX
  5
6F9
  8
0
  6
CONTINUOUS
 62
     4
 10
195.8680291929164
 20
0.2286926861904299
 30
0.0
  0
VERTEX
  5
6FA
  8
0
  6
CONTINUOUS
 62
     4
 10
195.7394737619336
 20
0.1935676455514965
 30
0.0
  0
VERTEX
  5
6FB
  8
0
  6
CONTINUOUS
 62
     4
 10
195.612905774182
 20
0.1542496119306631
 30
0.0
  0
VERTEX
  5
6FC
  8
0
  6
CONTINUOUS
 62
     4
 10
195.4885472729204
 20
0.1108075625192577
 30
0.0
  0
VERTEX
  5
6FD
  8
0
  6
CONTINUOUS
 62
     4
 10
195.3666164252171
 20
0.0633177094336554
 30
0.0
  0
VERTEX
  5
6FE
  8
0
  6
CONTINUOUS
 62
     4
 10
195.2473271392115
 20
0.0118633660133289
 30
0.0
  0
VERTEX
  5
6FF
  8
0
  6
CONTINUOUS
 62
     4
 10
195.130888688846
 20
-0.0434651993390585
 30
0.0
  0
VERTEX
  5
700
  8
0
  6
CONTINUOUS
 62
     4
 10
195.0175053467286
 20
-0.1025709215191069
 30
0.0
  0
VERTEX
  5
701
  8
0
  6
CONTINUOUS
 62
     4
 10
194.9073760257692
 20
-0.165350109005852
 30
0.0
  0
VERTEX
  5
702
  8
0
  6
CONTINUOUS
 62
     4
 10
194.8006939302191
 20
-0.2316926257719318
 30
0.0
  0
VERTEX
  5
703
  8
0
  6
CONTINUOUS
 62
     4
 10
194.6976462167246
 20
-0.3014820844995994
 30
0.0
  0
VERTEX
  5
704
  8
0
  6
CONTINUOUS
 62
     4
 10
194.5984136659911
 20
-0.374596050763629
 30
0.0
  0
VERTEX
  5
705
  8
0
  6
CONTINUOUS
 62
     4
 10
194.503170365632
 20
-0.4509062578229013
 30
0.0
  0
VERTEX
  5
706
  8
0
  6
CONTINUOUS
 62
     4
 10
194.4120834047599
 20
-0.5302788316438512
 30
0.0
  0
VERTEX
  5
707
  8
0
  6
CONTINUOUS
 62
     4
 10
194.325312580856
 20
-0.6125745257610151
 30
0.0
  0
VERTEX
  5
708
  8
0
  6
CONTINUOUS
 62
     4
 10
194.2430101194301
 20
-0.697648965562647
 30
0.0
  0
VERTEX
  5
709
  8
0
  6
CONTINUOUS
 62
     4
 10
194.1653204069662
 20
-0.7853529015728455
 30
0.0
  0
VERTEX
  5
70A
  8
0
  6
CONTINUOUS
 62
     4
 10
194.0923797376192
 20
-0.8755324712858512
 30
0.0
  0
VERTEX
  5
70B
  8
0
  6
CONTINUOUS
 62
     4
 10
194.0243160741083
 20
-0.9680294690931641
 30
0.0
  0
VERTEX
  5
70C
  8
0
  6
CONTINUOUS
 62
     4
 10
193.9612488232277
 20
-1.062681623829939
 30
0.0
  0
VERTEX
  5
70D
  8
0
  6
CONTINUOUS
 62
     4
 10
193.9032886263658
 20
-1.159322883453748
 30
0.0
  0
VERTEX
  5
70E
  8
0
  6
CONTINUOUS
 62
     4
 10
193.8505371654028
 20
-1.257783706356292
 30
0.0
  0
VERTEX
  5
70F
  8
0
  6
CONTINUOUS
 62
     4
 10
193.8030869843265
 20
-1.357891358796988
 30
0.0
  0
VERTEX
  5
710
  8
0
  6
CONTINUOUS
 62
     4
 10
193.7610213268779
 20
-1.459470217936644
 30
0.0
  0
VERTEX
  5
711
  8
0
  6
CONTINUOUS
 62
     4
 10
193.7244139905144
 20
-1.562342079939602
 30
0.0
  0
VERTEX
  5
712
  8
0
  6
CONTINUOUS
 62
     4
 10
193.6933291969432
 20
-1.666326472603815
 30
0.0
  0
VERTEX
  5
713
  8
0
  6
CONTINUOUS
 62
     4
 10
193.6678214794548
 20
-1.771240971970415
 30
0.0
  0
VERTEX
  5
714
  8
0
  6
CONTINUOUS
 62
     4
 10
193.6479355872534
 20
-1.876901522357328
 30
0.0
  0
VERTEX
  5
715
  8
0
  6
CONTINUOUS
 62
     4
 10
193.6337064069511
 20
-1.983122759255479
 30
0.0
  0
VERTEX
  5
716
  8
0
  6
CONTINUOUS
 62
     4
 10
193.6251589013653
 20
-2.089718334521129
 30
0.0
  0
VERTEX
  5
717
  8
0
  6
CONTINUOUS
 62
     4
 10
193.6223080657252
 20
-2.196501243293843
 30
0.0
  0
VERTEX
  5
718
  8
0
  6
CONTINUOUS
 62
     4
 10
193.6251589013653
 20
-2.303284152066557
 30
0.0
  0
VERTEX
  5
719
  8
0
  6
CONTINUOUS
 62
     4
 10
193.6337064069511
 20
-2.409879727332208
 30
0.0
  0
VERTEX
  5
71A
  8
0
  6
CONTINUOUS
 62
     4
 10
193.6479355872534
 20
-2.516100964230358
 30
0.0
  0
VERTEX
  5
71B
  8
0
  6
CONTINUOUS
 62
     4
 10
193.6678214794548
 20
-2.621761514617271
 30
0.0
  0
VERTEX
  5
71C
  8
0
  6
CONTINUOUS
 62
     4
 10
193.6933291969432
 20
-2.726676013983872
 30
0.0
  0
VERTEX
  5
71D
  8
0
  6
CONTINUOUS
 62
     4
 10
193.7244139905144
 20
-2.830660406648085
 30
0.0
  0
VERTEX
  5
71E
  8
0
  6
CONTINUOUS
 62
     4
 10
193.7610213268779
 20
-2.933532268651043
 30
0.0
  0
VERTEX
  5
71F
  8
0
  6
CONTINUOUS
 62
     4
 10
193.8030869843265
 20
-3.035111127790699
 30
0.0
  0
VERTEX
  5
720
  8
0
  6
CONTINUOUS
 62
     4
 10
193.8505371654028
 20
-3.135218780231393
 30
0.0
  0
VERTEX
  5
721
  8
0
  6
CONTINUOUS
 62
     4
 10
193.9032886263658
 20
-3.233679603133937
 30
0.0
  0
VERTEX
  5
722
  8
0
  6
CONTINUOUS
 62
     4
 10
193.9612488232277
 20
-3.330320862757747
 30
0.0
  0
VERTEX
  5
723
  8
0
  6
CONTINUOUS
 62
     4
 10
194.0243160741083
 20
-3.424973017494521
 30
0.0
  0
VERTEX
  5
724
  8
0
  6
CONTINUOUS
 62
     4
 10
194.0923797376192
 20
-3.517470015301834
 30
0.0
  0
VERTEX
  5
725
  8
0
  6
CONTINUOUS
 62
     4
 10
194.1653204069662
 20
-3.60764958501484
 30
0.0
  0
VERTEX
  5
726
  8
0
  6
CONTINUOUS
 62
     4
 10
194.2430101194301
 20
-3.695353521025038
 30
0.0
  0
VERTEX
  5
727
  8
0
  6
CONTINUOUS
 62
     4
 10
194.325312580856
 20
-3.780427960826669
 30
0.0
  0
VERTEX
  5
728
  8
0
  6
CONTINUOUS
 62
     4
 10
194.41208340476
 20
-3.862723654943833
 30
0.0
  0
VERTEX
  5
729
  8
0
  6
CONTINUOUS
 62
     4
 10
194.503170365632
 20
-3.942096228764783
 30
0.0
  0
VERTEX
  5
72A
  8
0
  6
CONTINUOUS
 62
     4
 10
194.5984136659911
 20
-4.018406435824055
 30
0.0
  0
VERTEX
  5
72B
  8
0
  6
CONTINUOUS
 62
     4
 10
194.6976462167246
 20
-4.091520402088084
 30
0.0
  0
VERTEX
  5
72C
  8
0
  6
CONTINUOUS
 62
     4
 10
194.8006939302191
 20
-4.16130986081575
 30
0.0
  0
VERTEX
  5
72D
  8
0
  6
CONTINUOUS
 62
     4
 10
194.9073760257692
 20
-4.22765237758183
 30
0.0
  0
VERTEX
  5
72E
  8
0
  6
CONTINUOUS
 62
     4
 10
195.0175053467286
 20
-4.290431565068575
 30
0.0
  0
VERTEX
  5
72F
  8
0
  6
CONTINUOUS
 62
     4
 10
195.130888688846
 20
-4.349537287248623
 30
0.0
  0
VERTEX
  5
730
  8
0
  6
CONTINUOUS
 62
     4
 10
195.2473271392115
 20
-4.404865852601009
 30
0.0
  0
VERTEX
  5
731
  8
0
  6
CONTINUOUS
 62
     4
 10
195.3666164252171
 20
-4.456320196021336
 30
0.0
  0
VERTEX
  5
732
  8
0
  6
CONTINUOUS
 62
     4
 10
195.4885472729204
 20
-4.503810049106938
 30
0.0
  0
VERTEX
  5
733
  8
0
  6
CONTINUOUS
 62
     4
 10
195.612905774182
 20
-4.547252098518342
 30
0.0
  0
VERTEX
  5
734
  8
0
  6
CONTINUOUS
 62
     4
 10
195.7394737619336
 20
-4.586570132139176
 30
0.0
  0
VERTEX
  5
735
  8
0
  6
CONTINUOUS
 62
     4
 10
195.8680291929164
 20
-4.621695172778109
 30
0.0
  0
VERTEX
  5
736
  8
0
  6
CONTINUOUS
 62
     4
 10
195.9983465372212
 20
-4.652565599178292
 30
0.0
  0
VERTEX
  5
737
  8
0
  6
CONTINUOUS
 62
     4
 10
196.1301971739438
 20
-4.679127254121978
 30
0.0
  0
VERTEX
  5
738
  8
0
  6
CONTINUOUS
 62
     4
 10
196.2633497922644
 20
-4.701333539440683
 30
0.0
  0
VERTEX
  5
739
  8
0
  6
CONTINUOUS
 62
     4
 10
196.3975707972447
 20
-4.719145497764214
 30
0.0
  0
VERTEX
  5
73A
  8
0
  6
CONTINUOUS
 62
     4
 10
196.5326247196335
 20
-4.732531880865126
 30
0.0
  0
VERTEX
  5
73B
  8
0
  6
CONTINUOUS
 62
     4
 10
196.6682746289594
 20
-4.741469204478737
 30
0.0
  0
VERTEX
  5
73C
  8
0
  6
CONTINUOUS
 62
     4
 10
196.804282549187
 20
-4.745941789502504
 30
0.0
  0
VERTEX
  5
73D
  8
0
  6
CONTINUOUS
 62
     4
 10
196.9404098762087
 20
-4.745941789502504
 30
0.0
  0
VERTEX
  5
73E
  8
0
  6
CONTINUOUS
 62
     4
 10
197.0764177964364
 20
-4.741469204478735
 30
0.0
  0
VERTEX
  5
73F
  8
0
  6
CONTINUOUS
 62
     4
 10
197.2120677057621
 20
-4.732531880865124
 30
0.0
  0
VERTEX
  5
740
  8
0
  6
CONTINUOUS
 62
     4
 10
197.347121628151
 20
-4.719145497764211
 30
0.0
  0
VERTEX
  5
741
  8
0
  6
CONTINUOUS
 62
     4
 10
197.4813426331313
 20
-4.70133353944068
 30
0.0
  0
VERTEX
  5
742
  8
0
  6
CONTINUOUS
 62
     4
 10
197.6144952514519
 20
-4.679127254121973
 30
0.0
  0
VERTEX
  5
743
  8
0
  6
CONTINUOUS
 62
     4
 10
197.7463458881745
 20
-4.652565599178287
 30
0.0
  0
VERTEX
  5
744
  8
0
  6
CONTINUOUS
 62
     4
 10
197.8766632324793
 20
-4.621695172778104
 30
0.0
  0
VERTEX
  5
745
  8
0
  6
CONTINUOUS
 62
     4
 10
198.0052186634621
 20
-4.586570132139169
 30
0.0
  0
VERTEX
  5
746
  8
0
  6
CONTINUOUS
 62
     4
 10
198.1317866512137
 20
-4.547252098518335
 30
0.0
  0
VERTEX
  5
747
  8
0
  6
CONTINUOUS
 62
     4
 10
198.2561451524753
 20
-4.50381004910693
 30
0.0
  0
VERTEX
  5
748
  8
0
  6
CONTINUOUS
 62
     4
 10
198.3780760001786
 20
-4.456320196021327
 30
0.0
  0
VERTEX
  5
749
  8
0
  6
CONTINUOUS
 62
     4
 10
198.4973652861842
 20
-4.404865852601001
 30
0.0
  0
VERTEX
  5
74A
  8
0
  6
CONTINUOUS
 62
     4
 10
198.6138037365497
 20
-4.349537287248612
 30
0.0
  0
VERTEX
  5
74B
  8
0
  6
CONTINUOUS
 62
     4
 10
198.7271870786671
 20
-4.290431565068564
 30
0.0
  0
VERTEX
  5
74C
  8
0
  6
CONTINUOUS
 62
     4
 10
198.8373163996265
 20
-4.227652377581817
 30
0.0
  0
VERTEX
  5
74D
  8
0
  6
CONTINUOUS
 62
     4
 10
198.9439984951766
 20
-4.161309860815738
 30
0.0
  0
VERTEX
  5
74E
  8
0
  6
CONTINUOUS
 62
     4
 10
199.0470462086711
 20
-4.09152040208807
 30
0.0
  0
VERTEX
  5
74F
  8
0
  6
CONTINUOUS
 62
     4
 10
199.1462787594046
 20
-4.01840643582404
 30
0.0
  0
VERTEX
  5
750
  8
0
  6
CONTINUOUS
 62
     4
 10
199.2415220597637
 20
-3.942096228764767
 30
0.0
  0
VERTEX
  5
751
  8
0
  6
CONTINUOUS
 62
     4
 10
199.3326090206357
 20
-3.862723654943817
 30
0.0
  0
VERTEX
  5
752
  8
0
  6
CONTINUOUS
 62
     4
 10
199.4193798445397
 20
-3.780427960826653
 30
0.0
  0
VERTEX
  5
753
  8
0
  6
CONTINUOUS
 62
     4
 10
199.5016823059656
 20
-3.695353521025021
 30
0.0
  0
VERTEX
  5
754
  8
0
  6
CONTINUOUS
 62
     4
 10
199.5793720184295
 20
-3.607649585014822
 30
0.0
  0
VERTEX
  5
755
  8
0
  6
CONTINUOUS
 62
     4
 10
199.6523126877765
 20
-3.517470015301816
 30
0.0
  0
VERTEX
  5
756
  8
0
  6
CONTINUOUS
 62
     4
 10
199.7203763512874
 20
-3.424973017494503
 30
0.0
  0
VERTEX
  5
757
  8
0
  6
CONTINUOUS
 62
     4
 10
199.783443602168
 20
-3.330320862757729
 30
0.0
  0
VERTEX
  5
758
  8
0
  6
CONTINUOUS
 62
     4
 10
199.8414037990299
 20
-3.233679603133918
 30
0.0
  0
VERTEX
  5
759
  8
0
  6
CONTINUOUS
 62
     4
 10
199.8941552599928
 20
-3.135218780231374
 30
0.0
  0
VERTEX
  5
75A
  8
0
  6
CONTINUOUS
 62
     4
 10
199.9416054410692
 20
-3.035111127790679
 30
0.0
  0
VERTEX
  5
75B
  8
0
  6
CONTINUOUS
 62
     4
 10
199.9836710985178
 20
-2.933532268651023
 30
0.0
  0
VERTEX
  5
75C
  8
0
  6
CONTINUOUS
 62
     4
 10
200.0202784348813
 20
-2.830660406648065
 30
0.0
  0
VERTEX
  5
75D
  8
0
  6
CONTINUOUS
 62
     4
 10
200.0513632284525
 20
-2.726676013983852
 30
0.0
  0
VERTEX
  5
75E
  8
0
  6
CONTINUOUS
 62
     4
 10
200.0768709459408
 20
-2.621761514617251
 30
0.0
  0
VERTEX
  5
75F
  8
0
  6
CONTINUOUS
 62
     4
 10
200.0967568381423
 20
-2.516100964230338
 30
0.0
  0
VERTEX
  5
760
  8
0
  6
CONTINUOUS
 62
     4
 10
200.1109860184446
 20
-2.409879727332187
 30
0.0
  0
VERTEX
  5
761
  8
0
  6
CONTINUOUS
 62
     4
 10
200.1195335240304
 20
-2.303284152066536
 30
0.0
  0
SEQEND
  5
6CB
  8
0
  6
CONTINUOUS
 62
     4
  0
POLYLINE
  5
3AD
  8
0
  6
DIVIDE
 62
     9
 66
     1
 10
0.0
 20
0.0
 30
0.0
  0
VERTEX
  5
763
  8
0
  6
DIVIDE
 62
     9
 10
60.24910860283455
 20
99.84831715804283
 30
0.0
  0
VERTEX
  5
764
  8
0
  6
DIVIDE
 62
     9
 10
60.54136788261648
 20
100.0226695855644
 30
0.0
  0
VERTEX
  5
765
  8
0
  6
DIVIDE
 62
     9
 10
60.83646554874963
 20
100.1902483463472
 30
0.0
  0
VERTEX
  5
766
  8
0
  6
DIVIDE
 62
     9
 10
61.13439392430066
 20
100.3514331117716
 30
0.0
  0
VERTEX
  5
767
  8
0
  6
DIVIDE
 62
     9
 10
61.43514533233616
 20
100.5066035532178
 30
0.0
  0
VERTEX
  5
768
  8
0
  6
DIVIDE
 62
     9
 10
61.73871209592276
 20
100.6561393420663
 30
0.0
  0
VERTEX
  5
769
  8
0
  6
DIVIDE
 62
     9
 10
62.04508653812706
 20
100.8004201496971
 30
0.0
  0
VERTEX
  5
76A
  8
0
  6
DIVIDE
 62
     9
 10
62.35426098201571
 20
100.9398256474908
 30
0.0
  0
VERTEX
  5
76B
  8
0
  6
DIVIDE
 62
     9
 10
62.6662277506553
 20
101.0747355068274
 30
0.0
  0
VERTEX
  5
76C
  8
0
  6
DIVIDE
 62
     9
 10
62.98097916711247
 20
101.2055293990874
 30
0.0
  0
VERTEX
  5
76D
  8
0
  6
DIVIDE
 62
     9
 10
63.29850755445383
 20
101.3325869956511
 30
0.0
  0
VERTEX
  5
76E
  8
0
  6
DIVIDE
 62
     9
 10
63.61880523574597
 20
101.4562879678987
 30
0.0
  0
VERTEX
  5
76F
  8
0
  6
DIVIDE
 62
     9
 10
63.94186453405555
 20
101.5770119872105
 30
0.0
  0
VERTEX
  5
770
  8
0
  6
DIVIDE
 62
     9
 10
64.26767777244916
 20
101.6951387249668
 30
0.0
  0
VERTEX
  5
771
  8
0
  6
DIVIDE
 62
     9
 10
64.59623727399345
 20
101.811047852548
 30
0.0
  0
VERTEX
  5
772
  8
0
  6
DIVIDE
 62
     9
 10
64.92752246527248
 20
101.9250613734574
 30
0.0
  0
VERTEX
  5
773
  8
0
  6
DIVIDE
 62
     9
 10
65.2613060332811
 20
102.0365768350028
 30
0.0
  0
VERTEX
  5
774
  8
0
  6
DIVIDE
 62
     9
 10
65.59719416605248
 20
102.144247268179
 30
0.0
  0
VERTEX
  5
775
  8
0
  6
DIVIDE
 62
     9
 10
65.93478832166977
 20
102.2467045535491
 30
0.0
  0
VERTEX
  5
776
  8
0
  6
DIVIDE
 62
     9
 10
66.27368995821622
 20
102.3425805716764
 30
0.0
  0
VERTEX
  5
777
  8
0
  6
DIVIDE
 62
     9
 10
66.61350053377501
 20
102.430507203124
 30
0.0
  0
VERTEX
  5
778
  8
0
  6
DIVIDE
 62
     9
 10
66.95382150642931
 20
102.5091163284551
 30
0.0
  0
VERTEX
  5
779
  8
0
  6
DIVIDE
 62
     9
 10
67.29425433426238
 20
102.5770398282331
 30
0.0
  0
VERTEX
  5
77A
  8
0
  6
DIVIDE
 62
     9
 10
67.63440047535734
 20
102.632909583021
 30
0.0
  0
VERTEX
  5
77B
  8
0
  6
DIVIDE
 62
     9
 10
67.97386138779747
 20
102.6753574733821
 30
0.0
  0
VERTEX
  5
77C
  8
0
  6
DIVIDE
 62
     9
 10
68.31223852966592
 20
102.7030153798797
 30
0.0
  0
VERTEX
  5
77D
  8
0
  6
DIVIDE
 62
     9
 10
68.64913335904591
 20
102.7145151830768
 30
0.0
  0
VERTEX
  5
77E
  8
0
  6
DIVIDE
 62
     9
 10
68.98414733402062
 20
102.7084887635367
 30
0.0
  0
VERTEX
  5
77F
  8
0
  6
DIVIDE
 62
     9
 10
69.31688191267327
 20
102.6835680018227
 30
0.0
  0
VERTEX
  5
780
  8
0
  6
DIVIDE
 62
     9
 10
69.64693855308704
 20
102.6383847784979
 30
0.0
  0
VERTEX
  5
781
  8
0
  6
DIVIDE
 62
     9
 10
69.97394107178718
 20
102.5718818969263
 30
0.0
  0
VERTEX
  5
782
  8
0
  6
DIVIDE
 62
     9
 10
70.29763799423239
 20
102.4847363980721
 30
0.0
  0
VERTEX
  5
783
  8
0
  6
DIVIDE
 62
     9
 10
70.61782106758022
 20
102.378226376033
 30
0.0
  0
VERTEX
  5
784
  8
0
  6
DIVIDE
 62
     9
 10
70.93428208127892
 20
102.2536305130143
 30
0.0
  0
VERTEX
  5
785
  8
0
  6
DIVIDE
 62
     9
 10
71.2468128247768
 20
102.1122274912212
 30
0.0
  0
VERTEX
  5
786
  8
0
  6
DIVIDE
 62
     9
 10
71.55520508752218
 20
101.9552959928591
 30
0.0
  0
VERTEX
  5
787
  8
0
  6
DIVIDE
 62
     9
 10
71.85925065896336
 20
101.784114700133
 30
0.0
  0
VERTEX
  5
788
  8
0
  6
DIVIDE
 62
     9
 10
72.1587413285486
 20
101.5999622952483
 30
0.0
  0
VERTEX
  5
789
  8
0
  6
DIVIDE
 62
     9
 10
72.45346888572624
 20
101.4041174604103
 30
0.0
  0
VERTEX
  5
78A
  8
0
  6
DIVIDE
 62
     9
 10
72.743403727917
 20
101.1981029551345
 30
0.0
  0
VERTEX
  5
78B
  8
0
  6
DIVIDE
 62
     9
 10
73.02933625456373
 20
100.9845621153897
 30
0.0
  0
VERTEX
  5
78C
  8
0
  6
DIVIDE
 62
     9
 10
73.31229204524723
 20
100.7664596633331
 30
0.0
  0
VERTEX
  5
78D
  8
0
  6
DIVIDE
 62
     9
 10
73.59329669941275
 20
100.5467603482679
 30
0.0
  0
VERTEX
  5
78E
  8
0
  6
DIVIDE
 62
     9
 10
73.8733758165054
 20
100.3284289194971
 30
0.0
  0
VERTEX
  5
78F
  8
0
  6
DIVIDE
 62
     9
 10
74.1535549959704
 20
100.1144301263238
 30
0.0
  0
VERTEX
  5
790
  8
0
  6
DIVIDE
 62
     9
 10
74.43485983725293
 20
99.9077287180511
 30
0.0
  0
VERTEX
  5
791
  8
0
  6
DIVIDE
 62
     9
 10
74.71831593979817
 20
99.71128944398214
 30
0.0
  0
VERTEX
  5
792
  8
0
  6
DIVIDE
 62
     9
 10
75.00494890305137
 20
99.52807705341999
 30
0.0
  0
VERTEX
  5
793
  8
0
  6
DIVIDE
 62
     9
 10
75.29578432645766
 20
99.36105629566775
 30
0.0
  0
VERTEX
  5
794
  8
0
  6
DIVIDE
 62
     9
 10
75.59184780946224
 20
99.21319192002845
 30
0.0
  0
VERTEX
  5
795
  8
0
  6
DIVIDE
 62
     9
 10
75.89416495151031
 20
99.08744867580531
 30
0.0
  0
VERTEX
  5
796
  8
0
  6
DIVIDE
 62
     9
 10
76.20376135204704
 20
98.98679131230128
 30
0.0
  0
VERTEX
  5
797
  8
0
  6
DIVIDE
 62
     9
 10
76.52166205930142
 20
98.91418362938272
 30
0.0
  0
VERTEX
  5
798
  8
0
  6
DIVIDE
 62
     9
 10
76.84824907637692
 20
98.87148182022789
 30
0.0
  0
VERTEX
  5
799
  8
0
  6
DIVIDE
 62
     9
 10
77.18202048979495
 20
98.85729714461496
 30
0.0
  0
VERTEX
  5
79A
  8
0
  6
DIVIDE
 62
     9
 10
77.52113118182352
 20
98.86964971356552
 30
0.0
  0
VERTEX
  5
79B
  8
0
  6
DIVIDE
 62
     9
 10
77.86373603473066
 20
98.90655963810119
 30
0.0
  0
VERTEX
  5
79C
  8
0
  6
DIVIDE
 62
     9
 10
78.20798993078441
 20
98.96604702924356
 30
0.0
  0
VERTEX
  5
79D
  8
0
  6
DIVIDE
 62
     9
 10
78.55204775225279
 20
99.04613199801423
 30
0.0
  0
VERTEX
  5
79E
  8
0
  6
DIVIDE
 62
     9
 10
78.89406438140382
 20
99.14483465543484
 30
0.0
  0
VERTEX
  5
79F
  8
0
  6
DIVIDE
 62
     9
 10
79.23219470050553
 20
99.26017511252695
 30
0.0
  0
VERTEX
  5
7A0
  8
0
  6
DIVIDE
 62
     9
 10
79.564593591826
 20
99.39017348031221
 30
0.0
  0
VERTEX
  5
7A1
  8
0
  6
DIVIDE
 62
     9
 10
79.88941593763317
 20
99.53284986981221
 30
0.0
  0
VERTEX
  5
7A2
  8
0
  6
DIVIDE
 62
     9
 10
80.20481662019512
 20
99.68622439204856
 30
0.0
  0
VERTEX
  5
7A3
  8
0
  6
DIVIDE
 62
     9
 10
80.50895052177987
 20
99.84831715804283
 30
0.0
  0
SEQEND
  5
762
  8
0
  6
DIVIDE
 62
     9
  0
LINE
  5
3AE
  8
0
  6
DIVIDE
 62
     9
 10
207.622333451454
 20
0.3535027579077763
 30
0.0
 11
209.1223376303784
 21
1.219530589939026
 31
0.0
  0
LINE
  5
3AF
  8
0
  6
DIVIDE
 62
     9
 10
209.1223538420924
 20
2.751092922508164
 30
0.0
 11
209.1223538420924
 21
1.219524872123643
 31
0.0
  0
LINE
  5
3B0
  8
LAYER0014
  6
CONTINUOUS
 62
     7
 10
96.25580721123299
 20
103.8535051463241
 30
0.0
 11
96.25580721123299
 21
121.8690767405624
 31
0.0
  0
LINE
  5
3B1
  8
LAYER0014
  6
CONTINUOUS
 62
     7
 10
100.0823614714869
 20
103.8535051463241
 30
0.0
 11
95.25580721123299
 21
103.8535051463241
 31
0.0
  0
LINE
  5
3B2
  8
LAYER0014
  6
CONTINUOUS
 62
     7
 10
101.1223309539088
 20
-101.0514316822892
 30
0.0
 11
101.1223309539088
 21
-107.9658002735978
 31
0.0
  0
LINE
  5
3B3
  8
LAYER0014
  6
CONTINUOUS
 62
     7
 10
12.1223500273951
 20
-18.43650152939613
 30
0.0
 11
12.1223500273951
 21
-107.9658002735978
 31
0.0
  0
LINE
  5
3B4
  8
LAYER0014
  6
CONTINUOUS
 62
     7
 10
-12.87765092627922
 20
2.313498470603867
 30
0.0
 11
-12.87765092627922
 21
-116.4658002735978
 31
0.0
  0
LINE
  5
3B5
  8
LAYER0014
  6
CONTINUOUS
 62
     7
 10
6.122331907583089
 20
-7.686502125442581
 30
0.0
 11
6.122331907583089
 21
-99.46580027359779
 31
0.0
  0
LINE
  5
3B6
  8
LAYER0014
  6
CONTINUOUS
 62
     7
 10
98.46695833427964
 20
-112.8641004444964
 30
0.0
 11
87.23741274101792
 21
-112.8641004444964
 31
0.0
  0
LINE
  5
3B7
  8
LAYER0014
  6
CONTINUOUS
 62
     7
 10
101.8723504858459
 20
-106.9658031638214
 30
0.0
 11
98.46696642212521
 21
-112.864101275607
 31
0.0
  0
LINE
  5
3B8
  8
LAYER0014
  6
CONTINUOUS
 62
     7
 10
207.1223233245142
 20
-43.68649866837318
 30
0.0
 11
207.1223233245142
 21
-107.9658002735978
 31
0.0
  0
LINE
  5
3B9
  8
LAYER0014
  6
CONTINUOUS
 62
     7
 10
-12.87765092627922
 20
-115.4658002735978
 30
0.0
 11
-31.5817629791967
 21
-115.4658002735978
 31
0.0
  0
LINE
  5
3BA
  8
LAYER0014
  6
CONTINUOUS
 62
     7
 10
-204.4617983795873
 20
-99.52879618424238
 30
0.0
 11
-254.1399752594701
 21
-99.5287961842424
 31
0.0
  0
LINE
  5
3BB
  8
LAYER0014
  6
CONTINUOUS
 62
     7
 10
-116.3023669220678
 20
-99.72169779557045
 30
0.0
 11
-72.8732668854467
 21
-99.72169779557045
 31
0.0
  0
LINE
  5
3BC
  8
LAYER0014
  6
CONTINUOUS
 62
     7
 10
73.82984285576424
 20
-56.41227244156654
 30
0.0
 11
94.4124997161158
 21
-56.41227244156654
 31
0.0
  0
LINE
  5
3BD
  8
LAYER0014
  6
CONTINUOUS
 62
     7
 10
234.1223691008814
 20
-1.320477988899307
 30
0.0
 11
234.1223691008814
 21
-116.4658002735978
 31
0.0
  0
LINE
  5
3BE
  8
LAYER0014
  6
CONTINUOUS
 62
     7
 10
83.25672273857674
 20
140.9282426951522
 30
0.0
 11
107.4858258269557
 21
140.9282426951522
 31
0.0
  0
LINE
  5
3BF
  8
LAYER0014
  6
CONTINUOUS
 62
     7
 10
96.25580721123299
 20
97.03419972640221
 30
0.0
 11
96.25580721123299
 21
103.8535051463241
 31
0.0
  0
INSERT
  5
3C0
  8
LAYER0014
 62
     7
  2
_OPEN30
 10
96.25580721123299
 20
103.8535051463241
 30
0.0
 41
1.50000139391263
 42
1.499998500689492
 50
90.0
  0
LINE
  5
3C1
  8
LAYER0014
  6
CONTINUOUS
 62
     7
 10
0.1223576567896316
 20
-98.46580027359779
 30
0.0
 11
6.122331907583089
 21
-98.46580027359779
 31
0.0
  0
INSERT
  5
3C2
  8
LAYER0014
 62
     7
  2
_OPEN30
 10
0.1223576567896316
 20
-98.46580027359779
 30
0.0
 41
1.50000139391263
 42
1.499998500689492
 50
180.0
  0
INSERT
  5
3C3
  8
LAYER0014
 62
     7
  2
_OPEN30
 10
6.122331907583089
 20
-98.46580027359779
 30
0.0
 41
1.50000139391263
 42
1.499998500689492
 50
360.0
  0
LINE
  5
3C4
  8
LAYER0014
  6
CONTINUOUS
 62
     7
 10
102.6223614714869
 20
-106.9658002735978
 30
0.0
 11
101.1223309539088
 21
-106.9658002735978
 31
0.0
  0
INSERT
  5
3C5
  8
LAYER0014
 62
     7
  2
_OPEN30
 10
102.6223614714869
 20
-106.9658002735978
 30
0.0
 41
1.50000139391263
 42
1.499998500689492
 50
360.0
  0
INSERT
  5
3C6
  8
LAYER0014
 62
     7
  2
_OPEN30
 10
101.1223309539088
 20
-106.9658002735978
 30
0.0
 41
1.50000139391263
 42
1.499998500689492
 50
180.0
  0
LINE
  5
3C7
  8
LAYER0014
  6
CONTINUOUS
 62
     7
 10
21.12233286125741
 20
-106.9658002735978
 30
0.0
 11
12.1223500273951
 21
-106.9658002735978
 31
0.0
  0
INSERT
  5
3C8
  8
LAYER0014
 62
     7
  2
_OPEN30
 10
21.12233286125741
 20
-106.9658002735978
 30
0.0
 41
1.50000139391263
 42
1.499998500689492
 50
360.0
  0
INSERT
  5
3C9
  8
LAYER0014
 62
     7
  2
_OPEN30
 10
12.1223500273951
 20
-106.9658002735978
 30
0.0
 41
1.50000139391263
 42
1.499998500689492
 50
180.0
  0
LINE
  5
3CA
  8
LAYER0014
  6
CONTINUOUS
 62
     7
 10
207.1223233245142
 20
-106.9658002735978
 30
0.0
 11
202.1223233245142
 21
-106.9658002735978
 31
0.0
  0
INSERT
  5
3CB
  8
LAYER0014
 62
     7
  2
_OPEN30
 10
207.1223233245142
 20
-106.9658002735978
 30
0.0
 41
1.50000139391263
 42
1.499998500689492
 50
360.0
  0
INSERT
  5
3CC
  8
LAYER0014
 62
     7
  2
_OPEN30
 10
202.1223233245142
 20
-106.9658002735978
 30
0.0
 41
1.50000139391263
 42
1.499998500689492
 50
180.0
  0
LINE
  5
3CD
  8
LAYER0014
  6
CONTINUOUS
 62
     7
 10
-12.87765092627922
 20
-115.4658002735978
 30
0.0
 11
0.1223576567896316
 21
-115.4658002735978
 31
0.0
  0
INSERT
  5
3CE
  8
LAYER0014
 62
     7
  2
_OPEN30
 10
-12.87765092627922
 20
-115.4658002735978
 30
0.0
 41
1.50000139391263
 42
1.499998500689492
 50
180.0
  0
INSERT
  5
3CF
  8
LAYER0014
 62
     7
  2
_OPEN30
 10
0.1223576567896316
 20
-115.4658002735978
 30
0.0
 41
1.50000139391263
 42
1.499998500689492
 50
360.0
  0
LINE
  5
3D0
  8
LAYER0014
  6
CONTINUOUS
 62
     7
 10
202.1223233245142
 20
-115.4658002735978
 30
0.0
 11
234.1223691008814
 21
-115.4658002735978
 31
0.0
  0
INSERT
  5
3D1
  8
LAYER0014
 62
     7
  2
_OPEN30
 10
202.1223233245142
 20
-115.4658002735978
 30
0.0
 41
1.50000139391263
 42
1.499998500689492
 50
180.0
  0
INSERT
  5
3D2
  8
LAYER0014
 62
     7
  2
_OPEN30
 10
234.1223691008814
 20
-115.4658002735978
 30
0.0
 41
1.50000139391263
 42
1.499998500689492
 50
360.0
  0
LINE
  5
3D3
  8
LAYER0014
  6
CONTINUOUS
 62
     7
 10
183.1753781340846
 20
54.85350133162682
 30
0.0
 11
183.1753781340846
 21
7.853492748557969
 31
0.0
  0
INSERT
  5
3D4
  8
LAYER0014
 62
     7
  2
_OPEN30
 10
183.1753781340846
 20
54.85350133162682
 30
0.0
 41
1.50000139391263
 42
1.499998500689492
 50
90.0
  0
INSERT
  5
3D5
  8
LAYER0014
 62
     7
  2
_OPEN30
 10
183.1753781340846
 20
7.853492748557969
 30
0.0
 41
1.50000139391263
 42
1.499998500689492
 50
270.0
  0
LINE
  5
3D6
  8
LAYER0014
  6
CONTINUOUS
 62
     7
 10
-185.6523066620032
 20
-19.20720420873364
 30
0.0
 11
-204.4617930532298
 21
-99.528794478455
 31
0.0
  0
INSERT
  5
3D7
  8
LAYER0014
 62
     7
  2
_OPEN30
 10
-185.6523066620032
 20
-19.20720420873364
 30
0.0
 41
1.50000139391263
 42
1.499998500689492
 50
76.82013186852865
  0
LINE
  5
3D8
  8
LAYER0014
  6
CONTINUOUS
 62
     7
 10
-142.0456177384347
 20
1.001891159938609
 30
0.0
 11
-116.3023678329901
 21
-99.72170117869315
 31
0.0
  0
INSERT
  5
3D9
  8
LAYER0014
 62
     7
  2
_OPEN30
 10
-142.0456177384347
 20
1.001891159938609
 30
0.0
 41
1.50000139391263
 42
1.499998500689492
 50
104.3369178717794
  0
LINE
  5
3DA
  8
LAYER0014
  6
CONTINUOUS
 62
     7
 10
61.66347125647837
 20
-29.16650245725965
 30
0.0
 11
73.82984639364724
 21
-56.41227082927641
 31
0.0
  0
INSERT
  5
3DB
  8
LAYER0014
 62
     7
  2
_OPEN30
 10
61.66347125647837
 20
-29.16650245725965
 30
0.0
 41
1.50000139391263
 42
1.499998500689492
 50
114.0627598531367
  0
LINE
  5
3DC
  8
LAYER0014
  6
CONTINUOUS
 62
     7
 10
71.35297038457333
 20
119.1731030659402
 30
0.0
 11
83.25671997708463
 21
140.928231988354
 31
0.0
  0
INSERT
  5
3DD
  8
LAYER0014
 62
     7
  2
_OPEN30
 10
71.35297038457333
 20
119.1731030659402
 30
0.0
 41
1.50000139391263
 42
1.499998500689492
 50
241.3138528219499
  0
TEXT
  5
3DE
  8
LAYER0014
 62
     7
 10
95.35002745101006
 20
107.0673509274055
 30
0.0
 40
4.0
  1
φ145
 50
90.0
 41
0.7619047619047625
  7
FDASTYLE1
 72
     5
 11
95.35002745101006
 21
119.8673509274055
 31
0.0
  0
TEXT
  5
3DF
  8
LAYER0014
 62
     7
 10
15.0785660814053
 20
-106.3009405323555
 30
0.0
 40
4.0
  1
9
 41
0.8000000000000003
  7
FDASTYLE1
 72
     5
 11
18.2785660814053
 21
-106.3009405323555
 31
0.0
  0
TEXT
  5
3E0
  8
LAYER0014
 62
     7
 10
1.578570372939725
 20
-97.86773626512392
 30
0.0
 40
4.0
  1
6
 41
0.8000000000000002
  7
FDASTYLE1
 72
     5
 11
4.778570372939726
 21
-97.86773626512392
 31
0.0
  0
TEXT
  5
3E1
  8
LAYER0014
 62
     7
 10
87.2374150477179
 20
-111.2641004444962
 30
0.0
 40
4.0
  1
1.5
 41
0.7999999999999995
  7
FDASTYLE1
 72
     5
 11
96.8374150477179
 21
-111.2641004444962
 31
0.0
  0
TEXT
  5
3E2
  8
LAYER0014
 62
     7
 10
203.1904910627014
 20
-106.2983617298639
 30
0.0
 40
4.0
  1
5
 41
0.7999999999999972
  7
FDASTYLE1
 72
     5
 11
206.3904910627014
 21
-106.2983617298639
 31
0.0
  0
TEXT
  5
3E3
  8
LAYER0014
 62
     7
 10
-30.73624692263461
 20
-114.9679298642765
 30
0.0
 40
4.0
  1
MAX38
 41
0.8
  7
FDASTYLE1
 72
     5
 11
-14.73624692263461
 21
-114.9679298642765
 31
0.0
  0
TEXT
  5
3E4
  8
LAYER0014
 62
     7
 10
-30.73624692263461
 20
-119.9182202153217
 30
0.0
 40
4.0
  1
MIN13
 41
0.8
  7
FDASTYLE1
 72
     5
 11
-14.73624692263461
 21
-119.9182202153217
 31
0.0
  0
TEXT
  5
3E5
  8
LAYER0014
 62
     7
 10
-261.5033743692173
 20
2.280443106496136
 30
0.0
 40
4.0
  1
引
 41
0.6666666666666762
  7
FDASTYLE1
 72
     5
 11
-258.3033743692172
 21
2.280443106496136
 31
0.0
  0
TEXT
  5
3E6
  8
LAYER0014
 62
     7
 10
-234.4303104220407
 20
-45.20156830145282
 30
0.0
 40
4.0
  1
押
 41
0.6666666666666643
  7
FDASTYLE1
 72
     5
 11
-231.2303104220407
 21
-45.20156830145282
 31
0.0
  0
TEXT
  5
3E7
  8
LAYER0014
 62
     7
 10
-251.3979845620863
 20
-97.92879618424233
 30
0.0
 40
4.0
  1
6-M6×12 PCD109
 41
0.7887323943661975
  7
FDASTYLE1
 72
     5
 11
-206.5979845620863
 21
-97.92879618424233
 31
0.0
  0
TEXT
  5
3E8
  8
LAYER0014
 62
     7
 10
-115.8024966217748
 20
-98.12169779557046
 30
0.0
 40
4.0
  1
6-M5×１０ PCD64
 41
0.7647058823529411
  7
FDASTYLE1
 72
     5
 11
-74.20249662177483
 21
-98.12169779557046
 31
0.0
  0
TEXT
  5
3E9
  8
LAYER0014
 62
     7
 10
75.23188319786803
 20
-55.74218283960992
 30
0.0
 40
4.0
  1
M12×８
 41
0.7407407407407407
  7
FDASTYLE1
 72
     5
 11
91.23188319786803
 21
-55.74218283960992
 31
0.0
  0
TEXT
  5
3EA
  8
LAYER0014
 62
     7
 10
210.1223385833033
 20
-114.9917069461056
 30
0.0
 40
4.0
  1
MAX32
 41
0.8
  7
FDASTYLE1
 72
     5
 11
226.1223385833033
 21
-114.9917069461056
 31
0.0
  0
TEXT
  5
3EB
  8
LAYER0014
 62
     7
 10
210.1223385833033
 20
-119.7917068984219
 30
0.0
 40
4.0
  1
MIN 7
 41
0.8
  7
FDASTYLE1
 72
     5
 11
226.1223385833033
 21
-119.7917068984219
 31
0.0
  0
TEXT
  5
3EC
  8
LAYER0014
 62
     7
 10
50.80458100768812
 20
175.466010669877
 30
0.0
 40
4.0
  1
押
 41
0.6666666666666673
  7
FDASTYLE1
 72
     5
 11
54.00458100768812
 21
175.466010669877
 31
0.0
  0
TEXT
  5
3ED
  8
LAYER0014
 62
     7
 10
68.80459245177993
 20
175.466010669877
 30
0.0
 40
4.0
  1
引
 41
0.6666666666666643
  7
FDASTYLE1
 72
     5
 11
72.00459245177991
 21
175.466010669877
 31
0.0
  0
TEXT
  5
3EE
  8
LAYER0014
 62
     7
 10
83.95239256331475
 20
141.4174750527198
 30
0.0
 40
4.0
  1
２－Ｒｃ3/8
 41
0.7179487179487182
  7
FDASTYLE1
 72
     5
 11
106.3523925633148
 21
141.4174750527198
 31
0.0
  0
TEXT
  5
3EF
  8
LAYER0014
 62
     7
 10
182.2579804219751
 20
22.28083297603951
 30
0.0
 40
4.0
  1
φ46
 50
90.0
 41
0.7500000000000018
  7
FDASTYLE1
 72
     5
 11
182.2579804219751
 21
31.88083297603953
 31
0.0
  0
TEXT
  5
3F0
  8
LAYER0014
 62
     7
 10
179.7579804219751
 20
32.38083297603953
 30
0.0
 40
2.6
  1
+0.5
 50
90.0
 41
0.7999999999999993
  7
FDASTYLE1
 72
     5
 11
179.7579804219751
 21
40.70083297603952
 31
0.0
  0
TEXT
  5
3F1
  8
LAYER0014
 62
     7
 10
182.4579804219751
 20
32.38083297603953
 30
0.0
 40
2.6
  1
　0
 50
90.0
 41
0.7272727272727266
  7
FDASTYLE1
 72
     5
 11
182.4579804219751
 21
36.54083297603953
 31
0.0
  0
INSERT
  5
3F2
  8
LAYER0014
  6
CONTINUOUS
  2
DA_IMAGEDIMGROUP_25
 10
0.0
 20
0.0
 30
0.0
  0
INSERT
  5
3F3
  8
LAYER0014
  6
CONTINUOUS
  2
DA_IMAGEDIMGROUP_26
 10
0.0
 20
0.0
 30
0.0
  0
CIRCLE
  5
3F4
  8
LAYER0014
  6
CONTINUOUS
 62
     3
 10
-259.785696695017
 20
4.177496921836777
 30
0.0
 40
5.0
  0
CIRCLE
  5
3F5
  8
LAYER0014
  6
CONTINUOUS
 62
     3
 10
-232.6096865631811
 20
-42.89272974747475
 30
0.0
 40
5.0
  0
CIRCLE
  5
3F6
  8
LAYER0014
  6
CONTINUOUS
 62
     4
 10
52.62235765678963
 20
177.2932024119491
 30
0.0
 40
5.0
  0
CIRCLE
  5
3F7
  8
LAYER0014
  6
CONTINUOUS
 62
     4
 10
70.62236910088143
 20
177.2932024119491
 30
0.0
 40
5.0
  0
VIEWPORT
  5
48
 67
     1
  8
0
 10
-0.9678529251452233
 20
0.0
 30
0.0
 40
1667.807117550871
 41
1140.0
 68
     1
 69
     1
1001
ACAD
1000
MVIEW
1002
{
1070
    16
1010
0.0
1020
0.0
1030
0.0
1020
0.0
1030
0.0
1010
0.0
1020
0.0
1030
1.0
1020
0.0
1030
1.0
1040
0.0
1040
1140.0
1040
-0.9678529251452233
1040
0.0
1040
50.0
1040
0.0
1040
0.0
1070
     0
1070
   100
1070
     0
1070
     1
1070
     0
1070
     0
1070
     0
1070
     0
1040
0.0
1040
0.0
1040
0.0
1040
0.5
1040
0.5
1040
0.0
1040
0.0
1070
     0
1002
{
1002
}
1002
}
  0
ENDSEC
  0
EOF
