  0
SECTION
  2
HEADER
  9
$ACADVER
  1
AC1009
  9
$DWGCODEPAGE
  3
ansi_932
  9
$INSBASE
 10
0.0
 20
0.0
 30
0.0
  9
$EXTMIN
 10
-831.0
 20
-569.9999999999999
 30
0.0
  9
$EXTMAX
 10
831.0
 20
569.9999999999999
 30
0.0
  9
$LIMMIN
 10
-297.0
 20
-210.0
  9
$LIMMAX
 10
297.0
 20
210.0
  9
$ORTHOMODE
 70
     0
  9
$REGENMODE
 70
     1
  9
$FILLMODE
 70
     1
  9
$QTEXTMODE
 70
     0
  9
$MIRRTEXT
 70
     1
  9
$DRAGMODE
 70
     2
  9
$LTSCALE
 40
1.0
  9
$OSMODE
 70
    37
  9
$ATTMODE
 70
     1
  9
$TEXTSIZE
 40
0.2
  9
$TRACEWID
 40
0.05
  9
$TEXTSTYLE
  7
STANDARD
  9
$CLAYER
  8
0
  9
$CELTYPE
  6
BYLAYER
  9
$CECOLOR
 62
   256
  9
$DIMSCALE
 40
1.0
  9
$DIMASZ
 40
2.5
  9
$DIMEXO
 40
0.0625
  9
$DIMDLI
 40
0.38
  9
$DIMRND
 40
0.0
  9
$DIMDLE
 40
0.0
  9
$DIMEXE
 40
0.18
  9
$DIMTP
 40
0.0
  9
$DIMTM
 40
0.0
  9
$DIMTXT
 40
0.18
  9
$DIMCEN
 40
0.09
  9
$DIMTSZ
 40
0.0
  9
$DIMTOL
 70
     0
  9
$DIMLIM
 70
     0
  9
$DIMTIH
 70
     1
  9
$DIMTOH
 70
     1
  9
$DIMSE1
 70
     0
  9
$DIMSE2
 70
     0
  9
$DIMTAD
 70
     3
  9
$DIMZIN
 70
     0
  9
$DIMBLK
  1

  9
$DIMASO
 70
     1
  9
$DIMSHO
 70
     1
  9
$DIMPOST
  1

  9
$DIMAPOST
  1

  9
$DIMALT
 70
     0
  9
$DIMALTD
 70
     2
  9
$DIMALTF
 40
25.4
  9
$DIMLFAC
 40
1.0
  9
$DIMTOFL
 70
     0
  9
$DIMTVP
 40
0.0
  9
$DIMTIX
 70
     0
  9
$DIMSOXD
 70
     0
  9
$DIMSAH
 70
     0
  9
$DIMBLK1
  1

  9
$DIMBLK2
  1

  9
$DIMSTYLE
  2
STANDARD
  9
$DIMCLRD
 70
     0
  9
$DIMCLRE
 70
     0
  9
$DIMCLRT
 70
     0
  9
$DIMTFAC
 40
1.0
  9
$DIMGAP
 40
0.09
  9
$LUNITS
 70
     2
  9
$LUPREC
 70
     4
  9
$SKETCHINC
 40
0.1
  9
$FILLETRAD
 40
0.5
  9
$AUNITS
 70
     0
  9
$AUPREC
 70
     0
  9
$MENU
  1
.
  9
$ELEVATION
 40
0.0
  9
$PELEVATION
 40
0.0
  9
$THICKNESS
 40
0.0
  9
$LIMCHECK
 70
     0
  9
$CHAMFERA
 40
0.5
  9
$CHAMFERB
 40
0.5
  9
$SKPOLY
 70
     0
  9
$TDCREATE
 40
2456329.357106424
  9
$TDUPDATE
 40
2456329.357106435
  9
$TDINDWG
 40
0.0000000116
  9
$TDUSRTIMER
 40
0.0000000116
  9
$USRTIMER
 70
     1
  9
$ANGBASE
 50
0.0
  9
$ANGDIR
 70
     0
  9
$PDMODE
 70
     0
  9
$PDSIZE
 40
1.0
  9
$PLINEWID
 40
0.0
  9
$COORDS
 70
     1
  9
$SPLFRAME
 70
     0
  9
$SPLINETYPE
 70
     6
  9
$SPLINESEGS
 70
     8
  9
$ATTDIA
 70
     0
  9
$ATTREQ
 70
     1
  9
$HANDLING
 70
     1
  9
$HANDSEED
  5
888
  9
$SURFTAB1
 70
     6
  9
$SURFTAB2
 70
     6
  9
$SURFTYPE
 70
     6
  9
$SURFU
 70
     6
  9
$SURFV
 70
     6
  9
$UCSNAME
  2

  9
$UCSORG
 10
0.0
 20
0.0
 30
0.0
  9
$UCSXDIR
 10
1.0
 20
0.0
 30
0.0
  9
$UCSYDIR
 10
0.0
 20
1.0
 30
0.0
  9
$PUCSNAME
  2

  9
$PUCSORG
 10
0.0
 20
0.0
 30
0.0
  9
$PUCSXDIR
 10
1.0
 20
0.0
 30
0.0
  9
$PUCSYDIR
 10
0.0
 20
1.0
 30
0.0
  9
$USERI1
 70
     0
  9
$USERI2
 70
     0
  9
$USERI3
 70
     0
  9
$USERI4
 70
     0
  9
$USERI5
 70
     0
  9
$USERR1
 40
0.0
  9
$USERR2
 40
0.0
  9
$USERR3
 40
0.0
  9
$USERR4
 40
0.0
  9
$USERR5
 40
0.0
  9
$WORLDVIEW
 70
     1
  9
$SHADEDGE
 70
     3
  9
$SHADEDIF
 70
    70
  9
$TILEMODE
 70
     1
  9
$MAXACTVP
 70
    64
  9
$PLIMCHECK
 70
     0
  9
$PEXTMIN
 10
1.000000000000000E+20
 20
1.000000000000000E+20
 30
1.000000000000000E+20
  9
$PEXTMAX
 10
-1.000000000000000E+20
 20
-1.000000000000000E+20
 30
-1.000000000000000E+20
  9
$PLIMMIN
 10
0.0
 20
0.0
  9
$PLIMMAX
 10
12.0
 20
9.0
  9
$UNITMODE
 70
     0
  9
$VISRETAIN
 70
     0
  9
$PLINEGEN
 70
     1
  9
$PSLTSCALE
 70
     0
  0
ENDSEC
  0
SECTION
  2
TABLES
  0
TABLE
  2
VPORT
 70
     1
  0
VPORT
  2
*ACTIVE
 70
     0
 10
0.0
 20
0.0
 11
1.0
 21
1.0
 12
0.0
 22
0.0
 13
0.0
 23
0.0
 14
0.5
 24
0.5
 15
0.5
 25
0.5
 16
0.0
 26
0.0
 36
1.0
 17
-0.0000000000000036
 27
0.0
 37
0.0
 40
387.6
 41
1.457894736842106
 42
50.0
 43
0.0
 44
0.0
 50
0.0
 51
0.0
 71
     0
 72
  1000
 73
     1
 74
     1
 75
     0
 76
     0
 77
     0
 78
     0
  0
ENDTAB
  0
TABLE
  2
LTYPE
 70
    28
  0
LTYPE
  2
CONTINUOUS
 70
     0
  3
Solid line
 72
    65
 73
     0
 40
0.0
  0
LTYPE
  2
HIDDENX2
 70
     0
  3
CADPAC LINETYPE
 72
    65
 73
     2
 40
9.893992932862261
 49
7.420494699646696
 49
-2.473498233215565
  0
LTYPE
  2
HIDDEN
 70
     0
  3
CADPAC LINETYPE
 72
    65
 73
     2
 40
7.420494699646696
 49
4.946996466431131
 49
-2.473498233215565
  0
LTYPE
  2
HIDDEN2
 70
     0
  3
CADPAC LINETYPE
 72
    65
 73
     2
 40
6.183745583038913
 49
3.710247349823348
 49
-2.473498233215565
  0
LTYPE
  2
DASHED
 70
     0
  3
CADPAC LINETYPE
 72
    65
 73
     2
 40
6.925795053003583
 49
4.946996466431131
 49
-1.978798586572452
  0
LTYPE
  2
DASHED2
 70
     0
  3
CADPAC LINETYPE
 72
    65
 73
     2
 40
4.452296819787989
 49
2.968197879858678
 49
-1.484098939929311
  0
LTYPE
  2
DASHEDX2
 70
     0
  3
CADPAC LINETYPE
 72
    65
 73
     2
 40
11.87279151943466
 49
9.893992932862204
 49
-1.978798586572452
  0
LTYPE
  2
DOTX2
 70
     0
  3
CADPAC LINETYPE
 72
    65
 73
     2
 40
4.328621908127204
 49
0.0
 49
-4.328621908127204
  0
LTYPE
  2
DOT
 70
     0
  3
CADPAC LINETYPE
 72
    65
 73
     2
 40
3.462897526501763
 49
0.0
 49
-3.462897526501763
  0
LTYPE
  2
DOT2
 70
     0
  3
CADPAC LINETYPE
 72
    65
 73
     2
 40
2.597173144876322
 49
0.0
 49
-2.597173144876322
  0
LTYPE
  2
CENTERX2
 70
     0
  3
CADPAC LINETYPE
 72
    65
 73
     4
 40
14.84098939929339
 49
6.183745583038913
 49
-3.091872791519457
 49
2.473498233215565
 49
-3.091872791519457
  0
LTYPE
  2
CENTER
 70
     0
  3
CADPAC LINETYPE
 72
    65
 73
     4
 40
11.3780918727916
 49
4.946996466431131
 49
-2.473498233215565
 49
1.484098939929339
 49
-2.473498233215565
  0
LTYPE
  2
CENTER2
 70
     0
  3
CADPAC LINETYPE
 72
    65
 73
     4
 40
7.915194346289809
 49
3.710247349823348
 49
-1.855123674911674
 49
0.4946996466431131
 49
-1.855123674911674
  0
LTYPE
  2
DASHDOTX2
 70
     0
  3
CADPAC LINETYPE
 72
    65
 73
     4
 40
23.7455830388692
 49
11.87279151943466
 49
-3.957597173144848
 49
3.957597173144848
 49
-3.957597173144848
  0
LTYPE
  2
DASHDOT
 70
     0
  3
CADPAC LINETYPE
 72
    65
 73
     4
 40
11.87279151943466
 49
5.9363957597173
 49
-1.978798586572452
 49
1.978798586572452
 49
-1.978798586572452
  0
LTYPE
  2
DASHDOT2
 70
     0
  3
CADPAC LINETYPE
 72
    65
 73
     4
 40
7.618374558303898
 49
4.452296819787975
 49
-1.484098939929339
 49
0.1978798586572452
 49
-1.484098939929339
  0
LTYPE
  2
DIVIDEX2
 70
     0
  3
CADPAC LINETYPE
 72
    65
 73
     6
 40
31.6607773851589
 49
11.87279151943466
 49
-3.957597173144848
 49
3.957597173144848
 49
-3.957597173144848
 49
3.957597173144848
 49
-3.957597173144848
  0
LTYPE
  2
DIVIDE
 70
     0
  3
CADPAC LINETYPE
 72
    65
 73
     6
 40
15.83038869257956
 49
5.9363957597173
 49
-1.978798586572452
 49
1.978798586572452
 49
-1.978798586572452
 49
1.978798586572452
 49
-1.978798586572452
  0
LTYPE
  2
DIVIDE2
 70
     0
  3
CADPAC LINETYPE
 72
    65
 73
     6
 40
11.87279151943467
 49
4.452296819787975
 49
-1.484098939929339
 49
1.484098939929339
 49
-1.484098939929339
 49
1.484098939929339
 49
-1.484098939929339
  0
LTYPE
  2
BORDERX2
 70
     0
  3
CADPAC LINETYPE
 72
    65
 73
     6
 40
21.6431095406362
 49
6.183745583038913
 49
-3.091872791519457
 49
6.183745583038913
 49
-3.091872791519457
 49
0.0
 49
-3.091872791519457
  0
LTYPE
  2
BORDER
 70
     0
  3
CADPAC LINETYPE
 72
    65
 73
     6
 40
17.31448763250896
 49
4.946996466431131
 49
-2.473498233215565
 49
4.946996466431131
 49
-2.473498233215565
 49
0.0
 49
-2.473498233215565
  0
LTYPE
  2
BORDER2
 70
     0
  3
CADPAC LINETYPE
 72
    65
 73
     6
 40
12.86219081272091
 49
3.957597173144848
 49
-2.473498233215594
 49
1.484098939929311
 49
-2.473498233215594
 49
0.0
 49
-2.473498233215565
  0
LTYPE
  2
PHANTOMX2
 70
     0
  3
CADPAC LINETYPE
 72
    65
 73
     6
 40
18.55123674911674
 49
6.183745583038913
 49
-2.473498233215565
 49
2.473498233215565
 49
-2.473498233215565
 49
2.473498233215565
 49
-2.473498233215565
  0
LTYPE
  2
PHANTOM
 70
     0
  3
CADPAC LINETYPE
 72
    65
 73
     6
 40
15.33568904593651
 49
4.946996466431131
 49
-2.473498233215565
 49
1.484098939929339
 49
-2.473498233215565
 49
1.484098939929339
 49
-2.473498233215565
  0
LTYPE
  2
PHANTOM2
 70
     0
  3
CADPAC LINETYPE
 72
    65
 73
     6
 40
13.1095406360425
 49
3.710247349823348
 49
-2.473498233215565
 49
0.9893992932862261
 49
-2.473498233215565
 49
0.9893992932862261
 49
-2.473498233215565
  0
LTYPE
  2
ACAD_ISO06W100
 70
     0
  3
CADPAC LINETYPE
 72
    65
 73
     8
 40
26.21908127208496
 49
11.87279151943466
 49
-2.473498233215594
 49
1.484098939929311
 49
-2.473498233215594
 49
1.484098939929311
 49
-2.473498233215594
 49
1.484098939929311
 49
-2.473498233215594
  0
LTYPE
  2
ACAD_ISO13W100
 70
     0
  3
CADPAC LINETYPE
 72
    65
 73
     8
 40
19.78798586572452
 49
4.946996466431131
 49
-2.473498233215565
 49
4.946996466431131
 49
-2.473498233215565
 49
0.0
 49
-2.473498233215565
 49
0.0
 49
-2.473498233215565
  0
LTYPE
  2
ACAD_ISO14W100
 70
     0
  3
CADPAC LINETYPE
 72
    65
 73
     8
 40
14.84098939929339
 49
4.946996466431131
 49
-2.473498233215565
 49
0.0
 49
-2.473498233215565
 49
0.0
 49
-2.473498233215565
 49
0.0
 49
-2.473498233215565
  0
ENDTAB
  0
TABLE
  2
LAYER
 70
     3
  0
LAYER
  2
0
 70
     0
 62
     7
  6
CONTINUOUS
  0
LAYER
  2
LAYER0014
 70
     0
 62
     7
  6
CONTINUOUS
  0
LAYER
  2
ZUWAKU
 70
     0
 62
     7
  6
CONTINUOUS
  0
ENDTAB
  0
TABLE
  2
STYLE
 70
     5
  0
STYLE
  2
STANDARD
 70
     0
 40
0.0
 41
1.0
 50
0.0
 71
     0
 42
0.2
  3
txt
  4

  0
STYLE
  2
FDASTYLE1
 70
     0
 40
0.0
 41
0.8000000000000003
 50
0.0
 71
     0
 42
0.2
  3
txt.shx
  4
bigfont
  0
STYLE
  2
FDASTYLE0
 70
     4
 40
0.0
 41
0.8
 50
0.0
 71
     0
 42
0.2
  3
txt.shx
  4
bigfont
  0
STYLE
  2
FDASTYLE2
 70
     0
 40
0.0
 41
0.8123476848090983
 50
0.0
 71
     0
 42
0.2
  3
MSMINCHO.TTC
  4

  0
STYLE
  2
FDASTYLE3
 70
     0
 40
0.0
 41
0.77
 50
0.0
 71
     0
 42
0.2
  3
MSGOTHIC.TTC
  4

  0
ENDTAB
  0
TABLE
  2
VIEW
 70
     0
  0
ENDTAB
  0
TABLE
  2
UCS
 70
     0
  0
ENDTAB
  0
TABLE
  2
APPID
 70
     2
  0
APPID
  2
ACAD
 70
     0
  0
APPID
  2
DAFUSIONOUT
 70
     0
  0
ENDTAB
  0
TABLE
  2
DIMSTYLE
 70
     1
  0
DIMSTYLE
  2
STANDARD
 70
     0
  3

  4

  5

  6

  7

 40
1.0
 41
0.18
 42
0.0625
 43
0.38
 44
0.18
 45
0.0
 46
0.0
 47
0.0
 48
0.0
140
0.18
141
0.09
142
0.0
143
25.4
144
1.0
145
0.0
146
1.0
147
0.09
 71
     0
 72
     0
 73
     1
 74
     1
 75
     0
 76
     0
 77
     0
 78
     0
170
     0
171
     2
172
     0
173
     0
174
     0
175
     0
176
     0
177
     0
178
     0
  0
ENDTAB
  0
ENDSEC
  0
SECTION
  2
BLOCKS
  0
BLOCK
  8
0
  2
$MODEL_SPACE
 70
     0
 10
0.0
 20
0.0
 30
0.0
  3
$MODEL_SPACE
  1

  0
ENDBLK
  5
21
  8
0
  0
BLOCK
 67
     1
  8
0
  2
$PAPER_SPACE
 70
     0
 10
0.0
 20
0.0
 30
0.0
  3
$PAPER_SPACE
  1

  0
ENDBLK
  5
1D
 67
     1
  8
0
  0
BLOCK
  8
0
  2
DA_IMAGEDIMGROUP_1
 70
     0
 10
0.0
 20
0.0
 30
0.0
  3
DA_IMAGEDIMGROUP_1
  1

  0
LINE
  5
A3
  8
LAYER0014
  6
CONTINUOUS
 62
     7
 10
-14.606479483003
 20
7.02755157241092
 30
0.0
 11
-14.606479483003
 21
-89.84824661484494
 31
0.0
  0
LINE
  5
A4
  8
LAYER0014
  6
CONTINUOUS
 62
     7
 10
73.393520516997
 20
-87.56224350205197
 30
0.0
 11
-14.606479483003
 21
-87.56224350205197
 31
0.0
  0
INSERT
  5
AB
  8
LAYER0014
 62
     7
  2
_OPEN30
 10
73.393520516997
 20
-87.56224350205197
 30
0.0
 41
1.50000139391263
 42
1.499998500689492
 50
360.0
  0
INSERT
  5
AC
  8
LAYER0014
 62
     7
  2
_OPEN30
 10
-14.606479483003
 20
-87.56224350205197
 30
0.0
 41
1.50000139391263
 42
1.499998500689492
 50
180.0
  0
TEXT
  5
AE
  8
LAYER0014
 62
     7
 10
26.193520516997
 20
-87.06224350205197
 30
0.0
 40
4.0
  1
88
 41
0.8000000000000003
  7
FDASTYLE1
 72
     5
 11
32.593520516997
 21
-87.06224350205197
 31
0.0
  0
ENDBLK
  5
4E
  8
0
  0
BLOCK
  8
0
  2
DA_IMAGEDIMGROUP_2
 70
     0
 10
0.0
 20
0.0
 30
0.0
  3
DA_IMAGEDIMGROUP_2
  1

  0
LINE
  5
AF
  8
LAYER0014
  6
CONTINUOUS
 62
     7
 10
-14.606479483003
 20
-87.56224350205197
 30
0.0
 11
-56.606479483003
 21
-87.56224350205197
 31
0.0
  0
INSERT
  5
B0
  8
LAYER0014
 62
     7
  2
_OPEN30
 10
-14.606479483003
 20
-87.56224350205197
 30
0.0
 41
1.50000139391263
 42
1.499998500689492
 50
360.0
  0
INSERT
  5
B1
  8
LAYER0014
 62
     7
  2
_OPEN30
 10
-56.606479483003
 20
-87.56224350205197
 30
0.0
 41
1.50000139391263
 42
1.499998500689492
 50
180.0
  0
TEXT
  5
B2
  8
LAYER0014
 62
     7
 10
-38.806479483003
 20
-87.06224350205197
 30
0.0
 40
4.0
  1
42
 41
0.8000000000000007
  7
FDASTYLE1
 72
     5
 11
-32.406479483003
 21
-87.06224350205197
 31
0.0
  0
ENDBLK
  5
51
  8
0
  0
BLOCK
  8
0
  2
DA_IMAGEDIMGROUP_3
 70
     0
 10
0.0
 20
0.0
 30
0.0
  3
DA_IMAGEDIMGROUP_3
  1

  0
LINE
  5
B3
  8
LAYER0014
  6
CONTINUOUS
 62
     7
 10
167.393520516997
 20
-70.86477859726682
 30
0.0
 11
167.393520516997
 21
-98.84824661484494
 31
0.0
  0
LINE
  5
B4
  8
LAYER0014
  6
CONTINUOUS
 62
     7
 10
-56.606479483003
 20
-96.56224350205197
 30
0.0
 11
167.393520516997
 21
-96.56224350205197
 31
0.0
  0
INSERT
  5
B5
  8
LAYER0014
 62
     7
  2
_OPEN30
 10
-56.606479483003
 20
-96.56224350205197
 30
0.0
 41
1.50000139391263
 42
1.499998500689492
 50
180.0
  0
INSERT
  5
B6
  8
LAYER0014
 62
     7
  2
_OPEN30
 10
167.393520516997
 20
-96.56224350205197
 30
0.0
 41
1.50000139391263
 42
1.499998500689492
 50
360.0
  0
TEXT
  5
B7
  8
LAYER0014
 62
     7
 10
50.593520516997
 20
-96.06224350205197
 30
0.0
 40
4.0
  1
224
 41
0.7999999999999995
  7
FDASTYLE1
 72
     5
 11
60.193520516997
 21
-96.06224350205197
 31
0.0
  0
ENDBLK
  5
54
  8
0
  0
BLOCK
  8
0
  2
DA_IMAGEDIMGROUP_4
 70
     0
 10
0.0
 20
0.0
 30
0.0
  3
DA_IMAGEDIMGROUP_4
  1

  0
LINE
  5
B8
  8
LAYER0014
  6
CONTINUOUS
 62
     7
 10
194.393520516997
 20
12.50124255904422
 30
0.0
 11
194.393520516997
 21
-107.8482466148449
 31
0.0
  0
LINE
  5
B9
  8
LAYER0014
  6
CONTINUOUS
 62
     7
 10
-56.606479483003
 20
13.43521682509647
 30
0.0
 11
-56.606479483003
 21
-107.8482466148449
 31
0.0
  0
LINE
  5
BA
  8
LAYER0014
  6
CONTINUOUS
 62
     7
 10
194.393520516997
 20
-105.562243502052
 30
0.0
 11
-56.606479483003
 21
-105.562243502052
 31
0.0
  0
INSERT
  5
BB
  8
LAYER0014
 62
     7
  2
_OPEN30
 10
194.393520516997
 20
-105.562243502052
 30
0.0
 41
1.50000139391263
 42
1.499998500689492
 50
360.0
  0
INSERT
  5
BC
  8
LAYER0014
 62
     7
  2
_OPEN30
 10
-56.606479483003
 20
-105.562243502052
 30
0.0
 41
1.50000139391263
 42
1.499998500689492
 50
180.0
  0
TEXT
  5
BD
  8
LAYER0014
 62
     7
 10
64.093520516997
 20
-105.062243502052
 30
0.0
 40
4.0
  1
251
 41
0.7999999999999995
  7
FDASTYLE1
 72
     5
 11
73.693520516997
 21
-105.062243502052
 31
0.0
  0
ENDBLK
  5
57
  8
0
  0
BLOCK
  8
0
  2
DA_IMAGEDIMGROUP_5
 70
     0
 10
0.0
 20
0.0
 30
0.0
  3
DA_IMAGEDIMGROUP_5
  1

  0
LINE
  5
BE
  8
LAYER0014
  6
CONTINUOUS
 62
     7
 10
-235.2235982220345
 20
93.94528060522063
 30
0.0
 11
-246.821464604854
 21
100.6412925660028
 31
0.0
  0
LINE
  5
BF
  8
LAYER0014
  6
CONTINUOUS
 62
     7
 10
-256.1671355167106
 20
38.17523619682527
 30
0.0
 11
-263.5591576115737
 21
38.17531285340148
 31
0.0
  0
ARC
  5
C0
  8
LAYER0014
  6
CONTINUOUS
 62
     7
 10
-138.6269720367139
 20
38.17521377333866
 30
0.0
 40
122.6462020874023
 50
150.0000110043195
 51
179.9999640278213
  0
INSERT
  5
C1
  8
LAYER0014
 62
     7
  2
_OPEN30
 10
-244.8417104998957
 20
99.49829441726769
 30
0.0
 41
1.50000139391263
 42
1.499998500689492
 50
60.35038360684526
  0
INSERT
  5
C2
  8
LAYER0014
 62
     7
  2
_OPEN30
 10
-261.2731741240921
 20
38.17529077466642
 30
0.0
 41
1.50000139391263
 42
1.499998500689492
 50
269.6495914252943
  0
TEXT
  5
C3
  8
LAYER0014
 62
     7
 10
-259.7701795531127
 20
66.14229773992328
 30
0.0
 40
4.0
  1
30ﾟ
 50
74.89999999999999
 41
0.8000000000000025
  7
FDASTYLE1
 72
     5
 11
-257.2693362701432
 21
75.41083499636387
 31
0.0
  0
ENDBLK
  5
5A
  8
0
  0
BLOCK
  8
0
  2
DA_IMAGEDIMGROUP_6
 70
     0
 10
0.0
 20
0.0
 30
0.0
  3
DA_IMAGEDIMGROUP_6
  1

  0
LINE
  5
C4
  8
LAYER0014
  6
CONTINUOUS
 62
     7
 10
-228.0385919792009
 20
14.21748411388855
 30
0.0
 11
-259.302345928519
 21
5.84039902965047
 31
0.0
  0
ARC
  5
C5
  8
LAYER0014
  6
CONTINUOUS
 62
     7
 10
-138.6271093658155
 20
38.17521377333866
 30
0.0
 40
122.6462020874023
 50
179.9999813306654
 51
194.9999919933621
  0
INSERT
  5
C6
  8
LAYER0014
 62
     7
  2
_OPEN30
 10
-261.2733114532114
 20
38.17525373654381
 30
0.0
 41
1.50000139391263
 42
1.499998500689492
 50
90.3503539331918
  0
INSERT
  5
C7
  8
LAYER0014
 62
     7
  2
_OPEN30
 10
-257.0942478941651
 20
6.432057418483861
 30
0.0
 41
1.50000139391263
 42
1.499998500689492
 50
284.6496193908372
  0
TEXT
  5
C8
  8
LAYER0014
 62
     7
 10
-259.2046086053296
 20
26.68123182289219
 30
0.0
 40
4.0
  1
15ﾟ
 50
-82.49999999999997
 41
0.800000000000002
  7
FDASTYLE1
 72
     5
 11
-257.9515571600171
 21
17.16336115370358
 31
0.0
  0
ENDBLK
  5
5D
  8
0
  0
BLOCK
  8
0
  2
DA_IMAGEDIMGROUP_7
 70
     0
 10
0.0
 20
0.0
 30
0.0
  3
DA_IMAGEDIMGROUP_7
  1

  0
LINE
  5
C9
  8
LAYER0014
  6
CONTINUOUS
 62
     7
 10
-204.1320326961784
 20
-27.32969306143664
 30
0.0
 11
-226.9675441693261
 21
-50.16518143591942
 31
0.0
  0
ARC
  5
CA
  8
LAYER0014
  6
CONTINUOUS
 62
     7
 10
-138.6271246246046
 20
38.17520614394412
 30
0.0
 40
122.6462020874023
 50
194.9999919933621
 51
224.999985997999
  0
INSERT
  5
CB
  8
LAYER0014
 62
     7
  2
_OPEN30
 10
-257.0942631529542
 20
6.43204978908933
 30
0.0
 41
1.50000139391263
 42
1.499998500689492
 50
105.3503645958873
  0
INSERT
  5
CC
  8
LAYER0014
 62
     7
  2
_OPEN30
 10
-225.3511070010699
 20
-48.54873384514113
 30
0.0
 41
1.50000139391263
 42
1.499998500689492
 50
314.6496133954735
  0
TEXT
  5
CD
  8
LAYER0014
 62
     7
 10
-245.6276649992862
 20
-18.58684887165068
 30
0.0
 40
4.0
  1
30ﾟ
 50
-59.99999999999999
 41
0.8000000000000016
  7
FDASTYLE1
 72
     5
 11
-240.8276649992862
 21
-26.90069274798131
 31
0.0
  0
ENDBLK
  5
60
  8
0
  0
BLOCK
  8
0
  2
DA_IMAGEDIMGROUP_8
 70
     0
 10
0.0
 20
0.0
 30
0.0
  3
DA_IMAGEDIMGROUP_8
  1

  0
LINE
  5
CE
  8
LAYER0014
  6
CONTINUOUS
 62
     7
 10
-138.6275213531202
 20
-79.36478622666135
 30
0.0
 11
-138.6275213531202
 21
-86.75700668564572
 31
0.0
  0
ARC
  5
CF
  8
LAYER0014
  6
CONTINUOUS
 62
     7
 10
-138.6271398833936
 20
38.17519851454959
 30
0.0
 40
122.6462020874023
 50
224.999985997999
 51
270.0000179860894
  0
INSERT
  5
D0
  8
LAYER0014
 62
     7
  2
_OPEN30
 10
-225.351122259859
 20
-48.54874147453566
 30
0.0
 41
1.50000139391263
 42
1.499998500689492
 50
135.3503586005246
  0
INSERT
  5
D1
  8
LAYER0014
 62
     7
  2
_OPEN30
 10
-138.6271013827298
 20
-84.47100357284671
 30
0.0
 41
1.50000139391263
 42
1.499998500689492
 50
359.6496453835634
  0
TEXT
  5
D2
  8
LAYER0014
 62
     7
 10
-188.9617855494638
 20
-71.99497255599162
 30
0.0
 40
4.0
  1
45ﾟ
 50
-22.49999999999999
 41
0.8000000000000012
  7
FDASTYLE1
 72
     5
 11
-180.0925420373555
 21
-75.66873350669648
 31
0.0
  0
ENDBLK
  5
63
  8
0
  0
BLOCK
  8
0
  2
DA_IMAGEDIMGROUP_9
 70
     0
 10
0.0
 20
0.0
 30
0.0
  3
DA_IMAGEDIMGROUP_9
  1

  0
LINE
  5
D3
  8
LAYER0014
  6
CONTINUOUS
 62
     7
 10
-58.14648329770026
 20
61.17521377333866
 30
0.0
 11
-72.6771467498487
 21
61.17521377333866
 31
0.0
  0
LINE
  5
D4
  8
LAYER0014
  6
CONTINUOUS
 62
     7
 10
-58.146479483003
 20
15.17522140273319
 30
0.0
 11
-72.6771467498487
 21
15.17522140273319
 31
0.0
  0
LINE
  5
D5
  8
LAYER0014
  6
CONTINUOUS
 62
     7
 10
-70.391147451753
 20
61.17521377333866
 30
0.0
 11
-70.391147451753
 21
15.17522140273319
 31
0.0
  0
INSERT
  5
D6
  8
LAYER0014
 62
     7
  2
_OPEN30
 10
-70.391147451753
 20
61.17521377333866
 30
0.0
 41
1.50000139391263
 42
1.499998500689492
 50
90.0
  0
INSERT
  5
D7
  8
LAYER0014
 62
     7
  2
_OPEN30
 10
-70.391147451753
 20
15.17522140273319
 30
0.0
 41
1.50000139391263
 42
1.499998500689492
 50
270.0
  0
TEXT
  5
D8
  8
LAYER0014
 62
     7
 10
-70.91348765483649
 20
25.37523708354584
 30
0.0
 40
4.0
  1
M46×Ｐ1.5
 50
89.90000000000001
 41
0.7619047619047618
  7
FDASTYLE1
 72
     5
 11
-70.8688072486695
 21
50.975198092526
 31
0.0
  0
ENDBLK
  5
66
  8
0
  0
BLOCK
  8
0
  2
DA_IMAGEDIMGROUP_10
 70
     0
 10
0.0
 20
0.0
 30
0.0
  3
DA_IMAGEDIMGROUP_10
  1

  0
LINE
  5
D9
  8
LAYER0014
  6
CONTINUOUS
 62
     7
 10
-17.146479483003
 20
67.67521377333866
 30
0.0
 11
-83.00644286190925
 21
67.67521377333866
 31
0.0
  0
LINE
  5
DA
  8
LAYER0014
  6
CONTINUOUS
 62
     7
 10
-17.146479483003
 20
8.675221402733186
 30
0.0
 11
-83.00644286190925
 21
8.675221402733186
 31
0.0
  0
LINE
  5
DB
  8
LAYER0014
  6
CONTINUOUS
 62
     7
 10
-80.72043974911628
 20
67.67521377333866
 30
0.0
 11
-80.72043974911628
 21
8.675221402733186
 31
0.0
  0
INSERT
  5
DC
  8
LAYER0014
 62
     7
  2
_OPEN30
 10
-80.72043974911628
 20
67.67521377333866
 30
0.0
 41
1.50000139391263
 42
1.499998500689492
 50
90.0
  0
INSERT
  5
DD
  8
LAYER0014
 62
     7
  2
_OPEN30
 10
-80.72043974911628
 20
8.675221402733186
 30
0.0
 41
1.50000139391263
 42
1.499998500689492
 50
270.0
  0
TEXT
  5
DE
  8
LAYER0014
 62
     7
 10
-81.24557247758521
 20
23.77523952048457
 30
0.0
 40
4.0
  1
M59×Ｐ1.25
 50
89.90000000000001
 41
0.7659574468085109
  7
FDASTYLE1
 72
     5
 11
-81.19530702064735
 21
52.57519565558727
 31
0.0
  0
ENDBLK
  5
69
  8
0
  0
BLOCK
  8
0
  2
DA_IMAGEDIMGROUP_11
 70
     0
 10
0.0
 20
0.0
 30
0.0
  3
DA_IMAGEDIMGROUP_11
  1

  0
LINE
  5
DF
  8
LAYER0014
  6
CONTINUOUS
 62
     7
 10
-14.646479483003
 20
80.67521377333866
 30
0.0
 11
-93.18983824765144
 21
80.67521377333866
 31
0.0
  0
LINE
  5
E0
  8
LAYER0014
  6
CONTINUOUS
 62
     7
 10
-14.646479483003
 20
-4.324778597266814
 30
0.0
 11
-93.18983824765144
 21
-4.324778597266814
 31
0.0
  0
LINE
  5
E1
  8
LAYER0014
  6
CONTINUOUS
 62
     7
 10
-90.90383513485847
 20
80.67521377333866
 30
0.0
 11
-90.90383513485847
 21
-4.324778597266814
 31
0.0
  0
INSERT
  5
E2
  8
LAYER0014
 62
     7
  2
_OPEN30
 10
-90.90383513485847
 20
80.67521377333866
 30
0.0
 41
1.50000139391263
 42
1.499998500689492
 50
90.0
  0
INSERT
  5
E3
  8
LAYER0014
 62
     7
  2
_OPEN30
 10
-90.90383513485847
 20
-4.324778597266814
 30
0.0
 41
1.50000139391263
 42
1.499998500689492
 50
270.0
  0
TEXT
  5
E4
  8
LAYER0014
 62
     7
 10
-91.41221271101479
 20
33.37522489885215
 30
0.0
 40
4.0
  1
φ85
 50
89.90000000000001
 41
0.7499999999999996
  7
FDASTYLE1
 72
     5
 11
-91.39545755870216
 21
42.9752102772197
 31
0.0
  0
ENDBLK
  5
6C
  8
0
  0
BLOCK
  8
0
  2
DA_IMAGEDIMGROUP_12
 70
     0
 10
0.0
 20
0.0
 30
0.0
  3
DA_IMAGEDIMGROUP_12
  1

  0
LINE
  5
E5
  8
LAYER0014
  6
CONTINUOUS
 62
     7
 10
-20.43114363705573
 20
85.17521377333866
 30
0.0
 11
-103.8159826568311
 21
85.17521377333866
 31
0.0
  0
LINE
  5
E6
  8
LAYER0014
  6
CONTINUOUS
 62
     7
 10
-101.5299795440382
 20
85.17521377333866
 30
0.0
 11
-101.5299795440382
 21
5.675221402733186
 31
0.0
  0
INSERT
  5
E7
  8
LAYER0014
 62
     7
  2
_OPEN30
 10
-101.5299795440382
 20
85.17521377333866
 30
0.0
 41
1.50000139391263
 42
1.499998500689492
 50
90.0
  0
TEXT
  5
E8
  8
LAYER0014
 62
     7
 10
-102.0662823740488
 20
24.62524926823954
 30
0.0
 40
4.0
  1
3-M5×10 PCD94
 50
89.90000000000001
 41
0.7878787878787877
  7
FDASTYLE1
 72
     5
 11
-101.9936767140275
 21
66.2251859078323
 31
0.0
  0
ENDBLK
  5
6F
  8
0
  0
BLOCK
  8
0
  2
DA_IMAGEDIMGROUP_13
 70
     0
 10
0.0
 20
0.0
 30
0.0
  3
DA_IMAGEDIMGROUP_13
  1

  0
LINE
  5
E9
  8
LAYER0014
  6
CONTINUOUS
 62
     7
 10
-15.14647757565437
 20
89.67521377333866
 30
0.0
 11
-113.9993780425733
 21
89.67521377333866
 31
0.0
  0
LINE
  5
EA
  8
LAYER0014
  6
CONTINUOUS
 62
     7
 10
-15.146479483003
 20
-13.32477859726681
 30
0.0
 11
-113.9993780425733
 21
-13.32477859726681
 31
0.0
  0
LINE
  5
EB
  8
LAYER0014
  6
CONTINUOUS
 62
     7
 10
-111.7133673003858
 20
89.67521377333866
 30
0.0
 11
-111.7133673003858
 21
-13.32477859726681
 31
0.0
  0
INSERT
  5
EC
  8
LAYER0014
 62
     7
  2
_OPEN30
 10
-111.7133673003858
 20
89.67521377333866
 30
0.0
 41
1.50000139391263
 42
1.499998500689492
 50
90.0
  0
INSERT
  5
ED
  8
LAYER0014
 62
     7
  2
_OPEN30
 10
-111.7133673003858
 20
-13.32477859726681
 30
0.0
 41
1.50000139391263
 42
1.499998500689492
 50
270.0
  0
TEXT
  5
EE
  8
LAYER0014
 62
     7
 10
-112.2301224526984
 20
28.57523220966836
 30
0.0
 40
4.0
  1
φ103f7
 50
89.90000000000001
 41
0.7741935483870963
  7
FDASTYLE1
 72
     5
 11
-112.1966121480732
 21
47.77520296640348
 31
0.0
  0
ENDBLK
  5
72
  8
0
  0
BLOCK
  8
0
  2
DA_IMAGEDIMGROUP_14
 70
     0
 10
0.0
 20
0.0
 30
0.0
  3
DA_IMAGEDIMGROUP_14
  1

  0
LINE
  5
EF
  8
LAYER0014
  6
CONTINUOUS
 62
     7
 10
-56.606479483003
 20
63.71521377333865
 30
0.0
 11
-56.606479483003
 21
108.6860169959949
 31
0.0
  0
LINE
  5
F0
  8
LAYER0014
  6
CONTINUOUS
 62
     7
 10
3.393520516997
 20
63.71521377333865
 30
0.0
 11
3.393520516997
 21
108.6860169959949
 31
0.0
  0
LINE
  5
F1
  8
LAYER0014
  6
CONTINUOUS
 62
     7
 10
-56.606479483003
 20
107.6860169959949
 30
0.0
 11
3.393520516997
 21
107.6860169959949
 31
0.0
  0
INSERT
  5
F2
  8
LAYER0014
 62
     7
  2
_OPEN30
 10
-56.606479483003
 20
107.6860169959949
 30
0.0
 41
1.50000139391263
 42
1.499998500689492
 50
180.0
  0
INSERT
  5
F3
  8
LAYER0014
 62
     7
  2
_OPEN30
 10
3.393520516997
 20
107.6860169959949
 30
0.0
 41
1.50000139391263
 42
1.499998500689492
 50
360.0
  0
TEXT
  5
F4
  8
LAYER0014
 62
     7
 10
-28.47911337952774
 20
108.1860169959949
 30
0.0
 40
4.0
  1
60
 41
0.7999999999999998
  7
FDASTYLE1
 72
     5
 11
-22.07911337952774
 21
108.1860169959949
 31
0.0
  0
ENDBLK
  5
75
  8
0
  0
BLOCK
  8
0
  2
DA_IMAGEDIMGROUP_15
 70
     0
 10
0.0
 20
0.0
 30
0.0
  3
DA_IMAGEDIMGROUP_15
  1

  0
LINE
  5
F5
  8
LAYER0014
  6
CONTINUOUS
 62
     7
 10
-1.606479483003
 20
26.66913123854862
 30
0.0
 11
-56.606479483003
 21
26.66913123854862
 31
0.0
  0
INSERT
  5
F6
  8
LAYER0014
 62
     7
  2
_OPEN30
 10
-1.606479483003
 20
26.66913123854862
 30
0.0
 41
1.50000139391263
 42
1.499998500689492
 50
360.0
  0
INSERT
  5
F7
  8
LAYER0014
 62
     7
  2
_OPEN30
 10
-56.606479483003
 20
26.66913123854862
 30
0.0
 41
1.50000139391263
 42
1.499998500689492
 50
180.0
  0
TEXT
  5
F8
  8
LAYER0014
 62
     7
 10
-32.306479483003
 20
27.16913123854862
 30
0.0
 40
4.0
  1
55
 41
0.8000000000000003
  7
FDASTYLE1
 72
     5
 11
-25.906479483003
 21
27.16913123854862
 31
0.0
  0
ENDBLK
  5
78
  8
0
  0
BLOCK
  8
0
  2
DA_IMAGEDIMGROUP_16
 70
     0
 10
0.0
 20
0.0
 30
0.0
  3
DA_IMAGEDIMGROUP_16
  1

  0
LINE
  5
F9
  8
LAYER0014
  6
CONTINUOUS
 62
     7
 10
196.933520516997
 20
59.17521377333866
 30
0.0
 11
211.5615197845751
 21
59.17521377333866
 31
0.0
  0
LINE
  5
FA
  8
LAYER0014
  6
CONTINUOUS
 62
     7
 10
196.933520516997
 20
17.17522140273319
 30
0.0
 11
211.5615197845751
 21
17.17522140273319
 31
0.0
  0
LINE
  5
FB
  8
LAYER0014
  6
CONTINUOUS
 62
     7
 10
209.2755395599658
 20
59.17522140273319
 30
0.0
 11
209.2755395599658
 21
17.17522140273319
 31
0.0
  0
INSERT
  5
FC
  8
LAYER0014
 62
     7
  2
_OPEN30
 10
209.2755395599658
 20
59.17522140273319
 30
0.0
 41
1.50000139391263
 42
1.499998500689492
 50
90.0
  0
INSERT
  5
FD
  8
LAYER0014
 62
     7
  2
_OPEN30
 10
209.2755395599658
 20
17.17522140273319
 30
0.0
 41
1.50000139391263
 42
1.499998500689492
 50
270.0
  0
TEXT
  5
FE
  8
LAYER0014
 62
     7
 10
208.7531993568823
 20
25.37524089824309
 30
0.0
 40
4.0
  1
M42×P1.5
 50
89.90000000000001
 41
0.7804878048780496
  7
FDASTYLE1
 72
     5
 11
208.7978797630493
 21
50.97520190722328
 31
0.0
  0
ENDBLK
  5
7B
  8
0
  0
BLOCK
  8
0
  2
DA_IMAGEDIMGROUP_17
 70
     0
 10
0.0
 20
0.0
 30
0.0
  3
DA_IMAGEDIMGROUP_17
  1

  0
LINE
  5
FF
  8
LAYER0014
  6
CONTINUOUS
 62
     7
 10
195.433520516997
 20
62.17521377333866
 30
0.0
 11
222.1970788666064
 21
62.17521377333866
 31
0.0
  0
LINE
  5
100
  8
LAYER0014
  6
CONTINUOUS
 62
     7
 10
195.433520516997
 20
14.17522140273319
 30
0.0
 11
222.1970788666064
 21
14.17522140273319
 31
0.0
  0
LINE
  5
101
  8
LAYER0014
  6
CONTINUOUS
 62
     7
 10
219.9110833832079
 20
62.17522140273319
 30
0.0
 11
219.9110833832079
 21
14.17522140273319
 31
0.0
  0
INSERT
  5
102
  8
LAYER0014
 62
     7
  2
_OPEN30
 10
219.9110833832079
 20
62.17522140273319
 30
0.0
 41
1.50000139391263
 42
1.499998500689492
 50
90.0
  0
INSERT
  5
103
  8
LAYER0014
 62
     7
  2
_OPEN30
 10
219.9110833832079
 20
14.17522140273319
 30
0.0
 41
1.50000139391263
 42
1.499998500689492
 50
270.0
  0
TEXT
  5
104
  8
LAYER0014
 62
     7
 10
219.4027058070516
 20
33.3752287135494
 30
0.0
 40
4.0
  1
φ48
 50
89.90000000000001
 41
0.7500000000000018
  7
FDASTYLE1
 72
     5
 11
219.4194609593642
 21
42.97521409191698
 31
0.0
  0
ENDBLK
  5
7E
  8
0
  0
BLOCK
  8
0
  2
DA_IMAGEDIMGROUP_18
 70
     0
 10
0.0
 20
0.0
 30
0.0
  3
DA_IMAGEDIMGROUP_18
  1

  0
LINE
  5
105
  8
LAYER0014
  6
CONTINUOUS
 62
     7
 10
174.433520516997
 20
100.6752137733387
 30
0.0
 11
232.8232385345751
 21
100.6752137733387
 31
0.0
  0
LINE
  5
106
  8
LAYER0014
  6
CONTINUOUS
 62
     7
 10
174.433520516997
 20
-24.32477859726681
 30
0.0
 11
232.8232385345751
 21
-24.32477859726681
 31
0.0
  0
LINE
  5
107
  8
LAYER0014
  6
CONTINUOUS
 62
     7
 10
230.5372430511767
 20
100.6752214027332
 30
0.0
 11
230.5372430511767
 21
-24.32477859726681
 31
0.0
  0
INSERT
  5
108
  8
LAYER0014
 62
     7
  2
_OPEN30
 10
230.5372430511767
 20
100.6752214027332
 30
0.0
 41
1.50000139391263
 42
1.499998500689492
 50
90.0
  0
INSERT
  5
109
  8
LAYER0014
 62
     7
  2
_OPEN30
 10
230.5372430511767
 20
-24.32477859726681
 30
0.0
 41
1.50000139391263
 42
1.499998500689492
 50
270.0
  0
TEXT
  5
10A
  8
LAYER0014
 62
     7
 10
230.0204878988641
 20
28.57523602436563
 30
0.0
 40
4.0
  1
φ125h6
 50
89.90000000000001
 41
0.7741935483870963
  7
FDASTYLE1
 72
     5
 11
230.0539982034893
 21
47.77520678110074
 31
0.0
  0
ENDBLK
  5
81
  8
0
  0
BLOCK
  8
0
  2
DA_IMAGEDIMGROUP_19
 70
     0
 10
0.0
 20
0.0
 30
0.0
  3
DA_IMAGEDIMGROUP_19
  1

  0
LINE
  5
10B
  8
LAYER0014
  6
CONTINUOUS
 62
     7
 10
168.4335357757861
 20
-69.82477859726681
 30
0.0
 11
254.9610711761767
 21
-69.82477859726681
 31
0.0
  0
LINE
  5
10C
  8
LAYER0014
  6
CONTINUOUS
 62
     7
 10
168.433520516997
 20
146.1752137733387
 30
0.0
 11
254.9610711761767
 21
146.1752137733387
 31
0.0
  0
LINE
  5
10D
  8
LAYER0014
  6
CONTINUOUS
 62
     7
 10
252.6750604339892
 20
-69.82477859726681
 30
0.0
 11
252.6750604339892
 21
146.1752137733387
 31
0.0
  0
INSERT
  5
10E
  8
LAYER0014
 62
     7
  2
_OPEN30
 10
252.6750604339892
 20
-69.82477859726681
 30
0.0
 41
1.50000139391263
 42
1.499998500689492
 50
270.0
  0
INSERT
  5
10F
  8
LAYER0014
 62
     7
  2
_OPEN30
 10
252.6750604339892
 20
146.1752137733387
 30
0.0
 41
1.50000139391263
 42
1.499998500689492
 50
90.0
  0
TEXT
  5
110
  8
LAYER0014
 62
     7
 10
252.1750604339892
 20
31.77521758803592
 30
0.0
 40
4.0
  1
φ216
 50
90.0
 41
0.7619047619047609
  7
FDASTYLE1
 72
     5
 11
252.1750604339892
 21
44.5752175880359
 31
0.0
  0
ENDBLK
  5
84
  8
0
  0
BLOCK
  8
0
  2
DA_IMAGEDIMGROUP_20
 70
     0
 10
0.0
 20
0.0
 30
0.0
  3
DA_IMAGEDIMGROUP_20
  1

  0
LINE
  5
111
  8
LAYER0014
  6
CONTINUOUS
 62
     7
 10
167.393520516997
 20
147.2152137733386
 30
0.0
 11
167.393520516997
 21
163.1868867469715
 31
0.0
  0
LINE
  5
112
  8
LAYER0014
  6
CONTINUOUS
 62
     7
 10
41.893520516997
 20
124.9748039222644
 30
0.0
 11
41.893520516997
 21
172.2342195106434
 31
0.0
  0
LINE
  5
113
  8
LAYER0014
  6
CONTINUOUS
 62
     7
 10
167.393520516997
 20
160.900891263573
 30
0.0
 11
41.893520516997
 21
160.900891263573
 31
0.0
  0
INSERT
  5
114
  8
LAYER0014
 62
     7
  2
_OPEN30
 10
167.393520516997
 20
160.900891263573
 30
0.0
 41
1.50000139391263
 42
1.499998500689492
 50
360.0
  0
INSERT
  5
115
  8
LAYER0014
 62
     7
  2
_OPEN30
 10
41.893520516997
 20
160.900891263573
 30
0.0
 41
1.50000139391263
 42
1.499998500689492
 50
180.0
  0
TEXT
  5
116
  8
LAYER0014
 62
     7
 10
96.643520516997
 20
161.400891263573
 30
0.0
 40
4.0
  1
125.5
 41
0.8
  7
FDASTYLE1
 72
     5
 11
112.643520516997
 21
161.400891263573
 31
0.0
  0
ENDBLK
  5
87
  8
0
  0
BLOCK
  8
0
  2
DA_IMAGEDIMGROUP_21
 70
     0
 10
0.0
 20
0.0
 30
0.0
  3
DA_IMAGEDIMGROUP_21
  1

  0
LINE
  5
117
  8
LAYER0014
  6
CONTINUOUS
 62
     7
 10
23.893520516997
 20
124.9748039222644
 30
0.0
 11
23.893520516997
 21
172.2342195106434
 31
0.0
  0
LINE
  5
118
  8
LAYER0014
  6
CONTINUOUS
 62
     7
 10
41.893520516997
 20
160.900891263573
 30
0.0
 11
23.893520516997
 21
160.900891263573
 31
0.0
  0
INSERT
  5
119
  8
LAYER0014
 62
     7
  2
_OPEN30
 10
41.893520516997
 20
160.900891263573
 30
0.0
 41
1.50000139391263
 42
1.499998500689492
 50
360.0
  0
INSERT
  5
11A
  8
LAYER0014
 62
     7
  2
_OPEN30
 10
23.893520516997
 20
160.900891263573
 30
0.0
 41
1.50000139391263
 42
1.499998500689492
 50
180.0
  0
TEXT
  5
11B
  8
LAYER0014
 62
     7
 10
29.693520516997
 20
161.400891263573
 30
0.0
 40
4.0
  1
18
 41
0.8000000000000003
  7
FDASTYLE1
 72
     5
 11
36.093520516997
 21
161.400891263573
 31
0.0
  0
ENDBLK
  5
8A
  8
0
  0
BLOCK
  8
0
  2
DA_IMAGEDIMGROUP_22
 70
     0
 10
0.0
 20
0.0
 30
0.0
  3
DA_IMAGEDIMGROUP_22
  1

  0
LINE
  5
11C
  8
LAYER0014
  6
CONTINUOUS
 62
     7
 10
95.393520516997
 20
-72.36477859726682
 30
0.0
 11
95.393520516997
 21
-89.84824661484494
 31
0.0
  0
LINE
  5
11D
  8
LAYER0014
  6
CONTINUOUS
 62
     7
 10
167.393520516997
 20
-87.56224350205197
 30
0.0
 11
95.393520516997
 21
-87.56224350205197
 31
0.0
  0
INSERT
  5
11E
  8
LAYER0014
 62
     7
  2
_OPEN30
 10
167.393520516997
 20
-87.56224350205197
 30
0.0
 41
1.50000139391263
 42
1.499998500689492
 50
360.0
  0
INSERT
  5
11F
  8
LAYER0014
 62
     7
  2
_OPEN30
 10
95.393520516997
 20
-87.56224350205197
 30
0.0
 41
1.50000139391263
 42
1.499998500689492
 50
180.0
  0
TEXT
  5
120
  8
LAYER0014
 62
     7
 10
128.193520516997
 20
-87.06224350205197
 30
0.0
 40
4.0
  1
72
 41
0.7999999999999972
  7
FDASTYLE1
 72
     5
 11
134.593520516997
 21
-87.06224350205197
 31
0.0
  0
ENDBLK
  5
8D
  8
0
  0
BLOCK
  8
0
  2
DA_IMAGEDIMGROUP_23
 70
     0
 10
0.0
 20
0.0
 30
0.0
  3
DA_IMAGEDIMGROUP_23
  1

  0
LINE
  5
121
  8
LAYER0014
  6
CONTINUOUS
 62
     7
 10
73.393520516997
 20
-28.86477859726681
 30
0.0
 11
73.393520516997
 21
-89.84824661484494
 31
0.0
  0
LINE
  5
122
  8
LAYER0014
  6
CONTINUOUS
 62
     7
 10
95.393520516997
 20
-87.56224350205197
 30
0.0
 11
73.393520516997
 21
-87.56224350205197
 31
0.0
  0
INSERT
  5
123
  8
LAYER0014
 62
     7
  2
_OPEN30
 10
95.393520516997
 20
-87.56224350205197
 30
0.0
 41
1.50000139391263
 42
1.499998500689492
 50
360.0
  0
INSERT
  5
124
  8
LAYER0014
 62
     7
  2
_OPEN30
 10
73.393520516997
 20
-87.56224350205197
 30
0.0
 41
1.50000139391263
 42
1.499998500689492
 50
180.0
  0
TEXT
  5
125
  8
LAYER0014
 62
     7
 10
81.193520516997
 20
-87.06224350205197
 30
0.0
 40
4.0
  1
22
 41
0.8000000000000007
  7
FDASTYLE1
 72
     5
 11
87.593520516997
 21
-87.06224350205197
 31
0.0
  0
ENDBLK
  5
90
  8
0
  0
BLOCK
  8
0
  2
DC_GROUP_1
 70
     0
 10
0.0
 20
0.0
 30
0.0
  3
DC_GROUP_1
  1

  0
LINE
  5
126
  8
LAYER0014
  6
CONTINUOUS
 62
     7
 10
42.10884477460752
 20
116.9008763352411
 30
0.0
 11
54.77551401101175
 21
132.2341900061746
 31
0.0
  0
INSERT
  5
127
  8
LAYER0014
 62
     7
  2
_OPEN30
 10
42.10884477460752
 20
116.9008763352411
 30
0.0
 41
1.50000139391263
 42
1.499998500689492
 50
230.4402902479113
  0
LINE
  5
128
  8
LAYER0014
  6
CONTINUOUS
 62
     7
 10
54.77550904238763
 20
132.2341889930652
 30
0.0
 11
72.68980805361809
 21
132.2341889930652
 31
0.0
  0
TEXT
  5
129
  8
LAYER0014
 62
     7
 10
55.77552430117669
 20
133.8341889930652
 30
0.0
 40
4.0
  1
Rc3/8
 41
0.8
  7
FDASTYLE1
 72
     5
 11
71.77552430117669
 21
133.8341889930652
 31
0.0
  0
ENDBLK
  5
93
  8
0
  0
BLOCK
  8
0
  2
DC_GROUP_2
 70
     0
 10
0.0
 20
0.0
 30
0.0
  3
DC_GROUP_2
  1

  0
LINE
  5
12A
  8
LAYER0014
  6
CONTINUOUS
 62
     7
 10
29.1088335277225
 20
-13.59910947024272
 30
0.0
 11
18.72842541387581
 21
-35.53484596514456
 31
0.0
  0
INSERT
  5
12B
  8
LAYER0014
 62
     7
  2
_OPEN30
 10
29.1088335277225
 20
-13.59910947024272
 30
0.0
 41
1.50000139391263
 42
1.499998500689492
 50
64.67559614751571
  0
LINE
  5
12C
  8
LAYER0014
  6
CONTINUOUS
 62
     7
 10
18.72842614138665
 20
-35.53484634629025
 30
0.0
 11
0.8987561889940707
 21
-35.53484634629025
 31
0.0
  0
TEXT
  5
12D
  8
LAYER0014
 62
     7
 10
2.976058168059012
 20
-33.93484634629025
 30
0.0
 40
4.0
  1
M12×8
 41
0.7692307692307692
  7
FDASTYLE1
 72
     5
 11
18.97605816805901
 21
-33.93484634629025
 31
0.0
  0
ENDBLK
  5
96
  8
0
  0
BLOCK
  8
0
  2
DA_IMAGEDIMGROUP_24
 70
     0
 10
0.0
 20
0.0
 30
0.0
  3
DA_IMAGEDIMGROUP_24
  1

  0
LINE
  5
12E
  8
LAYER0014
  6
CONTINUOUS
 62
     7
 10
183.5935327240283
 20
-68.36477859726682
 30
0.0
 11
183.5935327240283
 21
-88.56224350205197
 31
0.0
  0
LINE
  5
12F
  8
LAYER0014
  6
CONTINUOUS
 62
     7
 10
183.5935327240283
 20
-87.56224350205197
 30
0.0
 11
167.393520516997
 21
-87.56224350205197
 31
0.0
  0
INSERT
  5
130
  8
LAYER0014
 62
     7
  2
_OPEN30
 10
183.5935327240283
 20
-87.56224350205197
 30
0.0
 41
1.50000139391263
 42
1.499998500689492
 50
360.0
  0
INSERT
  5
131
  8
LAYER0014
 62
     7
  2
_OPEN30
 10
167.393520516997
 20
-87.56224350205197
 30
0.0
 41
1.50000139391263
 42
1.499998500689492
 50
180.0
  0
TEXT
  5
132
  8
LAYER0014
 62
     7
 10
172.6916303552014
 20
-87.06224350205197
 30
0.0
 40
4.0
  1
16
 41
0.7999999999999972
  7
FDASTYLE1
 72
     5
 11
179.0916303552014
 21
-87.06224350205197
 31
0.0
  0
ENDBLK
  5
99
  8
0
  0
BLOCK
  8
0
  2
DA_IMAGEDIMGROUP_25
 70
     0
 10
0.0
 20
0.0
 30
0.0
  3
DA_IMAGEDIMGROUP_25
  1

  0
LINE
  5
133
  8
0
  6
CONTINUOUS
 62
     7
 10
-16.20425139015858
 20
20.17522140273319
 30
0.0
 11
-16.20425139015858
 21
56.17521377333866
 31
0.0
  0
INSERT
  5
134
  8
0
 62
     7
  2
_OPEN30
 10
-16.20425139015858
 20
20.17522140273319
 30
0.0
 41
1.50000139391263
 42
1.499998500689492
 50
270.0
  0
INSERT
  5
135
  8
0
 62
     7
  2
_OPEN30
 10
-16.20425139015858
 20
56.17521377333866
 30
0.0
 41
1.50000139391263
 42
1.499998500689492
 50
90.0
  0
TEXT
  5
136
  8
0
 62
     7
 10
-16.70425139015858
 20
27.92521758803592
 30
0.0
 40
4.0
  1
φ36
 50
90.0
 41
0.7499999999999998
  7
FDASTYLE1
 72
     5
 11
-16.70425139015858
 21
37.52521758803592
 31
0.0
  0
TEXT
  5
137
  8
0
 62
     7
 10
-19.20425139015858
 20
38.02521758803592
 30
0.0
 40
2.6
  1
+0.05
 50
90.0
 41
0.7999999999999999
  7
FDASTYLE1
 72
     5
 11
-19.20425139015858
 21
48.42521758803591
 31
0.0
  0
TEXT
  5
138
  8
0
 62
     7
 10
-16.50425139015858
 20
38.02521758803592
 30
0.0
 40
2.6
  1
+0.01
 50
90.0
 41
0.7999999999999999
  7
FDASTYLE1
 72
     5
 11
-16.50425139015858
 21
48.42521758803591
 31
0.0
  0
ENDBLK
  5
9C
  8
0
  0
BLOCK
  8
0
  2
DA_IMAGEDIMGROUP_26
 70
     0
 10
0.0
 20
0.0
 30
0.0
  3
DA_IMAGEDIMGROUP_26
  1

  0
LINE
  5
139
  8
0
  6
CONTINUOUS
 62
     7
 10
63.37530759353921
 20
19.82522292861209
 30
0.0
 11
63.37530759353921
 21
56.52521987685428
 31
0.0
  0
INSERT
  5
13A
  8
0
 62
     7
  2
_OPEN30
 10
63.37530759353921
 20
19.82522292861209
 30
0.0
 41
1.50000139391263
 42
1.499998500689492
 50
270.0
  0
INSERT
  5
13B
  8
0
 62
     7
  2
_OPEN30
 10
63.37530759353921
 20
56.52521987685428
 30
0.0
 41
1.50000139391263
 42
1.499998500689492
 50
90.0
  0
TEXT
  5
13C
  8
0
 62
     7
 10
62.87530759353921
 20
30.17522140273318
 30
0.0
 40
4.0
  1
φ36
 50
90.0
 41
0.7500000000000007
  7
FDASTYLE1
 72
     5
 11
62.87530759353921
 21
39.77522140273319
 31
0.0
  0
TEXT
  5
13D
  8
0
 62
     7
 10
60.37530759353921
 20
40.27522140273319
 30
0.0
 40
2.6
  1
+0.4
 50
90.0
 41
0.8
  7
FDASTYLE1
 72
     5
 11
60.37530759353921
 21
48.59522140273319
 31
0.0
  0
TEXT
  5
13E
  8
0
 62
     7
 10
63.07530759353922
 20
40.27522140273319
 30
0.0
 40
2.6
  1
+0.2
 50
90.0
 41
0.8
  7
FDASTYLE1
 72
     5
 11
63.07530759353922
 21
48.59522140273319
 31
0.0
  0
ENDBLK
  5
9F
  8
0
  0
BLOCK
  8
0
  2
DA_IMAGEDIMGROUP_27
 70
     0
 10
0.0
 20
0.0
 30
0.0
  3
DA_IMAGEDIMGROUP_27
  1

  0
LINE
  5
13F
  8
0
  6
CONTINUOUS
 62
     7
 10
169.393520516997
 20
26.0191095613012
 30
0.0
 11
172.393520516997
 21
26.0191095613012
 31
0.0
  0
LINE
  5
140
  8
0
  6
CONTINUOUS
 62
     7
 10
162.261670516997
 20
26.0191095613012
 30
0.0
 11
169.393520516997
 21
26.0191095613012
 31
0.0
  0
INSERT
  5
141
  8
0
 62
     7
  2
_OPEN30
 10
169.393520516997
 20
26.0191095613012
 30
0.0
 41
1.50000139391263
 42
1.499998500689492
 50
360.0
  0
LINE
  5
142
  8
0
  6
CONTINUOUS
 62
     7
 10
172.393520516997
 20
26.0191095613012
 30
0.0
 11
194.393520516997
 21
26.0191095613012
 31
0.0
  0
INSERT
  5
143
  8
0
 62
     7
  2
_OPEN30
 10
172.393520516997
 20
26.0191095613012
 30
0.0
 41
1.50000139391263
 42
1.499998500689492
 50
180.0
  0
INSERT
  5
144
  8
0
 62
     7
  2
_OPEN30
 10
194.393520516997
 20
26.0191095613012
 30
0.0
 41
1.50000139391263
 42
1.499998500689492
 50
360.0
  0
TEXT
  5
145
  8
0
 62
     7
 10
163.261670516997
 20
26.5191095613012
 30
0.0
 40
4.0
  1
3
 41
0.7999999999999972
  7
FDASTYLE1
 72
     5
 11
166.461670516997
 21
26.5191095613012
 31
0.0
  0
TEXT
  5
146
  8
0
 62
     7
 10
180.193520516997
 20
26.5191095613012
 30
0.0
 40
4.0
  1
22
 41
0.7999999999999972
  7
FDASTYLE1
 72
     5
 11
186.593520516997
 21
26.5191095613012
 31
0.0
  0
ENDBLK
  5
A2
  8
0
  0
BLOCK
  8
0
  2
_OPEN30
 70
     0
 10
0.0
 20
0.0
 30
0.0
  3
_OPEN30
  1

  0
LINE
  5
A8
  8
0
  6
BYBLOCK
 62
     0
 10
-1.0
 20
0.267949
 30
0.0
 11
0.0
 21
0.0
 31
0.0
  0
LINE
  5
A9
  8
0
  6
BYBLOCK
 62
     0
 10
0.0
 20
0.0
 30
0.0
 11
-1.0
 21
-0.267949
 31
0.0
  0
LINE
  5
AA
  8
0
  6
BYBLOCK
 62
     0
 10
0.0
 20
0.0
 30
0.0
 11
-1.0
 21
0.0
 31
0.0
  0
ENDBLK
  5
A7
  8
0
  0
ENDSEC
  0
SECTION
  2
ENTITIES
  0
LINE
  5
147
  8
ZUWAKU
  6
CONTINUOUS
 62
     3
 10
-277.0
 20
-190.0
 30
0.0
 11
-277.0
 21
190.0
 31
0.0
  0
LINE
  5
148
  8
ZUWAKU
  6
CONTINUOUS
 62
     3
 10
277.0
 20
-190.0
 30
0.0
 11
277.0
 21
190.0
 31
0.0
  0
LINE
  5
149
  8
ZUWAKU
  6
CONTINUOUS
 62
     3
 10
-277.0
 20
-190.0
 30
0.0
 11
277.0
 21
-190.0
 31
0.0
  0
LINE
  5
14A
  8
ZUWAKU
  6
CONTINUOUS
 62
     3
 10
-277.0
 20
189.9999999999999
 30
0.0
 11
277.0
 21
189.9999999999999
 31
0.0
  0
LINE
  5
14B
  8
ZUWAKU
  6
CONTINUOUS
 62
     3
 10
97.00000000000001
 20
-190.0
 30
0.0
 11
97.00000000000001
 21
-130.0
 31
0.0
  0
LINE
  5
14C
  8
ZUWAKU
  6
CONTINUOUS
 62
     3
 10
97.00000000000001
 20
-176.0
 30
0.0
 11
277.0
 21
-176.0
 31
0.0
  0
LINE
  5
14D
  8
ZUWAKU
  6
CONTINUOUS
 62
     3
 10
146.0
 20
-162.0
 30
0.0
 11
277.0
 21
-162.0
 31
0.0
  0
LINE
  5
14E
  8
ZUWAKU
  6
CONTINUOUS
 62
     3
 10
146.0
 20
-148.0
 30
0.0
 11
277.0
 21
-148.0
 31
0.0
  0
LINE
  5
14F
  8
ZUWAKU
  6
CONTINUOUS
 62
     3
 10
146.0
 20
-138.0
 30
0.0
 11
277.0
 21
-138.0
 31
0.0
  0
LINE
  5
150
  8
ZUWAKU
  6
CONTINUOUS
 62
     3
 10
146.0
 20
-176.0
 30
0.0
 11
146.0
 21
-130.0
 31
0.0
  0
LINE
  5
151
  8
ZUWAKU
  6
CONTINUOUS
 62
     3
 10
255.0
 20
-176.0
 30
0.0
 11
255.0
 21
-130.0
 31
0.0
  0
LINE
  5
152
  8
ZUWAKU
  6
CONTINUOUS
 62
     3
 10
171.0
 20
-190.0
 30
0.0
 11
171.0
 21
-176.0
 31
0.0
  0
LINE
  5
153
  8
ZUWAKU
  6
CONTINUOUS
 62
     3
 10
97.00000000000001
 20
-130.0
 30
0.0
 11
277.0
 21
-130.0
 31
0.0
  0
LINE
  5
154
  8
ZUWAKU
  6
CONTINUOUS
 62
     3
 10
226.0
 20
-176.0
 30
0.0
 11
226.0
 21
-148.0
 31
0.0
  0
LINE
  5
155
  8
ZUWAKU
  6
CONTINUOUS
 62
     4
 10
105.0
 20
-172.0
 30
0.0
 11
105.0
 21
-130.0
 31
0.0
  0
LINE
  5
156
  8
ZUWAKU
  6
CONTINUOUS
 62
     4
 10
109.0
 20
-172.0
 30
0.0
 11
109.0
 21
-130.0
 31
0.0
  0
LINE
  5
157
  8
ZUWAKU
  6
CONTINUOUS
 62
     4
 10
121.5
 20
-176.0
 30
0.0
 11
121.5
 21
-130.0
 31
0.0
  0
LINE
  5
158
  8
ZUWAKU
  6
CONTINUOUS
 62
     4
 10
97.00000000000001
 20
-137.0
 30
0.0
 11
146.0
 21
-137.0
 31
0.0
  0
LINE
  5
159
  8
ZUWAKU
  6
CONTINUOUS
 62
     4
 10
97.00000000000001
 20
-144.0
 30
0.0
 11
146.0
 21
-144.0
 31
0.0
  0
LINE
  5
15A
  8
ZUWAKU
  6
CONTINUOUS
 62
     4
 10
97.00000000000001
 20
-165.0
 30
0.0
 11
146.0
 21
-165.0
 31
0.0
  0
LINE
  5
15B
  8
ZUWAKU
  6
CONTINUOUS
 62
     4
 10
97.00000000000001
 20
-172.0
 30
0.0
 11
146.0
 21
-172.0
 31
0.0
  0
LINE
  5
15C
  8
ZUWAKU
  6
CONTINUOUS
 62
     4
 10
255.0
 20
-166.0
 30
0.0
 11
277.0
 21
-166.0
 31
0.0
  0
LINE
  5
15D
  8
ZUWAKU
  6
CONTINUOUS
 62
     4
 10
153.0
 20
-139.5
 30
0.0
 11
153.0
 21
-130.0
 31
0.0
  0
LINE
  5
15E
  8
ZUWAKU
  6
CONTINUOUS
 62
     4
 10
202.0
 20
-148.0
 30
0.0
 11
202.0
 21
-146.5
 31
0.0
  0
LINE
  5
15F
  8
ZUWAKU
  6
CONTINUOUS
 62
     4
 10
226.0
 20
-148.0
 30
0.0
 11
226.0
 21
-146.5
 31
0.0
  0
LINE
  5
160
  8
ZUWAKU
  6
CONTINUOUS
 62
     4
 10
243.0
 20
-148.0
 30
0.0
 11
243.0
 21
-146.5
 31
0.0
  0
LINE
  5
161
  8
ZUWAKU
  6
CONTINUOUS
 62
     4
 10
202.0
 20
-139.5
 30
0.0
 11
202.0
 21
-130.0
 31
0.0
  0
LINE
  5
162
  8
ZUWAKU
  6
CONTINUOUS
 62
     4
 10
226.0
 20
-139.5
 30
0.0
 11
226.0
 21
-130.0
 31
0.0
  0
LINE
  5
163
  8
ZUWAKU
  6
CONTINUOUS
 62
     4
 10
243.0
 20
-139.5
 30
0.0
 11
243.0
 21
-130.0
 31
0.0
  0
LINE
  5
164
  8
ZUWAKU
  6
CONTINUOUS
 62
     4
 10
97.00000000000001
 20
-151.0
 30
0.0
 11
146.0
 21
-151.0
 31
0.0
  0
LINE
  5
165
  8
ZUWAKU
  6
CONTINUOUS
 62
     4
 10
97.00000000000001
 20
-158.0
 30
0.0
 11
146.0
 21
-158.0
 31
0.0
  0
LINE
  5
166
  8
ZUWAKU
  6
CONTINUOUS
 62
     4
 10
101.0
 20
-130.5
 30
0.0
 11
98.00000000000001
 21
-136.5
 31
0.0
  0
LINE
  5
167
  8
ZUWAKU
  6
CONTINUOUS
 62
     4
 10
101.0
 20
-130.5
 30
0.0
 11
104.0
 21
-136.5
 31
0.0
  0
LINE
  5
168
  8
ZUWAKU
  6
CONTINUOUS
 62
     4
 10
98.00000000000001
 20
-136.5
 30
0.0
 11
104.0
 21
-136.5
 31
0.0
  0
LINE
  5
169
  8
ZUWAKU
  6
CONTINUOUS
 62
     4
 10
101.0
 20
-158.5
 30
0.0
 11
98.00000000000001
 21
-164.5
 31
0.0
  0
LINE
  5
16A
  8
ZUWAKU
  6
CONTINUOUS
 62
     4
 10
101.0
 20
-158.5
 30
0.0
 11
104.0
 21
-164.5
 31
0.0
  0
LINE
  5
16B
  8
ZUWAKU
  6
CONTINUOUS
 62
     4
 10
98.00000000000001
 20
-164.5
 30
0.0
 11
104.0
 21
-164.5
 31
0.0
  0
LINE
  5
16C
  8
ZUWAKU
  6
CONTINUOUS
 62
     4
 10
101.0
 20
-151.5
 30
0.0
 11
98.00000000000001
 21
-157.5
 31
0.0
  0
LINE
  5
16D
  8
ZUWAKU
  6
CONTINUOUS
 62
     4
 10
101.0
 20
-151.5
 30
0.0
 11
104.0
 21
-157.5
 31
0.0
  0
LINE
  5
16E
  8
ZUWAKU
  6
CONTINUOUS
 62
     4
 10
98.00000000000001
 20
-157.5
 30
0.0
 11
104.0
 21
-157.5
 31
0.0
  0
LINE
  5
16F
  8
ZUWAKU
  6
CONTINUOUS
 62
     4
 10
101.0
 20
-144.5
 30
0.0
 11
98.00000000000001
 21
-150.5
 31
0.0
  0
LINE
  5
170
  8
ZUWAKU
  6
CONTINUOUS
 62
     4
 10
101.0
 20
-144.5
 30
0.0
 11
104.0
 21
-150.5
 31
0.0
  0
LINE
  5
171
  8
ZUWAKU
  6
CONTINUOUS
 62
     4
 10
98.00000000000001
 20
-150.5
 30
0.0
 11
104.0
 21
-150.5
 31
0.0
  0
LINE
  5
172
  8
ZUWAKU
  6
CONTINUOUS
 62
     4
 10
101.0
 20
-137.5
 30
0.0
 11
98.00000000000001
 21
-143.5
 31
0.0
  0
LINE
  5
173
  8
ZUWAKU
  6
CONTINUOUS
 62
     4
 10
101.0
 20
-137.5
 30
0.0
 11
104.0
 21
-143.5
 31
0.0
  0
LINE
  5
174
  8
ZUWAKU
  6
CONTINUOUS
 62
     4
 10
98.00000000000001
 20
-143.5
 30
0.0
 11
104.0
 21
-143.5
 31
0.0
  0
LINE
  5
175
  8
ZUWAKU
  6
CONTINUOUS
 62
     4
 10
172.6666666666666
 20
-176.0
 30
0.0
 11
172.6666666666666
 21
-162.0
 31
0.0
  0
LINE
  5
176
  8
ZUWAKU
  6
CONTINUOUS
 62
     4
 10
199.3333333333333
 20
-176.0
 30
0.0
 11
199.3333333333333
 21
-161.9509415757253
 31
0.0
  0
LINE
  5
177
  8
ZUWAKU
  6
CONTINUOUS
 62
     4
 10
212.6666666666666
 20
-167.5
 30
0.0
 11
212.6666666666666
 21
-161.9509415757253
 31
0.0
  0
LINE
  5
178
  8
ZUWAKU
  6
CONTINUOUS
 62
     4
 10
226.0
 20
-155.0
 30
0.0
 11
255.0
 21
-155.0
 31
0.0
  0
LINE
  5
179
  8
ZUWAKU
  6
CONTINUOUS
 62
     4
 10
146.0
 20
-166.0
 30
0.0
 11
226.0
 21
-166.0
 31
0.0
  0
TEXT
  5
17B
  8
ZUWAKU
 62
     7
 10
148.3132301474747
 20
-130.821188728956
 30
0.0
 40
2.6656
  1
符号
 41
0.8
  7
FDASTYLE0
  0
TEXT
  5
17C
  8
ZUWAKU
 62
     7
 10
162.4141311219058
 20
-135.8245525019963
 30
0.0
 40
4.0
  1
品       名
 41
0.765957446808511
  7
FDASTYLE1
 72
     5
 11
191.2141311219058
 21
-135.8245525019963
 31
0.0
  0
TEXT
  5
17D
  8
ZUWAKU
 62
     7
 10
207.2331564413096
 20
-135.8245525019963
 30
0.0
 40
4.0
  1
材  料
 41
0.7272727272727279
  7
FDASTYLE1
 72
     5
 11
220.0331564413096
 21
-135.8245525019963
 31
0.0
  0
TEXT
  5
17E
  8
ZUWAKU
 62
     7
 10
229.516061684855
 20
-135.8245525019963
 30
0.0
 40
4.0
  1
個 数
 41
0.7058823529411761
  7
FDASTYLE1
 72
     5
 11
239.116061684855
 21
-135.8245525019963
 31
0.0
  0
TEXT
  5
17F
  8
ZUWAKU
 62
     7
 10
245.721810952888
 20
-133.5649080050572
 30
0.0
 40
2.5
  1
単重量
 41
0.6666666666666666
  7
FDASTYLE1
 72
     5
 11
251.721810952888
 21
-133.5649080050572
 31
0.0
  0
TEXT
  5
180
  8
ZUWAKU
 62
     7
 10
244.7089516236359
 20
-137.3631304897525
 30
0.0
 40
2.5
  1
(kg)
 41
0.8
  7
FDASTYLE1
 72
     5
 11
252.7089516236359
 21
-137.3631304897525
 31
0.0
  0
TEXT
  5
181
  8
ZUWAKU
 62
     7
 10
259.1421970654778
 20
-135.8245525019963
 30
0.0
 40
4.0
  1
記  事
 41
0.7272727272727279
  7
FDASTYLE1
 72
     5
 11
271.9421970654778
 21
-135.8245525019963
 31
0.0
  0
TEXT
  5
182
  8
ZUWAKU
 62
     7
 10
258.8450794551645
 20
-165.4873041997729
 30
0.0
 40
3.0
  1
コード番号
 41
0.6666666666666666
  7
FDASTYLE1
 72
     5
 11
270.8450794551645
 21
-165.4873041997729
 31
0.0
  0
TEXT
  5
183
  8
ZUWAKU
 62
     7
 10
101.9119920158317
 20
-175.1879010540338
 30
0.0
 40
2.5
  1
訂 正 来 歴
 41
0.717948717948718
  7
FDASTYLE1
 72
     5
 11
115.9119920158317
 21
-175.1879010540338
 31
0.0
  0
TEXT
  5
184
  8
ZUWAKU
 62
     7
 10
125.890334846765
 20
-175.2166697391651
 30
0.0
 40
2.5
  1
工 事 番 号
 41
0.717948717948718
  7
FDASTYLE1
 72
     5
 11
139.890334846765
 21
-175.2166697391651
 31
0.0
  0
TEXT
  5
185
  8
ZUWAKU
 62
     7
 10
99.96483784660289
 20
-165.9634530565915
 30
0.0
 40
2.0825
  1
記号
 41
0.8
  7
FDASTYLE0
  0
TEXT
  5
186
  8
ZUWAKU
 62
     7
 10
105.9042249067618
 20
-165.9634530565915
 30
0.0
 40
2.0825
  1
理由
 41
0.8
  7
FDASTYLE0
  0
TEXT
  5
187
  8
ZUWAKU
 62
     7
 10
111.6193667909843
 20
-169.8786046700178
 30
0.0
 40
3.0
  1
日 付
 41
0.7058823529411754
  7
FDASTYLE1
 72
     5
 11
118.8193667909843
 21
-169.8786046700178
 31
0.0
  0
TEXT
  5
188
  8
ZUWAKU
 62
     7
 10
153.4481689819652
 20
-165.7187911464244
 30
0.0
 40
3.0
  1
承   認
 41
0.7407407407407408
  7
FDASTYLE1
 72
     5
 11
165.4481689819652
 21
-165.7187911464244
 31
0.0
  0
TEXT
  5
189
  8
ZUWAKU
 62
     7
 10
179.863228033234
 20
-165.4873041997729
 30
0.0
 40
3.0
  1
検   図
 41
0.7407407407407408
  7
FDASTYLE1
 72
     5
 11
191.863228033234
 21
-165.4873041997729
 31
0.0
  0
TEXT
  5
18A
  8
ZUWAKU
 62
     7
 10
201.4771920983751
 20
-165.4873041997729
 30
0.0
 40
3.0
  1
担  当
 41
0.7272727272727269
  7
FDASTYLE1
 72
     5
 11
211.0771920983751
 21
-165.4873041997729
 31
0.0
  0
TEXT
  5
18B
  8
ZUWAKU
 62
     7
 10
214.6770574841112
 20
-165.4873041997729
 30
0.0
 40
3.0
  1
製  図
 41
0.7272727272727269
  7
FDASTYLE1
 72
     5
 11
224.2770574841112
 21
-165.4873041997729
 31
0.0
  0
TEXT
  5
18C
  8
ZUWAKU
 62
     7
 10
226.9462372304199
 20
-153.2184960272417
 30
0.0
 40
3.0
  1
作図
 41
0.6666666666666683
  7
FDASTYLE1
 72
     5
 11
231.7462372304199
 21
-153.2184960272417
 31
0.0
  0
TEXT
  5
18D
  8
ZUWAKU
 62
     7
 10
228.1036719636776
 20
-160.2371566401815
 30
0.0
 40
4.0
  1
第 三 角 法
 41
0.7179487179487182
  7
FDASTYLE1
 72
     5
 11
250.5036719636776
 21
-160.2371566401815
 31
0.0
  0
TEXT
  5
18E
  8
ZUWAKU
 62
     7
 10
227.409211123723
 20
-166.413251986379
 30
0.0
 40
3.0
  1
尺度
 41
0.6666666666666683
  7
FDASTYLE1
 72
     5
 11
232.209211123723
 21
-166.413251986379
 31
0.0
  0
TEXT
  5
190
  8
ZUWAKU
 62
     3
 10
105.379154370034
 20
-185.9272077185017
 30
0.0
 40
7.0
  1
株式会社 野村製作所
 41
0.5763738641280831
  7
FDASTYLE2
 72
     5
 11
161.379154370034
 21
-185.9272077185017
 31
0.0
  0
TEXT
  5
192
  8
ZUWAKU
 62
     3
 10
183.6118217934165
 20
-187.1216685584563
 30
0.0
 40
8.0
  1
２－
 41
0.8244023083264632
  7
FDASTYLE3
 72
     5
 11
199.6118217934165
 21
-187.1216685584563
 31
0.0
  0
TEXT
  5
193
  8
ZUWAKU
 62
     3
 10
200.5237794178233
 20
-187.1216685584563
 30
0.0
 40
8.0
  1
9506022
 41
1.563197856185797
  7
FDASTYLE3
 72
     5
 11
256.5237794178233
 21
-187.1216685584563
 31
0.0
  0
TEXT
  5
194
  8
ZUWAKU
 62
     6
 10
165.7570051766932
 20
-145.3589000228561
 30
0.0
 40
5.0
  1
外　形　図
 41
0.5833333333333334
  7
FDASTYLE1
 72
     5
 11
183.2570051766932
 21
-145.3589000228561
 31
0.0
  0
TEXT
  5
195
  8
ZUWAKU
 62
     6
 10
155.3545934631717
 20
-157.829135039116
 30
0.0
 40
6.0
  1
AXS36-1型ｴｱｰｼﾘﾝﾀﾞ
 41
0.6913580246913579
  7
FDASTYLE1
 72
     5
 11
222.5545934631717
 21
-157.829135039116
 31
0.0
  0
TEXT
  5
196
  8
ZUWAKU
 62
     4
 10
239.3011788906399
 20
-172.297487439201
 30
0.0
 40
3.0
  1
1/1
 41
0.7000000000000013
  7
FDASTYLE1
 72
     5
 11
245.6011788906399
 21
-172.297487439201
 31
0.0
  0
LINE
  5
197
  8
0
  6
CENTER
 62
     7
 10
-253.6271398833936
 20
38.17521377333866
 30
0.0
 11
-132.550441580171
 21
38.17521377333866
 31
0.0
  0
LINE
  5
198
  8
0
  6
CENTER
 62
     7
 10
-17.89114363705573
 20
85.17521377333866
 30
0.0
 11
3.449070138579032
 21
85.17521377333866
 31
0.0
  0
LINE
  5
199
  8
0
  6
CENTER
 62
     7
 10
-61.61758932076952
 20
38.17521377333866
 30
0.0
 11
-23.35137351071296
 21
38.17521377333866
 31
0.0
  0
LINE
  5
19A
  8
0
  6
CENTER
 62
     7
 10
-138.6271398833936
 20
153.1752137733387
 30
0.0
 11
-138.6271398833936
 21
-76.82478622666135
 31
0.0
  0
LINE
  5
19B
  8
0
  6
CENTER
 62
     7
 10
-233.023882581966
 20
92.67529131714888
 30
0.0
 11
-217.4354245207477
 21
83.67529185359068
 31
0.0
  0
LINE
  5
19C
  8
0
  6
CENTER
 62
     7
 10
-233.0239754768419
 20
-16.32469528701553
 30
0.0
 11
-217.4355174156236
 21
-7.324695823457333
 31
0.0
  0
LINE
  5
19D
  8
0
  6
CENTER
 62
     7
 10
-195.1543907391923
 20
5.539255572125839
 30
0.0
 11
-175.8662692161623
 21
16.67525649528248
 31
0.0
  0
LINE
  5
19E
  8
0
  6
CENTER
 62
     7
 10
-181.3303619856487
 20
18.13935413530258
 30
0.0
 11
-177.3303615088115
 21
11.21115102937607
 31
0.0
  0
LINE
  5
19F
  8
0
  6
CENTER
 62
     7
 10
-142.6271093658155
 20
85.17521377333866
 30
0.0
 11
-136.8271063140577
 21
85.17521377333866
 31
0.0
  0
LINE
  5
1A0
  8
0
  6
CENTER
 62
     7
 10
-170.8771324270286
 20
94.03385430394006
 30
0.0
 11
-163.8771315925636
 21
81.90949886856866
 31
0.0
  0
LINE
  5
1A1
  8
0
  6
CENTER
 62
     7
 10
-194.4857844851164
 20
70.42523317810388
 30
0.0
 11
-182.3614282152799
 21
63.42523359533639
 31
0.0
  0
LINE
  5
1A2
  8
0
  6
CENTER
 62
     7
 10
-173.4393441789597
 20
-8.121240551731844
 30
0.0
 11
-161.3149879091233
 21
-15.12124013449933
 31
0.0
  0
LINE
  5
1A3
  8
0
  6
CENTER
 62
     7
 10
-170.8771706934439
 20
-17.68340766841097
 30
0.0
 11
-163.8771698589789
 21
-5.559052233039566
 31
0.0
  0
LINE
  5
1A4
  8
0
  6
CENTER
 62
     7
 10
-191.9235968463285
 20
60.86304693116141
 30
0.0
 11
-184.9235941045146
 21
72.98740567015749
 31
0.0
  0
LINE
  5
1A5
  8
0
  6
CENTER
 62
     7
 10
-173.4393152774104
 20
84.47168665940795
 30
0.0
 11
-161.3149524003242
 21
91.47169005687248
 31
0.0
  0
LINE
  5
1A6
  8
0
  6
CENTER
 62
     7
 10
-145.6271398833936
 20
95.67521377333866
 30
0.0
 11
-136.5919760039991
 21
95.67521377333866
 31
0.0
  0
LINE
  5
1A7
  8
0
  6
CENTER
 62
     7
 10
-145.6271856597608
 20
-19.32478622666135
 30
0.0
 11
-136.5920141509718
 21
-19.32478622666135
 31
0.0
  0
LINE
  5
1A8
  8
0
  6
CENTER
 62
     7
 10
-191.9236419554899
 20
15.48742204478081
 30
0.0
 11
-184.9236334916294
 21
3.363053394910693
 31
0.0
  0
LINE
  5
1A9
  8
0
  6
CENTER
 62
     7
 10
-192.3770963686783
 20
131.2729859156779
 30
0.0
 11
-184.8770954746086
 21
118.2826050920656
 31
0.0
  0
LINE
  5
1AA
  8
0
  6
CENTER
 62
     7
 10
-192.3772355142395
 20
-54.92245460853941
 30
0.0
 11
-184.8772384348675
 21
-41.93208039217656
 31
0.0
  0
LINE
  5
1AB
  8
0
  6
CENTER
 62
     7
 10
-14.85522015606819
 20
38.17521377333866
 30
0.0
 11
55.70177094424309
 21
38.17521377333866
 31
0.0
  0
LINE
  5
1AC
  8
0
  6
CENTER
 62
     7
 10
-142.6566198638624
 20
71.17521377333866
 30
0.0
 11
-136.6271398833936
 21
71.17521377333866
 31
0.0
  0
LINE
  5
1AD
  8
0
  6
CENTER
 62
     7
 10
-172.6271398833936
 20
42.17521377333866
 30
0.0
 11
-172.6271398833936
 21
34.17521377333866
 31
0.0
  0
LINE
  5
1AE
  8
0
  6
CENTER
 62
     7
 10
-9.456487315053323
 20
81.88549514540897
 30
0.0
 11
-9.456487315053323
 21
65.38109298476444
 31
0.0
  0
ARC
  5
1AF
  8
0
  6
CENTER
 62
     7
 10
-138.6271398833936
 20
38.17521377333866
 30
0.0
 40
100.0
 50
89.99998201391065
 51
270.0000006832453
  0
LINE
  5
1B0
  8
0
  6
CENTER
 62
     7
 10
87.44218842471184
 20
-61.82477859726681
 30
0.0
 11
189.4243127533251
 21
-61.82477859726681
 31
0.0
  0
LINE
  5
1B1
  8
0
  6
CENTER
 62
     7
 10
118.8089410492236
 20
137.1752137733387
 30
0.0
 11
165.108852548247
 21
137.1752137733387
 31
0.0
  0
LINE
  5
1B2
  8
0
  6
CENTER
 62
     7
 10
160.393520516997
 20
142.2342195106434
 30
0.0
 11
160.393520516997
 21
89.56754775771366
 31
0.0
  0
LINE
  5
1B3
  8
0
  6
CENTER
 62
     7
 10
150.5262719818408
 20
94.67521377333866
 30
0.0
 11
165.4421960541064
 21
94.67521377333866
 31
0.0
  0
LINE
  5
1B4
  8
0
  6
CENTER
 62
     7
 10
90.68812958682122
 20
138.1752137733387
 30
0.0
 11
118.2311212250048
 21
138.1752137733387
 31
0.0
  0
LINE
  5
1B5
  8
0
  6
CENTER
 62
     7
 10
23.893520516997
 20
122.4348039222644
 30
0.0
 11
23.893520516997
 21
80.67522140273319
 31
0.0
  0
LINE
  5
1B6
  8
0
  6
CENTER
 62
     7
 10
29.393520516997
 20
2.56755157241092
 30
0.0
 11
29.393520516997
 21
-18.43244842758908
 31
0.0
  0
LINE
  5
1B7
  8
0
  6
CENTER
 62
     7
 10
41.893520516997
 20
122.4348039222644
 30
0.0
 11
41.893520516997
 21
80.67522140273319
 31
0.0
  0
LINE
  5
1B8
  8
0
  6
CENTER
 62
     7
 10
73.69352356875481
 20
73.17521377333866
 30
0.0
 11
94.69352356875481
 21
73.17521377333866
 31
0.0
  0
LINE
  5
1B9
  8
0
  6
CENTER
 62
     7
 10
73.69352356875481
 20
3.175213773338655
 30
0.0
 11
94.69352356875481
 21
3.175213773338655
 31
0.0
  0
LINE
  5
1BA
  8
0
  6
CENTER
 62
     7
 10
84.19352356875481
 20
13.67521377333866
 30
0.0
 11
84.19352356875481
 21
-7.324786226661345
 31
0.0
  0
LINE
  5
1BB
  8
0
  6
CENTER
 62
     7
 10
84.19352356875481
 20
83.67521377333866
 30
0.0
 11
84.19352356875481
 21
62.67521377333866
 31
0.0
  0
LINE
  5
1BC
  8
0
  6
CENTER
 62
     7
 10
64.70177094424309
 20
38.17521377333866
 30
0.0
 11
200.9421807953173
 21
38.17521377333866
 31
0.0
  0
LINE
  5
1BD
  8
0
  6
CENTER
 62
     7
 10
116.9099847503954
 20
-18.32478622666135
 30
0.0
 11
158.393520516997
 21
-18.32478622666135
 31
0.0
  0
LINE
  5
1BE
  8
0
  6
CENTER
 62
     7
 10
-220.247861392009
 20
16.30499805792111
 30
0.0
 11
-213.5464428788336
 21
18.10063754495643
 31
0.0
  0
LINE
  5
1BF
  8
0
  6
CENTER
 62
     7
 10
-192.1759645048026
 20
23.82683935578192
 30
0.0
 11
-179.6790067354328
 21
27.17538874041962
 31
0.0
  0
LINE
  5
1C0
  8
0
  6
CENTER
 62
     7
 10
-198.3776336027553
 20
-21.57530309294056
 30
0.0
 11
-193.4718639317013
 21
-16.66953424893746
 31
0.0
  0
LINE
  5
1C1
  8
0
  6
CENTER
 62
     7
 10
-177.8276006083745
 20
-1.02527356303607
 30
0.0
 11
-168.679179166575
 21
8.123146336455065
 31
0.0
  0
LINE
  5
1C2
  8
0
  6
CONTINUOUS
 62
     7
 10
-251.5789574194108
 20
-120.7832922068126
 30
0.0
 11
-73.72433827878571
 21
-120.7832922068126
 31
0.0
  0
LINE
  5
1C3
  8
0
  6
CONTINUOUS
 62
     7
 10
-251.5789574194108
 20
-128.3096984568126
 30
0.0
 11
-73.72433827878571
 21
-128.3096984568126
 31
0.0
  0
LINE
  5
1C4
  8
0
  6
CONTINUOUS
 62
     7
 10
-251.5789574194108
 20
-135.8361047068126
 30
0.0
 11
-73.72433827878571
 21
-135.8361047068126
 31
0.0
  0
LINE
  5
1C5
  8
0
  6
CONTINUOUS
 62
     7
 10
-251.5789574194108
 20
-143.3624914255626
 30
0.0
 11
-73.72433827878571
 21
-143.3624914255626
 31
0.0
  0
LINE
  5
1C6
  8
0
  6
CONTINUOUS
 62
     7
 10
-251.5789574194108
 20
-150.8888976755626
 30
0.0
 11
-73.72433827878571
 21
-150.8888976755626
 31
0.0
  0
LINE
  5
1C7
  8
0
  6
CONTINUOUS
 62
     7
 10
-251.5789574194108
 20
-158.4153039255626
 30
0.0
 11
-73.72433827878571
 21
-158.4153039255626
 31
0.0
  0
LINE
  5
1C8
  8
0
  6
CONTINUOUS
 62
     7
 10
-251.5789574194108
 20
-180.9945031443126
 30
0.0
 11
-73.72433827878571
 21
-180.9945031443126
 31
0.0
  0
LINE
  5
1C9
  8
0
  6
CONTINUOUS
 62
     7
 10
-251.5789574194108
 20
-165.9417101755626
 30
0.0
 11
-73.72433827878571
 21
-165.9417101755626
 31
0.0
  0
LINE
  5
1CA
  8
0
  6
CONTINUOUS
 62
     7
 10
-251.5789574194108
 20
-105.7304992380626
 30
0.0
 11
-231.9220433569108
 21
-105.7304992380626
 31
0.0
  0
LINE
  5
1CB
  8
0
  6
CONTINUOUS
 62
     7
 10
-251.5789574194108
 20
-173.4680968943126
 30
0.0
 11
-73.72433827878571
 21
-173.4680968943126
 31
0.0
  0
LINE
  5
1CC
  8
0
  6
CONTINUOUS
 62
     7
 10
-251.5789574194108
 20
-113.2569054880626
 30
0.0
 11
-73.72433827878571
 21
-113.2569054880626
 31
0.0
  0
LINE
  5
1CD
  8
0
  6
CONTINUOUS
 62
     7
 10
-11.65648801838813
 20
80.17521377333866
 30
0.0
 11
-11.65648801838813
 21
67.67520614394412
 31
0.0
  0
LINE
  5
1CE
  8
0
  6
CONTINUOUS
 62
     7
 10
-7.256486730927804
 20
80.17521377333866
 30
0.0
 11
-7.256486730927804
 21
67.67520614394412
 31
0.0
  0
LINE
  5
1CF
  8
0
  6
CONTINUOUS
 62
     3
 10
-14.606479483003
 20
8.675221402733186
 30
0.0
 11
-5.956479864472726
 21
8.675221402733186
 31
0.0
  0
LINE
  5
1D0
  8
0
  6
CONTINUOUS
 62
     3
 10
-14.606479483003
 20
67.67521377333866
 30
0.0
 11
-5.956479864472726
 21
67.67521377333866
 31
0.0
  0
LINE
  5
1D1
  8
0
  6
CONTINUOUS
 62
     3
 10
-13.606479483003
 20
88.67522140273319
 30
0.0
 11
-13.606479483003
 21
80.67522140273319
 31
0.0
  0
LINE
  5
1D2
  8
0
  6
CONTINUOUS
 62
     3
 10
-12.60647757565437
 20
89.67521377333866
 30
0.0
 11
71.393520516997
 21
89.67521377333866
 31
0.0
  0
LINE
  5
1D3
  8
0
  6
CONTINUOUS
 62
     3
 10
-12.606479483003
 20
-13.32477859726681
 30
0.0
 11
71.393520516997
 21
-13.32477859726681
 31
0.0
  0
LINE
  5
1D4
  8
0
  6
CONTINUOUS
 62
     3
 10
-13.60646066629477
 20
88.67520193690062
 30
0.0
 11
-12.60645859317981
 21
89.67520207125845
 31
0.0
  0
LINE
  5
1D5
  8
0
  6
CONTINUOUS
 62
     3
 10
-12.60647751708189
 20
-13.32476865155492
 30
0.0
 11
-13.60647731426525
 21
-12.32476691561509
 31
0.0
  0
LINE
  5
1D6
  8
0
  6
CONTINUOUS
 62
     3
 10
-12.106479483003
 20
80.67521377333866
 30
0.0
 11
6.043522042875907
 21
80.67521377333866
 31
0.0
  0
LINE
  5
1D7
  8
0
  6
CONTINUOUS
 62
     3
 10
-12.106479483003
 20
-4.324778597266814
 30
0.0
 11
6.043522042875907
 21
-4.324778597266814
 31
0.0
  0
LINE
  5
1D8
  8
0
  6
CONTINUOUS
 62
     3
 10
-13.60647525518482
 20
81.54124188808724
 30
0.0
 11
-12.10647758027164
 21
80.67521792237231
 31
0.0
  0
LINE
  5
1D9
  8
0
  6
CONTINUOUS
 62
     3
 10
-13.60646546012929
 20
-5.190808463361591
 30
0.0
 11
-12.1064644815912
 21
-4.324782590298142
 31
0.0
  0
LINE
  5
1DA
  8
0
  6
CONTINUOUS
 62
     3
 10
-13.606479483003
 20
-4.324778597266814
 30
0.0
 11
-13.606479483003
 21
-12.32477668991818
 31
0.0
  0
LINE
  5
1DB
  8
0
  6
CONTINUOUS
 62
     3
 10
-13.606479483003
 20
86.97523208388553
 30
0.0
 11
-0.6064794830029996
 21
86.97523208388553
 31
0.0
  0
LINE
  5
1DC
  8
0
  6
CONTINUOUS
 62
     3
 10
-13.606479483003
 20
83.37522598036991
 30
0.0
 11
-0.6064794830029996
 21
83.37522598036991
 31
0.0
  0
LINE
  5
1DD
  8
0
  6
CONTINUOUS
 62
     3
 10
-13.95648558651863
 20
80.17522140273319
 30
0.0
 11
-13.95648558651863
 21
67.67522140273319
 31
0.0
  0
LINE
  5
1DE
  8
0
  6
CONTINUOUS
 62
     3
 10
-13.95647986447273
 20
-3.824778597266814
 30
0.0
 11
-4.956484632844308
 21
-3.824778597266814
 31
0.0
  0
LINE
  5
1DF
  8
0
  6
CONTINUOUS
 62
     3
 10
-13.95647986447273
 20
80.17521377333866
 30
0.0
 11
-4.956484632844308
 21
80.17521377333866
 31
0.0
  0
LINE
  5
1E0
  8
0
  6
CONTINUOUS
 62
     3
 10
-13.95648558651863
 20
8.675221402733186
 30
0.0
 11
-13.95648558651863
 21
-3.824778597266814
 31
0.0
  0
LINE
  5
1E1
  8
0
  6
CONTINUOUS
 62
     3
 10
-56.606479483003
 20
60.17521377333866
 30
0.0
 11
-56.606479483003
 21
16.1752223564075
 31
0.0
  0
LINE
  5
1E2
  8
0
  6
CONTINUOUS
 62
     3
 10
-55.60648329770027
 20
61.17521377333866
 30
0.0
 11
3.393520516997
 21
61.17521377333866
 31
0.0
  0
LINE
  5
1E3
  8
0
  6
CONTINUOUS
 62
     3
 10
-55.606479483003
 20
15.17522140273319
 30
0.0
 11
3.393520516997
 21
15.17522140273319
 31
0.0
  0
LINE
  5
1E4
  8
0
  6
CONTINUOUS
 62
     3
 10
-55.606479483003
 20
20.17522140273319
 30
0.0
 11
-1.606479483003
 21
20.17522140273319
 31
0.0
  0
LINE
  5
1E5
  8
0
  6
CONTINUOUS
 62
     3
 10
-55.606479483003
 20
56.17521377333866
 30
0.0
 11
-1.606479483003
 21
56.17521377333866
 31
0.0
  0
LINE
  5
1E6
  8
0
  6
CONTINUOUS
 62
     3
 10
-187.4174734957591
 20
-24.05018310340678
 30
0.0
 11
-200.852549529049
 21
-10.61510480513211
 31
0.0
  0
LINE
  5
1E7
  8
0
  6
CONTINUOUS
 62
     3
 10
-169.7398298717084
 20
-7.786691140991607
 30
0.0
 11
-184.5890707707944
 21
7.062552261489472
 31
0.0
  0
LINE
  5
1E8
  8
0
  6
CONTINUOUS
 62
     3
 10
-184.5890761655959
 20
7.062492918728239
 30
0.0
 11
-181.7028382064876
 21
9.948730391253193
 31
0.0
  0
LINE
  5
1E9
  8
0
  6
CONTINUOUS
 62
     3
 10
-169.7398460561029
 20
-7.786750483751931
 30
0.0
 11
-166.8535973074007
 21
-4.900502221634852
 31
0.0
  0
LINE
  5
1EA
  8
0
  6
CONTINUOUS
 62
     3
 10
-186.5209024339237
 20
-24.56781709849169
 30
0.0
 11
-169.739803815024
 21
-7.78671989413273
 31
0.0
  0
LINE
  5
1EB
  8
0
  6
CONTINUOUS
 62
     3
 10
-201.370144584709
 20
-9.718616854384564
 30
0.0
 11
-184.5890297814184
 21
7.062496534363945
 31
0.0
  0
LINE
  5
1EC
  8
0
  6
CONTINUOUS
 62
     3
 10
-193.4719035610409
 20
-16.66950283317387
 30
0.0
 11
-177.8276114257177
 21
-1.02521597271074
 31
0.0
  0
LINE
  5
1ED
  8
0
  6
CONTINUOUS
 62
     3
 10
-167.618527688899
 20
-5.665408056047582
 30
0.0
 11
-182.4677548193121
 21
9.18384911510644
 31
0.0
  0
LINE
  5
1EE
  8
0
  6
CONTINUOUS
 62
     3
 10
-211.993533782788
 20
8.681646397789663
 30
0.0
 11
-216.9110970202663
 21
27.03424420892257
 31
0.0
  0
LINE
  5
1EF
  8
0
  6
CONTINUOUS
 62
     3
 10
-188.5524805247857
 20
13.92738086634914
 30
0.0
 11
-193.9876798152997
 21
34.21182293349544
 31
0.0
  0
LINE
  5
1F0
  8
0
  6
CONTINUOUS
 62
     3
 10
-193.9877013944866
 20
34.21178555724951
 30
0.0
 11
-190.0450273412249
 21
35.26822177304881
 31
0.0
  0
LINE
  5
1F1
  8
0
  6
CONTINUOUS
 62
     3
 10
-188.5525178301471
 20
13.92734322555303
 30
0.0
 11
-184.6098290380271
 21
14.98378339061706
 31
0.0
  0
LINE
  5
1F2
  8
0
  6
CONTINUOUS
 62
     3
 10
-211.4758637648548
 20
7.785038644183132
 30
0.0
 11
-188.5524586099992
 21
13.92734659467975
 31
0.0
  0
LINE
  5
1F3
  8
0
  6
CONTINUOUS
 62
     3
 10
-216.9110882223525
 20
28.06945438922627
 30
0.0
 11
-193.9876535897805
 21
34.21177023825327
 31
0.0
  0
LINE
  5
1F4
  8
0
  6
CONTINUOUS
 62
     3
 10
-213.5464617121869
 20
18.10065523480613
 30
0.0
 11
-192.1759708190601
 21
23.82685806869255
 31
0.0
  0
LINE
  5
1F5
  8
0
  6
CONTINUOUS
 62
     3
 10
-185.6547335713112
 20
14.70380378296373
 30
0.0
 11
-191.0899130990493
 21
34.98824717218473
 31
0.0
  0
LINE
  5
1F6
  8
0
  6
CONTINUOUS
 62
     3
 10
-178.6271398833936
 20
88.77412124404178
 30
0.0
 11
-178.6271398833936
 21
70.61361404189334
 31
0.0
  0
LINE
  5
1F7
  8
0
  6
CONTINUOUS
 62
     3
 10
-14.606479483003
 20
8.675221402733186
 30
0.0
 11
-14.606479483003
 21
14.17522140273319
 31
0.0
  0
LINE
  5
1F8
  8
0
  6
CONTINUOUS
 62
     3
 10
-14.606479483003
 20
67.67521377333866
 30
0.0
 11
-14.606479483003
 21
62.17521377333866
 31
0.0
  0
LINE
  5
1F9
  8
0
  6
CONTINUOUS
 62
     3
 10
-55.60647839524108
 20
15.1752220005876
 30
0.0
 11
-56.60647625367096
 21
16.1752208705402
 31
0.0
  0
LINE
  5
1FA
  8
0
  6
CONTINUOUS
 62
     3
 10
-56.60647700784827
 20
60.17521038643388
 30
0.0
 11
-55.60648083528952
 21
61.17521035220157
 31
0.0
  0
LINE
  5
1FB
  8
0
  6
CONTINUOUS
 62
     3
 10
-55.60647809386217
 20
56.17521131371983
 30
0.0
 11
-56.60647915545167
 21
57.17521237530933
 31
0.0
  0
LINE
  5
1FC
  8
0
  6
CONTINUOUS
 62
     3
 10
-55.60648348865868
 20
20.17522164966645
 30
0.0
 11
-56.60648320154905
 21
19.17522193677608
 31
0.0
  0
LINE
  5
1FD
  8
0
  6
CONTINUOUS
 62
     3
 10
-55.606479483003
 20
56.17521377333866
 30
0.0
 11
-55.606479483003
 21
48.17521377333866
 31
0.0
  0
LINE
  5
1FE
  8
0
  6
CONTINUOUS
 62
     3
 10
-55.606479483003
 20
28.17521377333866
 30
0.0
 11
-55.606479483003
 21
20.17522140273319
 31
0.0
  0
LINE
  5
1FF
  8
0
  6
CONTINUOUS
 62
     3
 10
-216.9111059478468
 20
27.03424545058475
 30
0.0
 11
-216.9111059478468
 21
28.06945892104373
 31
0.0
  0
LINE
  5
200
  8
0
  6
CONTINUOUS
 62
     3
 10
-211.99354602954
 20
8.681643339179445
 30
0.0
 11
-211.4758915488854
 21
7.78503960089607
 31
0.0
  0
LINE
  5
201
  8
0
  6
CONTINUOUS
 62
     3
 10
-187.4174924866617
 20
-24.0501840256858
 30
0.0
 11
-186.5209151156683
 21
-24.56782315498835
 31
0.0
  0
LINE
  5
202
  8
0
  6
CONTINUOUS
 62
     3
 10
-201.3701545653793
 20
-9.718607901707529
 30
0.0
 11
-200.8525611198883
 21
-10.61510592400113
 31
0.0
  0
LINE
  5
203
  8
0
  6
CONTINUOUS
 62
     3
 10
-12.45648725544868
 20
80.17521377333866
 30
0.0
 11
-12.45648725544868
 21
67.67520614394412
 31
0.0
  0
LINE
  5
204
  8
0
  6
CONTINUOUS
 62
     3
 10
-12.45648725544868
 20
70.67520614394412
 30
0.0
 11
-6.456487493867257
 21
70.67520614394412
 31
0.0
  0
LINE
  5
205
  8
0
  6
CONTINUOUS
 62
     3
 10
-12.45648725544868
 20
78.67521377333866
 30
0.0
 11
-6.456487493867257
 21
78.67521377333866
 31
0.0
  0
LINE
  5
206
  8
0
  6
CONTINUOUS
 62
     3
 10
-14.606479483003
 20
62.4752130103992
 30
0.0
 11
0.3935205169970004
 21
62.4752130103992
 31
0.0
  0
LINE
  5
207
  8
0
  6
CONTINUOUS
 62
     3
 10
-14.606479483003
 20
13.87521358260379
 30
0.0
 11
0.3935205169970004
 21
13.87521358260379
 31
0.0
  0
ARC
  5
208
  8
0
  6
CONTINUOUS
 62
     3
 10
-138.6271398833936
 20
38.17521377333866
 30
0.0
 40
108.0
 50
89.99998201391065
 51
270.0000006832453
  0
ARC
  5
209
  8
0
  6
CONTINUOUS
 62
     3
 10
-138.6271398833936
 20
38.17521377333866
 30
0.0
 40
64.5
 50
89.99998201391065
 51
185.6310588475249
  0
ARC
  5
20A
  8
0
  6
CONTINUOUS
 62
     3
 10
-138.6271398833936
 20
38.17521377333866
 30
0.0
 40
51.5
 50
89.99998201391065
 51
270.0000006832453
  0
ARC
  5
20B
  8
0
  6
CONTINUOUS
 62
     3
 10
-138.6271398833936
 20
38.17521377333866
 30
0.0
 40
18.0
 50
89.99998201391065
 51
270.0000006832453
  0
ARC
  5
20C
  8
0
  6
CONTINUOUS
 62
     3
 10
-184.0742376617139
 20
-13.25131897202267
 30
0.0
 40
10.0
 50
199.9878469177907
 51
224.9999723376207
  0
ARC
  5
20D
  8
0
  6
CONTINUOUS
 62
     3
 10
-190.0536993316358
 20
-7.271868746192595
 30
0.0
 40
10.0
 50
224.9999723376207
 51
250.0122343612341
  0
ARC
  5
20E
  8
0
  6
CONTINUOUS
 62
     3
 10
-187.2252844146436
 20
-4.443392794044158
 30
0.0
 40
10.0
 50
19.98750017200472
 51
44.9999978371445
  0
ARC
  5
20F
  8
0
  6
CONTINUOUS
 62
     3
 10
-181.2457617095655
 20
-10.42291168442502
 30
0.0
 40
10.0
 50
44.9999978371445
 51
70.01247842681136
  0
ARC
  5
210
  8
0
  6
CONTINUOUS
 62
     3
 10
-199.8350103667921
 20
17.39731212386356
 30
0.0
 40
10.0
 50
15.00000212496032
 51
40.01248100707988
  0
ARC
  5
211
  8
0
  6
CONTINUOUS
 62
     3
 10
-203.6987493804639
 20
16.36207957991825
 30
0.0
 40
10.0
 50
169.9878356103097
 51
194.9999610301397
  0
ARC
  5
212
  8
0
  6
CONTINUOUS
 62
     3
 10
-205.8873785308546
 20
24.53015800246463
 30
0.0
 40
10.0
 50
194.9999783329838
 51
220.0122403565972
  0
ARC
  5
213
  8
0
  6
CONTINUOUS
 62
     3
 10
-202.0236700347608
 20
25.56548591384158
 30
0.0
 40
10.0
 50
349.9875036060469
 51
375.0000021249603
  0
ARC
  5
214
  8
0
  6
CONTINUOUS
 62
     3
 10
-138.6271398833936
 20
38.17521377333866
 30
0.0
 40
64.5
 50
204.3688941759769
 51
215.6310838153842
  0
CIRCLE
  5
215
  8
0
  6
CONTINUOUS
 62
     3
 10
-225.2296331695264
 20
88.17528243788944
 30
0.0
 40
4.5
  0
ARC
  5
216
  8
0
  6
CONTINUOUS
 62
     3
 10
-138.6270788482374
 20
138.1752137733387
 30
0.0
 40
4.5
 50
90.00079480642189
 51
269.9991810605449
  0
ARC
  5
217
  8
0
  6
CONTINUOUS
 62
     3
 10
-138.6270788482374
 20
138.1752137733387
 30
0.0
 40
7.0
 50
90.00052159885509
 51
269.9994542681117
  0
CIRCLE
  5
218
  8
0
  6
CONTINUOUS
 62
     3
 10
-225.2296331695264
 20
88.17528243788944
 30
0.0
 40
7.0
  0
CIRCLE
  5
219
  8
0
  6
CONTINUOUS
 62
     3
 10
-188.423618154878
 20
9.425238568870881
 30
0.0
 40
4.25
  0
ARC
  5
21A
  8
0
  6
CONTINUOUS
 62
     3
 10
-138.6271398833936
 20
38.17521377333866
 30
0.0
 40
42.5
 50
89.99998201391065
 51
270.0000006832453
  0
ARC
  5
21B
  8
0
  6
CONTINUOUS
 62
     3
 10
-138.6271398833936
 20
38.17521377333866
 30
0.0
 40
29.5
 50
89.99998201391065
 51
270.0000006832453
  0
CIRCLE
  5
21C
  8
0
  6
CONTINUOUS
 62
     3
 10
-172.6271398833936
 20
38.17521377333866
 30
0.0
 40
1.700000047683716
  0
LINE
  5
21D
  8
0
  6
CONTINUOUS
 62
     3
 10
172.393520516997
 20
100.1752214027332
 30
0.0
 11
172.393520516997
 21
62.17522140273319
 31
0.0
  0
LINE
  5
21E
  8
0
  6
CONTINUOUS
 62
     3
 10
167.393520516997
 20
144.6752137733387
 30
0.0
 11
167.393520516997
 21
100.6752214027332
 31
0.0
  0
LINE
  5
21F
  8
0
  6
CONTINUOUS
 62
     3
 10
113.393520516997
 20
146.1752137733387
 30
0.0
 11
113.393520516997
 21
80.24446578749881
 31
0.0
  0
LINE
  5
220
  8
0
  6
CONTINUOUS
 62
     3
 10
167.393520516997
 20
-24.32477859726681
 30
0.0
 11
171.893520516997
 21
-24.32477859726681
 31
0.0
  0
LINE
  5
221
  8
0
  6
CONTINUOUS
 62
     3
 10
167.393520516997
 20
100.6752137733387
 30
0.0
 11
171.893520516997
 21
100.6752137733387
 31
0.0
  0
LINE
  5
222
  8
0
  6
CONTINUOUS
 62
     3
 10
95.393520516997
 20
-69.82477859726681
 30
0.0
 11
165.8935357757861
 21
-69.82477859726681
 31
0.0
  0
LINE
  5
223
  8
0
  6
CONTINUOUS
 62
     3
 10
95.393520516997
 20
146.1752137733387
 30
0.0
 11
165.893520516997
 21
146.1752137733387
 31
0.0
  0
LINE
  5
224
  8
0
  6
CONTINUOUS
 62
     3
 10
167.393520516997
 20
-24.32477859726681
 30
0.0
 11
167.393520516997
 21
-57.32477859726681
 31
0.0
  0
LINE
  5
225
  8
0
  6
CONTINUOUS
 62
     3
 10
165.8936383626889
 20
146.175339225554
 30
0.0
 11
167.3936372576749
 21
144.675340330568
 31
0.0
  0
LINE
  5
226
  8
0
  6
CONTINUOUS
 62
     3
 10
167.3935497408298
 20
-68.32482426681749
 30
0.0
 11
165.8935611296557
 21
-69.82482817725908
 31
0.0
  0
LINE
  5
227
  8
0
  6
CONTINUOUS
 62
     3
 10
171.893424974399
 20
-24.32470880870245
 30
0.0
 11
172.3934271067288
 21
-23.82469904770245
 31
0.0
  0
LINE
  5
228
  8
0
  6
CONTINUOUS
 62
     3
 10
172.3934726295321
 20
100.1751717069136
 30
0.0
 11
171.8934720987373
 21
100.6751722377083
 31
0.0
  0
LINE
  5
229
  8
0
  6
CONTINUOUS
 62
     3
 10
0.3935205169970004
 20
14.17522140273319
 30
0.0
 11
18.13797394717278
 21
14.17522140273319
 31
0.0
  0
LINE
  5
22A
  8
0
  6
CONTINUOUS
 62
     3
 10
0.3935205169970004
 20
62.17521377333866
 30
0.0
 11
18.13797013247552
 21
62.17521377333866
 31
0.0
  0
LINE
  5
22B
  8
0
  6
CONTINUOUS
 62
     3
 10
161.393520516997
 20
9.125225980369905
 30
0.0
 11
165.6935235687548
 21
9.125225980369905
 31
0.0
  0
LINE
  5
22C
  8
0
  6
CONTINUOUS
 62
     3
 10
161.393520516997
 20
67.22521682509647
 30
0.0
 11
165.6935235687548
 21
67.22521682509647
 31
0.0
  0
LINE
  5
22D
  8
0
  6
CONTINUOUS
 62
     3
 10
166.393520516997
 20
66.52521987685428
 30
0.0
 11
166.393520516997
 21
62.17522140273319
 31
0.0
  0
LINE
  5
22E
  8
0
  6
CONTINUOUS
 62
     3
 10
160.6935083099658
 20
66.52521987685428
 30
0.0
 11
160.6935083099658
 21
62.17522140273319
 31
0.0
  0
LINE
  5
22F
  8
0
  6
CONTINUOUS
 62
     3
 10
160.6935083099658
 20
14.17522140273319
 30
0.0
 11
160.6935083099658
 21
9.825221974937776
 31
0.0
  0
LINE
  5
230
  8
0
  6
CONTINUOUS
 62
     3
 10
166.393520516997
 20
14.17522140273319
 30
0.0
 11
166.393520516997
 21
9.825221974937776
 31
0.0
  0
LINE
  5
231
  8
0
  6
CONTINUOUS
 62
     3
 10
172.393520516997
 20
14.17522140273319
 30
0.0
 11
172.393520516997
 21
-23.82477096787228
 31
0.0
  0
LINE
  5
232
  8
0
  6
CONTINUOUS
 62
     3
 10
153.393520516997
 20
-4.288166086585662
 30
0.0
 11
153.393520516997
 21
-54.82477859726681
 31
0.0
  0
LINE
  5
233
  8
0
  6
CONTINUOUS
 62
     3
 10
153.393520516997
 20
131.1752137733387
 30
0.0
 11
153.393520516997
 21
80.111943204491
 31
0.0
  0
LINE
  5
234
  8
0
  6
CONTINUOUS
 62
     3
 10
154.0935327240283
 20
103.1752214027332
 30
0.0
 11
154.0935327240283
 21
62.17522140273319
 31
0.0
  0
LINE
  5
235
  8
0
  6
CONTINUOUS
 62
     3
 10
154.0935327240283
 20
14.17522140273319
 30
0.0
 11
154.0935327240283
 21
-26.82477859726681
 31
0.0
  0
LINE
  5
236
  8
0
  6
CONTINUOUS
 62
     3
 10
120.0956536957079
 20
-54.82477859726681
 30
0.0
 11
153.393520516997
 21
-54.82477859726681
 31
0.0
  0
LINE
  5
237
  8
0
  6
CONTINUOUS
 62
     3
 10
120.0956536957079
 20
131.1752137733387
 30
0.0
 11
153.393520516997
 21
131.1752137733387
 31
0.0
  0
LINE
  5
238
  8
0
  6
CONTINUOUS
 62
     3
 10
153.393520516997
 20
103.1752137733387
 30
0.0
 11
154.0935174652392
 21
103.1752137733387
 31
0.0
  0
LINE
  5
239
  8
0
  6
CONTINUOUS
 62
     3
 10
153.393520516997
 20
-26.82477859726681
 30
0.0
 11
154.0935174652392
 21
-26.82477859726681
 31
0.0
  0
LINE
  5
23A
  8
0
  6
CONTINUOUS
 62
     3
 10
154.0935174652392
 20
97.17521377333866
 30
0.0
 11
157.893520516997
 21
97.17521377333866
 31
0.0
  0
LINE
  5
23B
  8
0
  6
CONTINUOUS
 62
     3
 10
154.0935174652392
 20
92.17521377333866
 30
0.0
 11
162.893520516997
 21
92.17521377333866
 31
0.0
  0
LINE
  5
23C
  8
0
  6
CONTINUOUS
 62
     3
 10
162.893520516997
 20
139.6752137733387
 30
0.0
 11
162.893520516997
 21
92.17522140273319
 31
0.0
  0
LINE
  5
23D
  8
0
  6
CONTINUOUS
 62
     3
 10
157.893520516997
 20
134.6752137733387
 30
0.0
 11
157.893520516997
 21
97.17522140273319
 31
0.0
  0
LINE
  5
23E
  8
0
  6
CONTINUOUS
 62
     3
 10
122.4529992767626
 20
139.6752137733387
 30
0.0
 11
162.893520516997
 21
139.6752137733387
 31
0.0
  0
LINE
  5
23F
  8
0
  6
CONTINUOUS
 62
     3
 10
120.7383233734423
 20
134.6752137733387
 30
0.0
 11
157.893520516997
 21
134.6752137733387
 31
0.0
  0
LINE
  5
240
  8
0
  6
CONTINUOUS
 62
     3
 10
95.393520516997
 20
146.1752137733387
 30
0.0
 11
95.393520516997
 21
58.36968703994022
 31
0.0
  0
LINE
  5
241
  8
0
  6
CONTINUOUS
 62
     3
 10
73.393520516997
 20
17.46126647719608
 30
0.0
 11
73.393520516997
 21
-26.32477859726681
 31
0.0
  0
LINE
  5
242
  8
0
  6
CONTINUOUS
 62
     3
 10
73.393520516997
 20
102.6752214027332
 30
0.0
 11
73.393520516997
 21
58.88916106948123
 31
0.0
  0
LINE
  5
243
  8
0
  6
CONTINUOUS
 62
     3
 10
73.393520516997
 20
102.6752137733387
 30
0.0
 11
95.393520516997
 21
102.6752137733387
 31
0.0
  0
LINE
  5
244
  8
0
  6
CONTINUOUS
 62
     3
 10
73.393520516997
 20
-26.32477859726681
 30
0.0
 11
95.393520516997
 21
-26.32477859726681
 31
0.0
  0
LINE
  5
245
  8
0
  6
CONTINUOUS
 62
     3
 10
72.393520516997
 20
71.92521377333866
 30
0.0
 11
73.393520516997
 21
71.92521377333866
 31
0.0
  0
LINE
  5
246
  8
0
  6
CONTINUOUS
 62
     3
 10
-3.956485586518625
 20
80.67522140273319
 30
0.0
 11
-3.956485586518625
 21
66.37522216567264
 31
0.0
  0
LINE
  5
247
  8
0
  6
CONTINUOUS
 62
     3
 10
-5.956485586518625
 20
68.17522140273319
 30
0.0
 11
-5.956485586518625
 21
66.37522216567264
 31
0.0
  0
LINE
  5
248
  8
0
  6
CONTINUOUS
 62
     3
 10
-3.956479864472726
 20
5.675221402733186
 30
0.0
 11
16.69697014773431
 21
5.675221402733186
 31
0.0
  0
LINE
  5
249
  8
0
  6
CONTINUOUS
 62
     3
 10
-3.956479864472726
 20
70.67521377333866
 30
0.0
 11
16.69696824038567
 21
70.67521377333866
 31
0.0
  0
LINE
  5
24A
  8
0
  6
CONTINUOUS
 62
     3
 10
-5.956479864472726
 20
66.37522598036991
 30
0.0
 11
-3.956479864472726
 21
66.37522598036991
 31
0.0
  0
LINE
  5
24B
  8
0
  6
CONTINUOUS
 62
     3
 10
-5.956479864472726
 20
9.975216825096467
 30
0.0
 11
-3.956479864472726
 21
9.975216825096467
 31
0.0
  0
LINE
  5
24C
  8
0
  6
CONTINUOUS
 62
     3
 10
-5.956485586518625
 20
9.975220639793733
 30
0.0
 11
-5.956485586518625
 21
8.175221402733186
 31
0.0
  0
LINE
  5
24D
  8
0
  6
CONTINUOUS
 62
     3
 10
-3.956485586518625
 20
9.975220639793733
 30
0.0
 11
-3.956485586518625
 21
-4.324778597266814
 31
0.0
  0
LINE
  5
24E
  8
0
  6
CONTINUOUS
 62
     3
 10
72.393520516997
 20
88.67522903212772
 30
0.0
 11
72.393520516997
 21
58.81903167494998
 31
0.0
  0
LINE
  5
24F
  8
0
  6
CONTINUOUS
 62
     3
 10
71.39348226775167
 20
89.67520401513171
 30
0.0
 11
72.39348240209677
 21
88.67521146719172
 31
0.0
  0
LINE
  5
250
  8
0
  6
CONTINUOUS
 62
     3
 10
72.39350403789319
 20
-12.32475620662889
 30
0.0
 11
71.39350297630369
 21
-13.32475726821839
 31
0.0
  0
LINE
  5
251
  8
0
  6
CONTINUOUS
 62
     3
 10
-0.6064794830029996
 20
86.975224454491
 30
0.0
 11
-0.6064794830029996
 21
83.37522598036991
 31
0.0
  0
LINE
  5
252
  8
0
  6
CONTINUOUS
 62
     3
 10
-0.606469059303322
 20
86.97522502118714
 30
0.0
 11
0.4327614112622769
 21
85.17522529227732
 31
0.0
  0
LINE
  5
253
  8
0
  6
CONTINUOUS
 62
     3
 10
-0.6064959601109194
 20
83.3752102784316
 30
0.0
 11
0.4327345104546794
 21
85.17521000734142
 31
0.0
  0
LINE
  5
254
  8
0
  6
CONTINUOUS
 62
     3
 10
-4.956484632844308
 20
2.675221402733186
 30
0.0
 11
-3.956479864472726
 21
2.675221402733186
 31
0.0
  0
LINE
  5
255
  8
0
  6
CONTINUOUS
 62
     3
 10
-4.956484632844308
 20
73.67521377333866
 30
0.0
 11
-3.956479864472726
 21
73.67521377333866
 31
0.0
  0
LINE
  5
256
  8
0
  6
CONTINUOUS
 62
     3
 10
-5.956479864472726
 20
68.17521377333866
 30
0.0
 11
-3.956479864472726
 21
68.17521377333866
 31
0.0
  0
LINE
  5
257
  8
0
  6
CONTINUOUS
 62
     3
 10
-5.956479864472726
 20
8.175221402733186
 30
0.0
 11
-3.956479864472726
 21
8.175221402733186
 31
0.0
  0
LINE
  5
258
  8
0
  6
CONTINUOUS
 62
     3
 10
6.043514413481375
 20
80.67522140273319
 30
0.0
 11
6.043514413481375
 21
70.67522140273319
 31
0.0
  0
LINE
  5
259
  8
0
  6
CONTINUOUS
 62
     3
 10
6.043514413481375
 20
5.675221402733186
 30
0.0
 11
6.043514413481375
 21
-4.324778597266814
 31
0.0
  0
LINE
  5
25A
  8
0
  6
CONTINUOUS
 62
     3
 10
120.5077172943408
 20
-57.32477859726681
 30
0.0
 11
167.393520516997
 21
-57.32477859726681
 31
0.0
  0
LINE
  5
25B
  8
0
  6
CONTINUOUS
 62
     3
 10
123.9419366546923
 20
-66.32477859726681
 30
0.0
 11
167.393520516997
 21
-66.32477859726681
 31
0.0
  0
LINE
  5
25C
  8
0
  6
CONTINUOUS
 62
     3
 10
119.893520516997
 20
82.08049484023319
 30
0.0
 11
119.893520516997
 21
62.17521377333866
 31
0.0
  0
LINE
  5
25D
  8
0
  6
CONTINUOUS
 62
     3
 10
194.393520516997
 20
61.3091973853992
 30
0.0
 11
194.393520516997
 21
15.04124255904422
 31
0.0
  0
LINE
  5
25E
  8
0
  6
CONTINUOUS
 62
     3
 10
100.6850473114306
 20
62.17521377333866
 30
0.0
 11
138.8904992767626
 21
62.17521377333866
 31
0.0
  0
LINE
  5
25F
  8
0
  6
CONTINUOUS
 62
     3
 10
100.6850396820361
 20
14.17522140273319
 30
0.0
 11
138.893520516997
 21
14.17522140273319
 31
0.0
  0
LINE
  5
260
  8
0
  6
CONTINUOUS
 62
     3
 10
192.8935151424927
 20
62.17526217931287
 30
0.0
 11
194.3935194246557
 21
61.3092343989009
 31
0.0
  0
LINE
  5
261
  8
0
  6
CONTINUOUS
 62
     3
 10
192.8935270148453
 20
14.17518290621898
 30
0.0
 11
194.3935312970083
 21
15.04121068663095
 31
0.0
  0
LINE
  5
262
  8
0
  6
CONTINUOUS
 62
     3
 10
154.0935327240283
 20
14.17522140273319
 30
0.0
 11
192.893520516997
 21
14.17522140273319
 31
0.0
  0
LINE
  5
263
  8
0
  6
CONTINUOUS
 62
     3
 10
154.0935327240283
 20
62.17521377333866
 30
0.0
 11
192.893520516997
 21
62.17521377333866
 31
0.0
  0
LINE
  5
264
  8
0
  6
CONTINUOUS
 62
     3
 10
172.393520516997
 20
58.37522598036991
 30
0.0
 11
194.393520516997
 21
58.37522598036991
 31
0.0
  0
LINE
  5
265
  8
0
  6
CONTINUOUS
 62
     3
 10
172.393520516997
 20
17.97521682509647
 30
0.0
 11
194.393520516997
 21
17.97521682509647
 31
0.0
  0
LINE
  5
266
  8
0
  6
CONTINUOUS
 62
     3
 10
169.893520516997
 20
16.97521682509647
 30
0.0
 11
171.893520516997
 21
16.97521682509647
 31
0.0
  0
LINE
  5
267
  8
0
  6
CONTINUOUS
 62
     3
 10
169.893520516997
 20
59.37522598036991
 30
0.0
 11
171.893520516997
 21
59.37522598036991
 31
0.0
  0
LINE
  5
268
  8
0
  6
CONTINUOUS
 62
     3
 10
172.393520516997
 20
58.87522216567264
 30
0.0
 11
172.393520516997
 21
17.47522063979373
 31
0.0
  0
LINE
  5
269
  8
0
  6
CONTINUOUS
 62
     3
 10
169.393520516997
 20
58.87522216567264
 30
0.0
 11
169.393520516997
 21
17.47522063979373
 31
0.0
  0
LINE
  5
26A
  8
0
  6
CONTINUOUS
 62
     3
 10
3.393520516997
 20
61.17522140273319
 30
0.0
 11
3.393520516997
 21
60.17522140273319
 31
0.0
  0
LINE
  5
26B
  8
0
  6
CONTINUOUS
 62
     3
 10
11.393520516997
 20
61.3091973853992
 30
0.0
 11
11.393520516997
 21
60.17522140273319
 31
0.0
  0
LINE
  5
26C
  8
0
  6
CONTINUOUS
 62
     3
 10
11.39351189990805
 20
15.04124966974156
 30
0.0
 11
12.89351122663368
 21
14.17522475035237
 31
0.0
  0
LINE
  5
26D
  8
0
  6
CONTINUOUS
 62
     3
 10
11.39352243528231
 20
61.30920345355149
 30
0.0
 11
12.89352011019548
 21
62.17522741926642
 31
0.0
  0
LINE
  5
26E
  8
0
  6
CONTINUOUS
 62
     3
 10
3.393520516997
 20
16.17522140273319
 30
0.0
 11
11.393520516997
 21
16.17522140273319
 31
0.0
  0
LINE
  5
26F
  8
0
  6
CONTINUOUS
 62
     3
 10
3.393520516997
 20
60.17521377333866
 30
0.0
 11
11.393520516997
 21
60.17521377333866
 31
0.0
  0
LINE
  5
270
  8
0
  6
CONTINUOUS
 62
     3
 10
3.393520516997
 20
16.17522140273319
 30
0.0
 11
3.393520516997
 21
15.17522140273319
 31
0.0
  0
LINE
  5
271
  8
0
  6
CONTINUOUS
 62
     3
 10
11.393520516997
 20
16.17522140273319
 30
0.0
 11
11.393520516997
 21
15.04124637374149
 31
0.0
  0
LINE
  5
272
  8
0
  6
CONTINUOUS
 62
     3
 10
-1.606479483003
 20
56.52521987685428
 30
0.0
 11
-1.606479483003
 21
19.82522102126346
 31
0.0
  0
LINE
  5
273
  8
0
  6
CONTINUOUS
 62
     3
 10
-1.606479483003
 20
56.52521987685428
 30
0.0
 11
169.393520516997
 21
56.52521987685428
 31
0.0
  0
LINE
  5
274
  8
0
  6
CONTINUOUS
 62
     3
 10
-1.606479483003
 20
19.82522292861209
 30
0.0
 11
169.393520516997
 21
19.82522292861209
 31
0.0
  0
LINE
  5
275
  8
0
  6
CONTINUOUS
 62
     3
 10
-3.956479864472726
 20
73.67521377333866
 30
0.0
 11
-0.8439386657422574
 21
73.67521377333866
 31
0.0
  0
LINE
  5
276
  8
0
  6
CONTINUOUS
 62
     3
 10
-3.956479864472726
 20
77.67521377333866
 30
0.0
 11
-0.8439386657422574
 21
77.67521377333866
 31
0.0
  0
LINE
  5
277
  8
0
  6
CONTINUOUS
 62
     3
 10
-3.956479864472726
 20
-1.324778597266814
 30
0.0
 11
-0.8439386657422574
 21
-1.324778597266814
 31
0.0
  0
LINE
  5
278
  8
0
  6
CONTINUOUS
 62
     3
 10
-3.956479864472726
 20
2.675221402733186
 30
0.0
 11
-0.8439386657422574
 21
2.675221402733186
 31
0.0
  0
LINE
  5
279
  8
0
  6
CONTINUOUS
 62
     3
 10
2.930980844145438
 20
2.675221402733186
 30
0.0
 11
6.043522042875907
 21
2.675221402733186
 31
0.0
  0
LINE
  5
27A
  8
0
  6
CONTINUOUS
 62
     3
 10
2.930980844145438
 20
-1.324778597266814
 30
0.0
 11
6.043522042875907
 21
-1.324778597266814
 31
0.0
  0
LINE
  5
27B
  8
0
  6
CONTINUOUS
 62
     3
 10
2.930980844145438
 20
73.67521377333866
 30
0.0
 11
6.043522042875907
 21
73.67521377333866
 31
0.0
  0
LINE
  5
27C
  8
0
  6
CONTINUOUS
 62
     3
 10
2.930980844145438
 20
77.67521377333866
 30
0.0
 11
6.043522042875907
 21
77.67521377333866
 31
0.0
  0
LINE
  5
27D
  8
0
  6
CONTINUOUS
 62
     3
 10
6.043522042875907
 20
77.67521377333866
 30
0.0
 11
9.043522042875907
 21
77.67521377333866
 31
0.0
  0
LINE
  5
27E
  8
0
  6
CONTINUOUS
 62
     3
 10
6.043522042875907
 20
-1.324778597266814
 30
0.0
 11
9.043522042875907
 21
-1.324778597266814
 31
0.0
  0
LINE
  5
27F
  8
0
  6
CONTINUOUS
 62
     3
 10
9.043514413481375
 20
77.67522140273319
 30
0.0
 11
9.043514413481375
 21
70.67522140273319
 31
0.0
  0
LINE
  5
280
  8
0
  6
CONTINUOUS
 62
     3
 10
9.043514413481375
 20
5.675221402733186
 30
0.0
 11
9.043514413481375
 21
-1.324778597266814
 31
0.0
  0
LINE
  5
281
  8
0
  6
CONTINUOUS
 62
     3
 10
29.76919429696466
 20
93.61308678623171
 30
0.0
 11
31.39354949837809
 21
92.67526497704846
 31
0.0
  0
LINE
  5
282
  8
0
  6
CONTINUOUS
 62
     3
 10
52.39350946419438
 20
116.6752508502378
 30
0.0
 11
54.01785062520196
 21
115.7374371472858
 31
0.0
  0
LINE
  5
283
  8
0
  6
CONTINUOUS
 62
     3
 10
29.76916352790897
 20
115.7374329186804
 30
0.0
 11
31.39351625160373
 21
116.6752532973522
 31
0.0
  0
LINE
  5
284
  8
0
  6
CONTINUOUS
 62
     3
 10
52.39350844610681
 20
92.67522876857321
 30
0.0
 11
54.01786116980156
 21
93.61304914724506
 31
0.0
  0
LINE
  5
285
  8
0
  6
CONTINUOUS
 62
     3
 10
29.76916138613763
 20
115.7374009681629
 30
0.0
 11
29.76916138613763
 21
93.6130418373035
 31
0.0
  0
LINE
  5
286
  8
0
  6
CONTINUOUS
 62
     3
 10
54.01787964785638
 20
115.7374085975574
 30
0.0
 11
54.01787964785638
 21
93.6130418373035
 31
0.0
  0
LINE
  5
287
  8
0
  6
CONTINUOUS
 62
     3
 10
35.83132569277825
 20
115.7374009681629
 30
0.0
 11
35.83132569277825
 21
93.6130418373035
 31
0.0
  0
LINE
  5
288
  8
0
  6
CONTINUOUS
 62
     3
 10
52.393520516997
 20
92.67522140273319
 30
0.0
 11
52.393520516997
 21
89.67522140273319
 31
0.0
  0
LINE
  5
289
  8
0
  6
CONTINUOUS
 62
     3
 10
31.393520516997
 20
92.67521377333866
 30
0.0
 11
52.393520516997
 21
92.67521377333866
 31
0.0
  0
LINE
  5
28A
  8
0
  6
CONTINUOUS
 62
     3
 10
31.393520516997
 20
92.67522140273319
 30
0.0
 11
31.393520516997
 21
89.67522140273319
 31
0.0
  0
LINE
  5
28B
  8
0
  6
CONTINUOUS
 62
     3
 10
31.39351670229974
 20
116.6752137733387
 30
0.0
 11
52.39352814639153
 21
116.6752137733387
 31
0.0
  0
LINE
  5
28C
  8
0
  6
CONTINUOUS
 62
     3
 10
47.95568482363763
 20
115.7374009681629
 30
0.0
 11
47.95568482363763
 21
93.6130418373035
 31
0.0
  0
LINE
  5
28D
  8
0
  6
CONTINUOUS
 62
     3
 10
73.393520516997
 20
88.77412124404178
 30
0.0
 11
95.393520516997
 21
88.77412124404178
 31
0.0
  0
LINE
  5
28E
  8
0
  6
CONTINUOUS
 62
     3
 10
73.393520516997
 20
-12.42369751206174
 30
0.0
 11
95.393520516997
 21
-12.42369751206174
 31
0.0
  0
LINE
  5
28F
  8
0
  6
CONTINUOUS
 62
     3
 10
113.393520516997
 20
-3.894041101844451
 30
0.0
 11
113.393520516997
 21
-69.82477859726681
 31
0.0
  0
LINE
  5
290
  8
0
  6
CONTINUOUS
 62
     3
 10
95.393520516997
 20
17.98074146041141
 30
0.0
 11
95.393520516997
 21
-69.82477859726681
 31
0.0
  0
LINE
  5
291
  8
0
  6
CONTINUOUS
 62
     3
 10
72.393520516997
 20
17.53139587172733
 30
0.0
 11
72.393520516997
 21
-12.32477859726681
 31
0.0
  0
LINE
  5
292
  8
0
  6
CONTINUOUS
 62
     3
 10
119.893520516997
 20
14.17522140273319
 30
0.0
 11
119.893520516997
 21
-5.915571253211638
 31
0.0
  0
LINE
  5
293
  8
0
  6
CONTINUOUS
 62
     3
 10
115.393520516997
 20
8.175213773338655
 30
0.0
 11
119.893520516997
 21
8.175213773338655
 31
0.0
  0
LINE
  5
294
  8
0
  6
CONTINUOUS
 62
     3
 10
115.393520516997
 20
68.17521377333866
 30
0.0
 11
119.893520516997
 21
68.17521377333866
 31
0.0
  0
LINE
  5
295
  8
0
  6
CONTINUOUS
 62
     3
 10
115.393520516997
 20
68.17521377333866
 30
0.0
 11
115.393520516997
 21
62.17521377333866
 31
0.0
  0
LINE
  5
296
  8
0
  6
CONTINUOUS
 62
     3
 10
115.393520516997
 20
14.17522140273319
 30
0.0
 11
115.393520516997
 21
8.175213773338655
 31
0.0
  0
LINE
  5
297
  8
0
  6
CONTINUOUS
 62
     3
 10
104.893520516997
 20
66.67521377333866
 30
0.0
 11
104.893520516997
 21
62.17521377333866
 31
0.0
  0
LINE
  5
298
  8
0
  6
CONTINUOUS
 62
     3
 10
110.5935174652392
 20
66.67521377333866
 30
0.0
 11
110.5935174652392
 21
62.17521377333866
 31
0.0
  0
LINE
  5
299
  8
0
  6
CONTINUOUS
 62
     3
 10
105.393520516997
 20
67.17521377333866
 30
0.0
 11
110.0935174652392
 21
67.17521377333866
 31
0.0
  0
LINE
  5
29A
  8
0
  6
CONTINUOUS
 62
     3
 10
183.5935327240283
 20
-57.82477859726681
 30
0.0
 11
183.5935327240283
 21
-65.82477859726681
 31
0.0
  0
LINE
  5
29B
  8
0
  6
CONTINUOUS
 62
     3
 10
120.6183435150439
 20
-57.82477859726681
 30
0.0
 11
183.5935327240283
 21
-57.82477859726681
 31
0.0
  0
LINE
  5
29C
  8
0
  6
CONTINUOUS
 62
     3
 10
123.6688501068408
 20
-65.82477859726681
 30
0.0
 11
183.5935327240283
 21
-65.82477859726681
 31
0.0
  0
LINE
  5
29D
  8
0
  6
CONTINUOUS
 62
     3
 10
167.393520516997
 20
-66.32477859726681
 30
0.0
 11
167.393520516997
 21
-68.32477859726681
 31
0.0
  0
LINE
  5
29E
  8
0
  6
CONTINUOUS
 62
     3
 10
110.5935174652392
 20
9.675213773338655
 30
0.0
 11
110.5935174652392
 21
14.17521377333866
 31
0.0
  0
LINE
  5
29F
  8
0
  6
CONTINUOUS
 62
     3
 10
104.893520516997
 20
9.675213773338655
 30
0.0
 11
104.893520516997
 21
14.17521377333866
 31
0.0
  0
LINE
  5
2A0
  8
0
  6
CONTINUOUS
 62
     3
 10
105.393520516997
 20
9.175213773338655
 30
0.0
 11
110.0935174652392
 21
9.175213773338655
 31
0.0
  0
LINE
  5
2A1
  8
0
  6
CONTINUOUS
 62
     3
 10
-5.606486158723214
 20
-13.32478241196408
 30
0.0
 11
-5.606486158723214
 21
-4.324782888801238
 31
0.0
  0
LINE
  5
2A2
  8
0
  6
CONTINUOUS
 62
     3
 10
-4.956484632844308
 20
-3.824784796149871
 30
0.0
 11
-4.956484632844308
 21
2.675212923972467
 31
0.0
  0
LINE
  5
2A3
  8
0
  6
CONTINUOUS
 62
     3
 10
-6.456487493867257
 20
80.17521377333866
 30
0.0
 11
-6.456487493867257
 21
67.67520614394412
 31
0.0
  0
LINE
  5
2A4
  8
0
  6
CONTINUOUS
 62
     3
 10
-4.956484632844308
 20
80.17521377333866
 30
0.0
 11
-4.956484632844308
 21
73.67520614394412
 31
0.0
  0
LINE
  5
2A5
  8
0
  6
CONTINUOUS
 62
     3
 10
139.893520516997
 20
-1.824786703498504
 30
0.0
 11
139.893520516997
 21
13.17521281966434
 31
0.0
  0
LINE
  5
2A6
  8
0
  6
CONTINUOUS
 62
     3
 10
151.893520516997
 20
-15.32478622666135
 30
0.0
 11
151.893520516997
 21
-3.824796240241668
 31
0.0
  0
LINE
  5
2A7
  8
0
  6
CONTINUOUS
 62
     3
 10
139.893520516997
 20
78.17522140273319
 30
0.0
 11
139.893520516997
 21
63.17520995864139
 31
0.0
  0
LINE
  5
2A8
  8
0
  6
CONTINUOUS
 62
     3
 10
154.0935298085548
 20
-1.624773440042773
 30
0.0
 11
151.8935048149125
 21
-3.824798433685047
 31
0.0
  0
LINE
  5
2A9
  8
0
  6
CONTINUOUS
 62
     3
 10
139.8935190498211
 20
-1.824790915709528
 30
0.0
 11
141.3935206422053
 21
-3.324792508093779
 31
0.0
  0
LINE
  5
2AA
  8
0
  6
CONTINUOUS
 62
     3
 10
151.893520516997
 20
131.1752137733387
 30
0.0
 11
151.893520516997
 21
80.17522140273319
 31
0.0
  0
LINE
  5
2AB
  8
0
  6
CONTINUOUS
 62
     3
 10
151.893520516997
 20
-54.82478241196408
 30
0.0
 11
151.893520516997
 21
-21.32478622666135
 31
0.0
  0
LINE
  5
2AC
  8
0
  6
CONTINUOUS
 62
     3
 10
149.393520516997
 20
131.1752137733387
 30
0.0
 11
149.393520516997
 21
126.4252061439441
 31
0.0
  0
LINE
  5
2AD
  8
0
  6
CONTINUOUS
 62
     3
 10
143.9935266205126
 20
131.1752137733387
 30
0.0
 11
143.9935266205126
 21
126.4252061439441
 31
0.0
  0
LINE
  5
2AE
  8
0
  6
CONTINUOUS
 62
     3
 10
143.9935266205126
 20
126.4252061439441
 30
0.0
 11
149.393520516997
 21
126.4252061439441
 31
0.0
  0
LINE
  5
2AF
  8
0
  6
CONTINUOUS
 62
     3
 10
143.9935266205126
 20
-54.82478241196408
 30
0.0
 11
143.9935266205126
 21
-50.07478622666135
 31
0.0
  0
LINE
  5
2B0
  8
0
  6
CONTINUOUS
 62
     3
 10
149.393520516997
 20
-54.82478241196408
 30
0.0
 11
149.393520516997
 21
-50.07478622666135
 31
0.0
  0
LINE
  5
2B1
  8
0
  6
CONTINUOUS
 62
     3
 10
143.9935266205126
 20
-50.07478622666135
 30
0.0
 11
149.393520516997
 21
-50.07478622666135
 31
0.0
  0
LINE
  5
2B2
  8
0
  6
CONTINUOUS
 62
     3
 10
154.0935298085548
 20
77.9751902190395
 30
0.0
 11
151.8935075123108
 21
80.17521251528352
 31
0.0
  0
LINE
  5
2B3
  8
0
  6
CONTINUOUS
 62
     3
 10
139.8935163524228
 20
78.17521039210452
 30
0.0
 11
141.3935287344001
 21
79.6752227740818
 31
0.0
  0
LINE
  5
2B4
  8
0
  6
CONTINUOUS
 62
     3
 10
141.3935357757861
 20
-54.82478241196408
 30
0.0
 11
141.3935357757861
 21
-3.324792425544402
 31
0.0
  0
LINE
  5
2B5
  8
0
  6
CONTINUOUS
 62
     3
 10
141.3935357757861
 20
131.1752137733387
 30
0.0
 11
141.3935357757861
 21
79.67522140273319
 31
0.0
  0
LINE
  5
2B6
  8
0
  6
CONTINUOUS
 62
     3
 10
130.1465417572314
 20
-22.32478241196408
 30
0.0
 11
141.3935357757861
 21
-22.32478241196408
 31
0.0
  0
LINE
  5
2B7
  8
0
  6
CONTINUOUS
 62
     3
 10
128.9843560882861
 20
-14.32478431931271
 30
0.0
 11
141.3935357757861
 21
-14.32478431931271
 31
0.0
  0
LINE
  5
2B8
  8
0
  6
CONTINUOUS
 62
     3
 10
0.3935205169970004
 20
62.4752130103992
 30
0.0
 11
0.3935205169970004
 21
61.5135430885242
 31
0.0
  0
LINE
  5
2B9
  8
0
  6
CONTINUOUS
 62
     3
 10
0.3935205169970004
 20
13.87521358260379
 30
0.0
 11
0.3935205169970004
 21
14.83688541182742
 31
0.0
  0
ARC
  5
2BA
  8
0
  6
CONTINUOUS
 62
     3
 10
161.393520516997
 20
66.52521987685428
 30
0.0
 40
0.699999988079071
 50
89.99998201391065
 51
179.9999640278213
  0
ARC
  5
2BB
  8
0
  6
CONTINUOUS
 62
     3
 10
165.6935083099658
 20
66.52521987685428
 30
0.0
 40
0.699999988079071
 50
0.0
 51
89.99998201391065
  0
ARC
  5
2BC
  8
0
  6
CONTINUOUS
 62
     3
 10
165.6935083099658
 20
9.825222928612092
 30
0.0
 40
0.699999988079071
 50
270.0000179860894
 51
360.0
  0
ARC
  5
2BD
  8
0
  6
CONTINUOUS
 62
     3
 10
161.393520516997
 20
9.825222928612092
 30
0.0
 40
0.699999988079071
 50
179.9999813306654
 51
270.0000179860894
  0
ARC
  5
2BE
  8
0
  6
CONTINUOUS
 62
     3
 10
169.893520516997
 20
58.87522598036991
 30
0.0
 40
0.5
 50
89.99998201391065
 51
179.9999640278213
  0
ARC
  5
2BF
  8
0
  6
CONTINUOUS
 62
     3
 10
171.893520516997
 20
58.87522598036991
 30
0.0
 40
0.5
 50
0.0
 51
89.99998201391065
  0
ARC
  5
2C0
  8
0
  6
CONTINUOUS
 62
     3
 10
171.893520516997
 20
17.47521682509647
 30
0.0
 40
0.5
 50
270.0000179860894
 51
360.0
  0
ARC
  5
2C1
  8
0
  6
CONTINUOUS
 62
     3
 10
169.893520516997
 20
17.47521682509647
 30
0.0
 40
0.5
 50
179.9999813306654
 51
270.0000179860894
  0
ARC
  5
2C2
  8
0
  6
CONTINUOUS
 62
     3
 10
41.893520516997
 20
96.61301894911991
 30
0.0
 40
20.06221008300781
 50
72.41207414639857
 51
107.5879445229361
  0
ARC
  5
2C3
  8
0
  6
CONTINUOUS
 62
     3
 10
41.893520516997
 20
112.7374391151355
 30
0.0
 40
20.06221008300781
 50
252.4120554770639
 51
287.5879190234123
  0
ARC
  5
2C4
  8
0
  6
CONTINUOUS
 62
     3
 10
52.1883203216845
 20
102.673108060448
 30
0.0
 40
10.0
 50
244.959274073637
 51
268.8241462789583
  0
ARC
  5
2C5
  8
0
  6
CONTINUOUS
 62
     3
 10
31.5987207123095
 20
102.673108060448
 30
0.0
 40
10.0
 50
271.1758282215179
 51
295.04069359665
  0
ARC
  5
2C6
  8
0
  6
CONTINUOUS
 62
     3
 10
31.5987207123095
 20
106.6773194862293
 30
0.0
 40
10.0
 50
64.95930640334998
 51
88.82417177848213
  0
ARC
  5
2C7
  8
0
  6
CONTINUOUS
 62
     3
 10
52.1883203216845
 20
106.6773194862293
 30
0.0
 40
10.0
 50
88.82414445772545
 51
115.040725926363
  0
ARC
  5
2C8
  8
0
  6
CONTINUOUS
 62
     3
 10
105.393520516997
 20
66.67521377333866
 30
0.0
 40
0.5
 50
89.99998201391065
 51
179.9999640278213
  0
ARC
  5
2C9
  8
0
  6
CONTINUOUS
 62
     3
 10
110.0935174652392
 20
66.67521377333866
 30
0.0
 40
0.5
 50
0.0
 51
89.99998201391065
  0
ARC
  5
2CA
  8
0
  6
CONTINUOUS
 62
     3
 10
110.0935174652392
 20
9.675213773338655
 30
0.0
 40
0.5
 50
270.0000179860894
 51
360.0
  0
ARC
  5
2CB
  8
0
  6
CONTINUOUS
 62
     3
 10
105.393520516997
 20
9.675213773338655
 30
0.0
 40
0.5
 50
180.0000359721787
 51
270.0000179860894
  0
ARC
  5
2CC
  8
0
  6
CONTINUOUS
 62
     3
 10
138.893520516997
 20
63.17520995864139
 30
0.0
 40
1.0
 50
269.9999974955218
 51
360.0
  0
ARC
  5
2CD
  8
0
  6
CONTINUOUS
 62
     3
 10
138.893520516997
 20
13.17521281966434
 30
0.0
 40
1.0
 50
0.0
 51
90.00000250447816
  0
LINE
  5
2CE
  8
0
  6
CONTINUOUS
 62
     4
 10
-14.606479483003
 20
66.87522598036991
 30
0.0
 11
-5.956479864472726
 21
66.87522598036991
 31
0.0
  0
LINE
  5
2CF
  8
0
  6
CONTINUOUS
 62
     4
 10
-14.606479483003
 20
9.475216825096467
 30
0.0
 11
-5.956479864472726
 21
9.475216825096467
 31
0.0
  0
LINE
  5
2D0
  8
0
  6
CONTINUOUS
 62
     4
 10
-13.606479483003
 20
87.67521377333866
 30
0.0
 11
-3.606479483003
 21
87.67521377333866
 31
0.0
  0
LINE
  5
2D1
  8
0
  6
CONTINUOUS
 62
     4
 10
-13.606479483003
 20
82.67521377333866
 30
0.0
 11
-3.606479483003
 21
82.67521377333866
 31
0.0
  0
LINE
  5
2D2
  8
0
  6
CONTINUOUS
 62
     4
 10
-56.40647490536628
 20
60.37522598036991
 30
0.0
 11
3.393520516997
 21
60.37522598036991
 31
0.0
  0
LINE
  5
2D3
  8
0
  6
CONTINUOUS
 62
     4
 10
-56.40647490536628
 20
15.97521682509647
 30
0.0
 11
3.393520516997
 21
15.97521682509647
 31
0.0
  0
ARC
  5
2D4
  8
0
  6
CONTINUOUS
 62
     4
 10
-138.6271398833936
 20
38.17521377333866
 30
0.0
 40
22.20001220703125
 50
89.99998201391065
 51
270.0000006832453
  0
ARC
  5
2D5
  8
0
  6
CONTINUOUS
 62
     4
 10
-138.6271093658155
 20
85.17521377333866
 30
0.0
 40
2.5
 50
90.00071967434101
 51
269.9992630228149
  0
CIRCLE
  5
2D6
  8
0
  6
CONTINUOUS
 62
     4
 10
-179.330356436128
 20
14.67525573500858
 30
0.0
 40
2.5
  0
ARC
  5
2D7
  8
0
  6
CONTINUOUS
 62
     4
 10
-138.6271398833936
 20
38.17521377333866
 30
0.0
 40
28.70001220703125
 50
89.99998201391065
 51
270.0000006832453
  0
ARC
  5
2D8
  8
0
  6
CONTINUOUS
 62
     4
 10
-138.6271398833936
 20
71.17521377333866
 30
0.0
 40
2.0
 50
89.99998201391065
 51
270.0000006832453
  0
LINE
  5
2D9
  8
0
  6
CONTINUOUS
 62
     4
 10
172.393520516997
 20
59.17521377333866
 30
0.0
 11
194.393520516997
 21
59.17521377333866
 31
0.0
  0
LINE
  5
2DA
  8
0
  6
CONTINUOUS
 62
     4
 10
172.393520516997
 20
17.17522140273319
 30
0.0
 11
194.393520516997
 21
17.17522140273319
 31
0.0
  0
LINE
  5
2DB
  8
0
  6
CONTINUOUS
 62
     2
 10
-191.1820172821857
 20
-46.95226816934122
 30
0.0
 11
-188.6272302327665
 21
-45.47726470334204
 31
0.0
  0
LINE
  5
2DC
  8
0
  6
CONTINUOUS
 62
     2
 10
-188.6272203063321
 20
-45.47726553204633
 30
0.0
 11
-186.0724501639237
 21
-46.95226769867135
 31
0.0
  0
LINE
  5
2DD
  8
0
  6
CONTINUOUS
 62
     2
 10
-186.0724523833936
 20
-46.95227340927853
 30
0.0
 11
-186.0724523833936
 21
-49.90227035752072
 31
0.0
  0
LINE
  5
2DE
  8
0
  6
CONTINUOUS
 62
     2
 10
-186.0724393499661
 20
-49.90226482988796
 30
0.0
 11
-188.6272263993853
 21
-51.37726820796992
 31
0.0
  0
LINE
  5
2DF
  8
0
  6
CONTINUOUS
 62
     2
 10
-188.6272368151816
 20
-51.37726844756675
 30
0.0
 11
-191.1820078367576
 21
-49.90226768760989
 31
0.0
  0
LINE
  5
2E0
  8
0
  6
CONTINUOUS
 62
     2
 10
-191.1820104888624
 20
-49.90226654282346
 30
0.0
 11
-191.1820104888624
 21
-46.952265779884
 31
0.0
  0
LINE
  5
2E1
  8
0
  6
CONTINUOUS
 62
     2
 10
-241.1819202458377
 20
39.65031108441359
 30
0.0
 11
-238.6271331964184
 21
41.12531455041277
 31
0.0
  0
LINE
  5
2E2
  8
0
  6
CONTINUOUS
 62
     2
 10
-238.6271332101695
 20
41.12530742734894
 30
0.0
 11
-236.0723498532733
 21
39.6502976313103
 31
0.0
  0
LINE
  5
2E3
  8
0
  6
CONTINUOUS
 62
     2
 10
-236.0723608306593
 20
39.65030380019412
 30
0.0
 11
-236.0723608306593
 21
36.70030303725467
 31
0.0
  0
LINE
  5
2E4
  8
0
  6
CONTINUOUS
 62
     2
 10
-236.0723544552383
 20
36.70031009811315
 30
0.0
 11
-238.6271415046575
 21
35.22530672003119
 31
0.0
  0
LINE
  5
2E5
  8
0
  6
CONTINUOUS
 62
     2
 10
-238.6271330240246
 20
35.22530148016209
 30
0.0
 11
-241.181917260093
 21
36.7003098695253
 31
0.0
  0
LINE
  5
2E6
  8
0
  6
CONTINUOUS
 62
     2
 10
-241.181918936128
 20
36.70030685195194
 30
0.0
 11
-241.181918936128
 21
39.65030761489139
 31
0.0
  0
LINE
  5
2E7
  8
0
  6
CONTINUOUS
 62
     2
 10
-191.1818656292847
 20
126.2527973768359
 30
0.0
 11
-188.6270917943724
 21
127.7277932134542
 31
0.0
  0
LINE
  5
2E8
  8
0
  6
CONTINUOUS
 62
     2
 10
-188.6270826959449
 20
127.727798006626
 30
0.0
 11
-186.0722993390486
 21
126.2527882105874
 31
0.0
  0
LINE
  5
2E9
  8
0
  6
CONTINUOUS
 62
     2
 10
-186.072299795503
 20
126.2527894569324
 30
0.0
 11
-186.072299795503
 21
123.3027848792957
 31
0.0
  0
LINE
  5
2EA
  8
0
  6
CONTINUOUS
 62
     2
 10
-186.0723049558222
 20
123.3027899948894
 30
0.0
 11
-188.6270787907346
 21
121.8277942461879
 31
0.0
  0
LINE
  5
2EB
  8
0
  6
CONTINUOUS
 62
     2
 10
-188.6270792429125
 20
121.8277880404715
 30
0.0
 11
-191.1818634789809
 21
123.3027964298347
 31
0.0
  0
LINE
  5
2EC
  8
0
  6
CONTINUOUS
 62
     2
 10
-191.1818579009718
 20
123.3027925086902
 30
0.0
 11
-191.1818579009718
 21
126.2527894569324
 31
0.0
  0
LINE
  5
2ED
  8
0
  6
CONTINUOUS
 62
     2
 10
-169.4122690015887
 20
89.14666260228078
 30
0.0
 11
-167.3771027927818
 21
90.32166348293377
 31
0.0
  0
LINE
  5
2EE
  8
0
  6
CONTINUOUS
 62
     2
 10
-167.3771328653698
 20
90.32167311262406
 30
0.0
 11
-165.3419694579885
 21
89.14666725944066
 31
0.0
  0
LINE
  5
2EF
  8
0
  6
CONTINUOUS
 62
     2
 10
-165.3419683746046
 20
89.14667220839725
 30
0.0
 11
-165.3419683746046
 21
86.79667373427616
 31
0.0
  0
LINE
  5
2F0
  8
0
  6
CONTINUOUS
 62
     2
 10
-165.3419909016287
 20
86.79669659182024
 30
0.0
 11
-167.3771571104356
 21
85.62169564113161
 31
0.0
  0
LINE
  5
2F1
  8
0
  6
CONTINUOUS
 62
     2
 10
-167.3771061524207
 20
85.62166913540237
 30
0.0
 11
-169.4122701200871
 21
86.79667386801553
 31
0.0
  0
LINE
  5
2F2
  8
0
  6
CONTINUOUS
 62
     2
 10
-169.4122808746046
 20
86.79668136367069
 30
0.0
 11
-169.4122808746046
 21
89.14667983779178
 31
0.0
  0
LINE
  5
2F3
  8
0
  6
CONTINUOUS
 62
     2
 10
-190.4587463523902
 20
68.10023023553354
 30
0.0
 11
-188.4235801435833
 21
69.27523111618653
 31
0.0
  0
LINE
  5
2F4
  8
0
  6
CONTINUOUS
 62
     2
 10
-188.4235934340217
 20
69.27522591416287
 30
0.0
 11
-186.3884300266403
 21
68.10022006097948
 31
0.0
  0
LINE
  5
2F5
  8
0
  6
CONTINUOUS
 62
     2
 10
-186.3884313872999
 20
68.100224454491
 30
0.0
 11
-186.3884313872999
 21
65.75022598036991
 31
0.0
  0
LINE
  5
2F6
  8
0
  6
CONTINUOUS
 62
     2
 10
-186.3884461568317
 20
65.75024075393309
 30
0.0
 11
-188.4236123656386
 21
64.57523980324446
 31
0.0
  0
LINE
  5
2F7
  8
0
  6
CONTINUOUS
 62
     2
 10
-188.4235782974123
 20
64.57523182981127
 30
0.0
 11
-190.4587422650787
 21
65.75023656242443
 31
0.0
  0
LINE
  5
2F8
  8
0
  6
CONTINUOUS
 62
     2
 10
-190.4587438872999
 20
65.75022979506717
 30
0.0
 11
-190.4587438872999
 21
68.10023208388553
 31
0.0
  0
LINE
  5
2F9
  8
0
  6
CONTINUOUS
 62
     2
 10
-190.4587721278311
 20
10.60023091461413
 30
0.0
 11
-188.4236059190242
 21
11.77523179526712
 31
0.0
  0
LINE
  5
2FA
  8
0
  6
CONTINUOUS
 62
     2
 10
-188.4236126160735
 20
11.77523652861451
 30
0.0
 11
-186.3884492086921
 21
10.60023067543112
 31
0.0
  0
LINE
  5
2FB
  8
0
  6
CONTINUOUS
 62
     2
 10
-186.388461904878
 20
10.6002358985828
 30
0.0
 11
-186.388461904878
 21
8.250236470787385
 31
0.0
  0
LINE
  5
2FC
  8
0
  6
CONTINUOUS
 62
     2
 10
-186.3884676556589
 20
8.250250998141709
 30
0.0
 11
-188.4236338644658
 21
7.075250047453082
 31
0.0
  0
LINE
  5
2FD
  8
0
  6
CONTINUOUS
 62
     2
 10
-188.423604753228
 20
7.075239718033444
 30
0.0
 11
-190.4587687208945
 21
8.250244450646605
 31
0.0
  0
LINE
  5
2FE
  8
0
  6
CONTINUOUS
 62
     2
 10
-190.458774404878
 20
8.250240285484651
 30
0.0
 11
-190.458774404878
 21
10.60023971328006
 31
0.0
  0
LINE
  5
2FF
  8
0
  6
CONTINUOUS
 62
     2
 10
-169.4123095173799
 20
-10.44623778467998
 30
0.0
 11
-167.377143308573
 21
-9.271236904026992
 31
0.0
  0
LINE
  5
300
  8
0
  6
CONTINUOUS
 62
     2
 10
-167.3771507577889
 20
-9.271232503917091
 30
0.0
 11
-165.3419873504075
 21
-10.44623835710048
 31
0.0
  0
LINE
  5
301
  8
0
  6
CONTINUOUS
 62
     2
 10
-165.3419988921827
 20
-10.44623855820431
 30
0.0
 11
-165.3419988921827
 21
-12.79623893967404
 31
0.0
  0
LINE
  5
302
  8
0
  6
CONTINUOUS
 62
     2
 10
-165.3420003737004
 20
-12.79622407882165
 30
0.0
 11
-167.3771665825074
 21
-13.97122502951028
 31
0.0
  0
LINE
  5
303
  8
0
  6
CONTINUOUS
 62
     2
 10
-167.3771438111957
 20
-13.97123726382019
 30
0.0
 11
-169.4123077788621
 21
-12.79623253120703
 31
0.0
  0
LINE
  5
304
  8
0
  6
CONTINUOUS
 62
     2
 10
-169.4123113921827
 20
-12.79623512497678
 30
0.0
 11
-169.4123113921827
 21
-10.44623474350705
 31
0.0
  0
LINE
  5
305
  8
0
  6
CONTINUOUS
 62
     2
 10
-140.6623282148178
 20
-18.14978518905095
 30
0.0
 11
-138.6271620060109
 21
-16.97478430839796
 31
0.0
  0
LINE
  5
306
  8
0
  6
CONTINUOUS
 62
     2
 10
-138.6271678980914
 20
-21.67478437997637
 30
0.0
 11
-140.6623318657579
 21
-20.49977964736321
 31
0.0
  0
LINE
  5
307
  8
0
  6
CONTINUOUS
 62
     2
 10
-140.6623266509718
 20
-20.49978546372189
 30
0.0
 11
-140.6623266509718
 21
-18.14978508225217
 31
0.0
  0
LINE
  5
308
  8
0
  6
CONTINUOUS
 62
     2
 10
-140.6622851785345
 20
96.85021294172439
 30
0.0
 11
-138.627125576981
 21
98.02521000768716
 31
0.0
  0
LINE
  5
309
  8
0
  6
CONTINUOUS
 62
     2
 10
-138.6271201631927
 20
93.32520613599932
 30
0.0
 11
-140.6622841308591
 21
94.50021086861248
 31
0.0
  0
LINE
  5
30A
  8
0
  6
CONTINUOUS
 62
     2
 10
-140.6622808746046
 20
94.50021835097537
 30
0.0
 11
-140.6622808746046
 21
96.85021682509647
 31
0.0
  0
CIRCLE
  5
30B
  8
0
  6
CONTINUOUS
 62
     2
 10
-188.627231436128
 20
-48.42726806870236
 30
0.0
 40
5.0
  0
CIRCLE
  5
30C
  8
0
  6
CONTINUOUS
 62
     2
 10
-238.6271398833936
 20
38.17530532607303
 30
0.0
 40
5.0
  0
CIRCLE
  5
30D
  8
0
  6
CONTINUOUS
 62
     2
 10
-188.6270788482374
 20
124.7777909828113
 30
0.0
 40
5.0
  0
CIRCLE
  5
30E
  8
0
  6
CONTINUOUS
 62
     2
 10
-167.3771246246046
 20
87.97167678603397
 30
0.0
 40
4.25
  0
CIRCLE
  5
30F
  8
0
  6
CONTINUOUS
 62
     2
 10
-188.4235876372999
 20
66.92522903212772
 30
0.0
 40
4.25
  0
CIRCLE
  5
310
  8
0
  6
CONTINUOUS
 62
     2
 10
-167.3771551421827
 20
-11.62123588791623
 30
0.0
 40
4.25
  0
ARC
  5
311
  8
0
  6
CONTINUOUS
 62
     2
 10
-138.6271704009718
 20
-19.32478622666135
 30
0.0
 40
4.25
 50
89.9995858629388
 51
270.0003831738388
  0
ARC
  5
312
  8
0
  6
CONTINUOUS
 62
     2
 10
-138.6271246246046
 20
95.67521377333866
 30
0.0
 40
4.25
 50
90.00011861769406
 51
269.9998640794619
  0
LINE
  5
313
  8
0
  6
DASHED
 62
     2
 10
103.5935174652392
 20
-66.32477859726681
 30
0.0
 11
123.9419366546923
 21
-66.32477859726681
 31
0.0
  0
LINE
  5
314
  8
0
  6
DASHED
 62
     2
 10
103.5935174652392
 20
-57.32477859726681
 30
0.0
 11
120.5077172943408
 21
-57.32477859726681
 31
0.0
  0
LINE
  5
315
  8
0
  6
DASHED
 62
     2
 10
103.5935327240283
 20
-54.82477859726681
 30
0.0
 11
103.5935327240283
 21
-68.82477859726681
 31
0.0
  0
LINE
  5
316
  8
0
  6
DASHED
 62
     2
 10
95.393520516997
 20
-68.82477859726681
 30
0.0
 11
103.5935174652392
 21
-68.82477859726681
 31
0.0
  0
LINE
  5
317
  8
0
  6
DASHED
 62
     2
 10
95.393520516997
 20
-54.82477859726681
 30
0.0
 11
103.5935174652392
 21
-54.82477859726681
 31
0.0
  0
LINE
  5
318
  8
0
  6
DASHED
 62
     2
 10
34.393520516997
 20
-3.324778597266814
 30
0.0
 11
34.393520516997
 21
-13.32477859726681
 31
0.0
  0
LINE
  5
319
  8
0
  6
DASHED
 62
     2
 10
24.393520516997
 20
-3.324778597266814
 30
0.0
 11
24.393520516997
 21
-13.32477859726681
 31
0.0
  0
LINE
  5
31A
  8
0
  6
DASHED
 62
     2
 10
35.393520516997
 20
-5.324778597266814
 30
0.0
 11
35.393520516997
 21
-13.32477859726681
 31
0.0
  0
LINE
  5
31B
  8
0
  6
DASHED
 62
     2
 10
23.393520516997
 20
-5.324778597266814
 30
0.0
 11
23.393520516997
 21
-13.32477859726681
 31
0.0
  0
LINE
  5
31C
  8
0
  6
DASHED
 62
     2
 10
23.393520516997
 20
-5.324778597266814
 30
0.0
 11
35.393520516997
 21
-5.324778597266814
 31
0.0
  0
LINE
  5
31D
  8
0
  6
DASHED
 62
     2
 10
24.393520516997
 20
-3.324778597266814
 30
0.0
 11
34.393520516997
 21
-3.324778597266814
 31
0.0
  0
LINE
  5
31E
  8
0
  6
DASHED
 62
     2
 10
24.39351448365545
 20
-3.324790317214266
 30
0.0
 11
29.39351774544906
 21
-0.4380374070027671
 31
0.0
  0
LINE
  5
31F
  8
0
  6
DASHED
 62
     2
 10
29.39351778095198
 20
-0.4380294306238426
 30
0.0
 11
34.39352104274559
 21
-3.324782340835341
 31
0.0
  0
LINE
  5
320
  8
0
  6
DASHED
 62
     2
 10
120.393520516997
 20
-22.32477859726681
 30
0.0
 11
130.1465417572314
 21
-22.32477859726681
 31
0.0
  0
LINE
  5
321
  8
0
  6
DASHED
 62
     2
 10
120.393520516997
 20
-14.32477859726681
 30
0.0
 11
128.9843560882861
 21
-14.32477859726681
 31
0.0
  0
ARC
  5
322
  8
0
  6
CONTINUOUS
 62
     3
 10
-138.6271398833936
 20
38.17521377333866
 30
0.0
 40
23.0
 50
89.99998201391065
 51
270.0000006832453
  0
ARC
  5
323
  8
0
  6
CONTINUOUS
 62
     3
 10
-138.6271398833936
 20
38.17521377333866
 30
0.0
 40
64.5
 50
234.3689018409921
 51
270.0000179860894
  0
CIRCLE
  5
324
  8
0
  6
CONTINUOUS
 62
     3
 10
-225.2297247222608
 20
-11.8246965812756
 30
0.0
 40
4.5
  0
ARC
  5
325
  8
0
  6
CONTINUOUS
 62
     3
 10
-138.6272619537061
 20
-61.82478622666135
 30
0.0
 40
4.5
 50
89.99844522134741
 51
270.0015306456194
  0
CIRCLE
  5
326
  8
0
  6
CONTINUOUS
 62
     3
 10
-225.2297247222608
 20
-11.8246965812756
 30
0.0
 40
7.0
  0
ARC
  5
327
  8
0
  6
CONTINUOUS
 62
     3
 10
-138.6272619537061
 20
-61.82478622666135
 30
0.0
 40
7.0
 50
89.99899846667017
 51
270.0009842304858
  0
CIRCLE
  5
328
  8
0
  6
CONTINUOUS
 62
     3
 10
-238.6271398833936
 20
38.17530532607303
 30
0.0
 40
5.75
  0
CIRCLE
  5
329
  8
0
  6
CONTINUOUS
 62
     3
 10
-188.627231436128
 20
-48.42726806870236
 30
0.0
 40
5.75
  0
CIRCLE
  5
32A
  8
0
  6
CONTINUOUS
 62
     3
 10
-179.330356436128
 20
14.67525573500858
 30
0.0
 40
1.799999952316284
  0
ARC
  5
32B
  8
0
  6
CONTINUOUS
 62
     3
 10
-138.6271093658155
 20
85.17521377333866
 30
0.0
 40
1.799999952316284
 50
90.00099288190782
 51
269.9989898152482
  0
CIRCLE
  5
32C
  8
0
  6
CONTINUOUS
 62
     3
 10
-188.4235876372999
 20
66.92522903212772
 30
0.0
 40
5.0
  0
CIRCLE
  5
32D
  8
0
  6
CONTINUOUS
 62
     3
 10
-167.3771551421827
 20
-11.62123588791623
 30
0.0
 40
5.0
  0
ARC
  5
32E
  8
0
  6
CONTINUOUS
 62
     3
 10
-138.6271704009718
 20
-19.32478622666135
 30
0.0
 40
5.0
 50
89.99964733464132
 51
270.0003285323255
  0
ARC
  5
32F
  8
0
  6
CONTINUOUS
 62
     3
 10
-138.6271398833936
 20
71.17521377333866
 30
0.0
 40
1.5
 50
89.99998201391065
 51
270.0000006832453
  0
LINE
  5
330
  8
0
  6
CONTINUOUS
 62
     3
 10
141.3935357757861
 20
-21.32478622666135
 30
0.0
 11
152.3935357757861
 21
-21.32478622666135
 31
0.0
  0
LINE
  5
331
  8
0
  6
CONTINUOUS
 62
     3
 10
141.3935357757861
 20
-15.32478622666135
 30
0.0
 11
152.3935357757861
 21
-15.32478622666135
 31
0.0
  0
LINE
  5
332
  8
0
  6
CONTINUOUS
 62
     3
 10
152.3935357757861
 20
-15.32478622666135
 30
0.0
 11
152.3935357757861
 21
-21.32478622666135
 31
0.0
  0
CIRCLE
  5
333
  8
0
  6
CONTINUOUS
 62
     3
 10
-188.6270788482374
 20
124.7777909828113
 30
0.0
 40
5.75
  0
ARC
  5
334
  8
0
  6
CONTINUOUS
 62
     3
 10
-138.6271246246046
 20
95.67521377333866
 30
0.0
 40
5.0
 50
90.00010495731571
 51
269.9998914002186
  0
CIRCLE
  5
335
  8
0
  6
CONTINUOUS
 62
     3
 10
-167.3771246246046
 20
87.97167678603397
 30
0.0
 40
5.0
  0
ARC
  5
336
  8
0
  6
CONTINUOUS
 62
     3
 10
-188.423618154878
 20
9.425238568870881
 30
0.0
 40
5.0
 50
133.7873548960003
 51
286.2147604898289
  0
ARC
  5
337
  8
0
  6
CONTINUOUS
 62
     3
 10
-188.423618154878
 20
9.425238568870881
 30
0.0
 40
5.0
 50
343.7857695330771
 51
436.2125416647554
  0
LINE
  5
338
  8
0
  6
CONTINUOUS
 62
     3
 10
-3.606479483003
 20
87.67522140273319
 30
0.0
 11
-3.606479483003
 21
82.67522140273319
 31
0.0
  0
TEXT
  5
339
  8
0
 62
     3
 10
-248.4029984045181
 20
-119.0271487131603
 30
0.0
 40
4.014080200195313
  1
2.ピｽﾄﾝｽﾄﾛ-ｸ　     　　 　　  　　20　　  mm
 41
0.8781397643836997
  7
FDASTYLE1
 72
     5
 11
-81.84072591306307
 21
-119.0271487131603
 31
0.0
  0
TEXT
  5
33A
  8
0
 62
     3
 10
-248.4029984045181
 20
-111.5007424631603
 30
0.0
 40
4.014080200195313
  1
1.最大貫通穴径　　　  　　　　　　　　　　　　　36 　　　mm
 41
0.8257163628588425
  7
FDASTYLE1
 72
     5
 11
-81.84072591306307
 21
-111.5007424631603
 31
0.0
  0
TEXT
  5
33B
  8
0
 62
     3
 10
-248.4029984045181
 20
-103.9743362131603
 30
0.0
 40
4.014080200195313
  1
仕　様
 41
0.7763025703269468
  7
FDASTYLE1
 72
     5
 11
-234.9933225011978
 21
-103.9743362131603
 31
0.0
  0
TEXT
  5
33C
  8
0
 62
     3
 10
-248.4029984045181
 20
-179.2383401194103
 30
0.0
 40
4.014080200195313
  1
※注　意　供給ｴｱ-ﾊ5μﾌｨﾙﾀ-ｦ通ｼﾀ､ドライエアーｦ使用ﾉ事※
 41
0.8476499914927524
  7
FDASTYLE1
 72
     5
 11
-76.90031957151035
 21
-179.2383401194103
 31
0.0
  0
TEXT
  5
33D
  8
0
 62
     3
 10
-248.4029984045181
 20
-141.6063479319103
 30
0.0
 40
4.014080200195313
  1
5.使用圧力　　　   　　 　　 　　　最高    0.8 Mpa
 41
0.8563914002919425
  7
FDASTYLE1
 72
     5
 11
-81.84072591306307
 21
-141.6063479319103
 31
0.0
  0
TEXT
  5
33E
  8
0
 62
     3
 10
-248.4029984045181
 20
-171.7119338694103
 30
0.0
 40
4.014080200195313
  1
8.質　量　　　 　　　　　　　　　　　　　　　 　12.2  kg
 41
0.8356942587370775
  7
FDASTYLE1
 72
     5
 11
-81.84072591306307
 21
-171.7119338694103
 31
0.0
  0
TEXT
  5
33F
  8
0
 62
     3
 10
-248.4029984045181
 20
-164.1855471506603
 30
0.0
 40
4.014080200195313
  1
7.慣性ﾓ-ﾒﾝﾄ   　　  　　　　　　　 　 0.04
 41
0.8656749701425716
  7
FDASTYLE1
 72
     5
 11
-101.6023512792741
 21
-164.1855471506603
 31
0.0
  0
TEXT
  5
340
  8
0
 62
     3
 10
-99.30859235288239
 20
-161.3293745890148
 30
0.0
 40
2.007040100097656
  1
　
 41
0.7326010451998321
  7
FDASTYLE1
 72
     5
 11
-97.54416074277496
 21
-161.3293745890148
 31
0.0
  0
TEXT
  5
341
  8
0
 62
     3
 10
-97.72060498715972
 20
-164.1855471506603
 30
0.0
 40
4.014080200195313
  1
kg
 41
0.8971965636709697
  7
FDASTYLE1
 72
     5
 11
-89.25133542539214
 21
-164.1855471506603
 31
0.0
  0
TEXT
  5
342
  8
0
 62
     3
 10
-86.95757649900054
 20
-161.3293745890148
 30
0.0
 40
2.007040100097656
  1
･
 41
0.8791212542397986
  7
FDASTYLE1
 72
     5
 11
-85.19314488889312
 21
-161.3293745890148
 31
0.0
  0
TEXT
  5
343
  8
0
 62
     3
 10
-85.36958913327788
 20
-164.1855471506603
 30
0.0
 40
4.014080200195313
  1
m
 41
0.8791212542397986
  7
FDASTYLE1
 72
     5
 11
-81.84072591306304
 21
-164.1855471506603
 31
0.0
  0
TEXT
  5
344
  8
0
 62
     3
 10
-81.03195634645049
 20
-161.3330702688584
 30
0.0
 40
2.007040100097656
  1
2
 41
0.8791212542397986
  7
FDASTYLE1
 72
     5
 11
-79.26752473634306
 21
-161.3330702688584
 31
0.0
  0
TEXT
  5
345
  8
0
 62
     3
 10
-248.4029984045181
 20
-156.6591409006603
 30
0.0
 40
4.014080200195313
  1
6.最高使用回転速度　　　　　　　　　　     　6500　min
 41
0.8424812464034598
  7
FDASTYLE1
 72
     5
 11
-81.84072591306307
 21
-156.6591409006603
 31
0.0
  0
TEXT
  5
346
  8
0
 62
     3
 10
-81.6633492540502
 20
-153.9569486269239
 30
0.0
 40
2.007040100097656
  1
-1
 41
0.8971965636709712
  7
FDASTYLE1
 72
     5
 11
-77.42871447316641
 21
-153.9569486269239
 31
0.0
  0
TEXT
  5
347
  8
0
 62
     3
 10
-248.4029984045181
 20
-149.1327346506603
 30
0.0
 40
4.014080200195313
  1
　　  　　　        　　 　　　最低    0.2 Mpa
 41
0.8707686049451676
  7
FDASTYLE1
 72
     5
 11
-81.84072591306307
 21
-149.1327346506603
 31
0.0
  0
TEXT
  5
348
  8
0
 62
     3
 10
-248.4029984045181
 20
-134.0799416819103
 30
0.0
 40
4.014080200195313
  1
4.ピｽﾄﾝ推力　  　(0.5Mpa時)    　11.2  kN
 41
0.8894335044206463
  7
FDASTYLE1
 72
     5
 11
-81.84072591306307
 21
-134.0799416819103
 31
0.0
  0
TEXT
  5
349
  8
0
 62
     3
 10
-248.4029984045181
 20
-126.5535354319103
 30
0.0
 40
4.014080200195313
  1
3.ピｽﾄﾝ表面積　　  　　  　　　　   　253.0  cm
 41
0.8671292367505235
  7
FDASTYLE1
 72
     5
 11
-81.84072591306307
 21
-126.5535354319103
 31
0.0
  0
TEXT
  5
34A
  8
0
 62
     3
 10
-81.54069292784911
 20
-123.7361617542476
 30
0.0
 40
2.007040100097656
  1
2
 41
0.8791212542397986
  7
FDASTYLE1
 72
     5
 11
-79.77626131774169
 21
-123.7361617542476
 31
0.0
  0
LINE
  5
34B
  8
LAYER0014
  6
CONTINUOUS
 62
     7
 10
-14.606479483003
 20
-78.29675583115353
 30
0.0
 11
-23.44108469998298
 21
-78.29675583115353
 31
0.0
  0
LINE
  5
34C
  8
LAYER0014
  6
CONTINUOUS
 62
     7
 10
-14.606479483003
 20
-78.29675583115353
 30
0.0
 11
-13.606479483003
 21
-78.29675583115353
 31
0.0
  0
LINE
  5
34D
  8
LAYER0014
  6
CONTINUOUS
 62
     7
 10
-13.606479483003
 20
-14.86477668991818
 30
0.0
 11
-13.606479483003
 21
-79.29675583115353
 31
0.0
  0
LINE
  5
34E
  8
LAYER0014
  6
CONTINUOUS
 62
     7
 10
241.6061517425829
 20
38.17522140273319
 30
0.0
 11
241.6061517425829
 21
70.67928787001834
 31
0.0
  0
LINE
  5
34F
  8
LAYER0014
  6
CONTINUOUS
 62
     7
 10
191.9643127533251
 20
-61.82477859726681
 30
0.0
 11
243.8921624847704
 21
-61.82477859726681
 31
0.0
  0
LINE
  5
350
  8
LAYER0014
  6
CONTINUOUS
 62
     7
 10
167.393520516997
 20
-96.56224350205197
 30
0.0
 11
172.393520516997
 21
-96.56224350205197
 31
0.0
  0
LINE
  5
351
  8
LAYER0014
  6
CONTINUOUS
 62
     7
 10
172.393520516997
 20
-26.36477096787228
 30
0.0
 11
172.393520516997
 21
-98.84824661484494
 31
0.0
  0
LINE
  5
352
  8
LAYER0014
  6
CONTINUOUS
 62
     7
 10
85.44218079531731
 20
102.6752137733387
 30
0.0
 11
85.44218079531731
 21
120.3437318397449
 31
0.0
  0
LINE
  5
353
  8
LAYER0014
  6
CONTINUOUS
 62
     7
 10
85.44218079531731
 20
102.7342195106433
 30
0.0
 11
85.44218079531731
 21
102.6752137733387
 31
0.0
  0
LINE
  5
354
  8
LAYER0014
  6
CONTINUOUS
 62
     7
 10
-14.606479483003
 20
-78.29675583115353
 30
0.0
 11
-20.956479483003
 21
-78.29675583115353
 31
0.0
  0
INSERT
  5
355
  8
LAYER0014
 62
     7
  2
_OPEN30
 10
-14.606479483003
 20
-78.29675583115353
 30
0.0
 41
1.50000139391263
 42
1.499998500689492
 50
360.0
  0
LINE
  5
356
  8
LAYER0014
  6
CONTINUOUS
 62
     7
 10
241.6061517425829
 20
-61.82477859726681
 30
0.0
 11
241.6061517425829
 21
38.17522140273319
 31
0.0
  0
INSERT
  5
357
  8
LAYER0014
 62
     7
  2
_OPEN30
 10
241.6061517425829
 20
-61.82477859726681
 30
0.0
 41
1.50000139391263
 42
1.499998500689492
 50
270.0
  0
LINE
  5
358
  8
LAYER0014
  6
CONTINUOUS
 62
     7
 10
167.393520516997
 20
-96.56224350205197
 30
0.0
 11
161.043520516997
 21
-96.56224350205197
 31
0.0
  0
INSERT
  5
359
  8
LAYER0014
 62
     7
  2
_OPEN30
 10
167.393520516997
 20
-96.56224350205197
 30
0.0
 41
1.50000139391263
 42
1.499998500689492
 50
360.0
  0
LINE
  5
35A
  8
LAYER0014
  6
CONTINUOUS
 62
     7
 10
85.44218079531731
 20
102.7342195106433
 30
0.0
 11
85.44218079531731
 21
109.0842195106433
 31
0.0
  0
INSERT
  5
35B
  8
LAYER0014
 62
     7
  2
_OPEN30
 10
85.44218079531731
 20
102.7342195106433
 30
0.0
 41
1.50000139391263
 42
1.499998500689492
 50
270.0
  0
LINE
  5
35C
  8
LAYER0014
  6
CONTINUOUS
 62
     7
 10
135.7199517914111
 20
131.1752137733387
 30
0.0
 11
135.7199517914111
 21
90.01199050673709
 31
0.0
  0
INSERT
  5
35D
  8
LAYER0014
 62
     7
  2
_OPEN30
 10
135.7199517914111
 20
131.1752137733387
 30
0.0
 41
1.50000139391263
 42
1.499998500689492
 50
90.0
  0
LINE
  5
35E
  8
LAYER0014
  6
CONTINUOUS
 62
     7
 10
-7.256479483003
 20
-78.29675583115353
 30
0.0
 11
-13.606479483003
 21
-78.29675583115353
 31
0.0
  0
INSERT
  5
35F
  8
LAYER0014
 62
     7
  2
_OPEN30
 10
-13.606479483003
 20
-78.29675583115353
 30
0.0
 41
1.50000139391263
 42
1.499998500689492
 50
180.0
  0
LINE
  5
360
  8
LAYER0014
  6
CONTINUOUS
 62
     7
 10
178.743520516997
 20
-96.56224350205197
 30
0.0
 11
172.393520516997
 21
-96.56224350205197
 31
0.0
  0
INSERT
  5
361
  8
LAYER0014
 62
     7
  2
_OPEN30
 10
172.393520516997
 20
-96.56224350205197
 30
0.0
 41
1.50000139391263
 42
1.499998500689492
 50
180.0
  0
LINE
  5
362
  8
LAYER0014
  6
CONTINUOUS
 62
     7
 10
139.893520516997
 20
2.743485648720125
 30
0.0
 11
119.893520516997
 21
2.743485648720125
 31
0.0
  0
INSERT
  5
363
  8
LAYER0014
 62
     7
  2
_OPEN30
 10
139.893520516997
 20
2.743485648720125
 30
0.0
 41
1.50000139391263
 42
1.499998500689492
 50
360.0
  0
INSERT
  5
364
  8
LAYER0014
 62
     7
  2
_OPEN30
 10
119.893520516997
 20
2.743485648720125
 30
0.0
 41
1.50000139391263
 42
1.499998500689492
 50
180.0
  0
LINE
  5
365
  8
LAYER0014
  6
CONTINUOUS
 62
     7
 10
172.393520516997
 20
-96.56224350205197
 30
0.0
 11
194.393520516997
 21
-96.56224350205197
 31
0.0
  0
INSERT
  5
366
  8
LAYER0014
 62
     7
  2
_OPEN30
 10
172.393520516997
 20
-96.56224350205197
 30
0.0
 41
1.50000139391263
 42
1.499998500689492
 50
180.0
  0
INSERT
  5
367
  8
LAYER0014
 62
     7
  2
_OPEN30
 10
194.393520516997
 20
-96.56224350205197
 30
0.0
 41
1.50000139391263
 42
1.499998500689492
 50
360.0
  0
TEXT
  5
368
  8
LAYER0014
 62
     7
 10
-21.73808972265354
 20
-77.51167890739797
 30
0.0
 40
4.0
  1
1
 41
0.8000000000000007
  7
FDASTYLE1
 72
     5
 11
-18.53808972265354
 21
-77.51167890739797
 31
0.0
  0
TEXT
  5
369
  8
LAYER0014
 62
     7
 10
240.5964408211426
 20
7.593572099296907
 30
0.0
 40
4.0
  1
PCD200 (6-M8六角穴付ボルト)
 50
90.0
 41
0.7476635514018696
  7
FDASTYLE1
 72
     5
 11
240.5964408211426
 21
71.59357209929694
 31
0.0
  0
TEXT
  5
36A
  8
LAYER0014
 62
     7
 10
168.1371646589097
 20
-95.98474052062724
 30
0.0
 40
4.0
  1
5
 41
0.7999999999999972
  7
FDASTYLE1
 72
     5
 11
171.3371646589097
 21
-95.98474052062724
 31
0.0
  0
TEXT
  5
36B
  8
LAYER0014
 62
     7
 10
84.3915845523658
 20
106.9025730532022
 30
0.0
 40
4.0
  1
φ129
 50
89.90000000000001
 41
0.7619047619047625
  7
FDASTYLE1
 72
     5
 11
84.4139247554493
 21
119.7025535576923
 31
0.0
  0
TEXT
  5
36C
  8
LAYER0014
 62
     7
 10
135.09013054758
 20
93.01637718569134
 30
0.0
 40
4.0
  1
φ186
 50
89.90000000000001
 41
0.7619047619047625
  7
FDASTYLE1
 72
     5
 11
135.1124707506635
 21
105.8163576901814
 31
0.0
  0
TEXT
  5
36D
  8
LAYER0014
 62
     7
 10
120.5154263112775
 20
3.243485648720125
 30
0.0
 40
4.0
  1
  20
 41
0.8000000000000007
  7
FDASTYLE1
 72
     5
 11
133.3154263112776
 21
3.243485648720125
 31
0.0
  0
TEXT
  5
36E
  8
LAYER0014
 62
     7
 10
121.9207292100319
 20
-1.869153710661561
 30
0.0
 40
4.0
  1
ｽﾄﾛｰｸ
 41
0.8
  7
FDASTYLE1
 72
     5
 11
137.9207292100319
 21
-1.869153710661561
 31
0.0
  0
TEXT
  5
36F
  8
LAYER0014
 62
     7
 10
175.393520516997
 20
-96.06224350205197
 30
0.0
 40
4.0
  1
MAX22
 41
0.8
  7
FDASTYLE1
 72
     5
 11
191.393520516997
 21
-96.06224350205197
 31
0.0
  0
TEXT
  5
370
  8
LAYER0014
 62
     7
 10
175.393520516997
 20
-101.0574065829822
 30
0.0
 40
4.0
  1
MIN 2
 41
0.8
  7
FDASTYLE1
 72
     5
 11
191.393520516997
 21
-101.0574065829822
 31
0.0
  0
INSERT
  5
371
  8
LAYER0014
  6
CONTINUOUS
  2
DA_IMAGEDIMGROUP_1
 10
0.0
 20
0.0
 30
0.0
  0
INSERT
  5
372
  8
LAYER0014
  6
CONTINUOUS
  2
DA_IMAGEDIMGROUP_2
 10
0.0
 20
0.0
 30
0.0
  0
INSERT
  5
373
  8
LAYER0014
  6
CONTINUOUS
  2
DA_IMAGEDIMGROUP_3
 10
0.0
 20
0.0
 30
0.0
  0
INSERT
  5
374
  8
LAYER0014
  6
CONTINUOUS
  2
DA_IMAGEDIMGROUP_4
 10
0.0
 20
0.0
 30
0.0
  0
INSERT
  5
375
  8
LAYER0014
  6
CONTINUOUS
  2
DA_IMAGEDIMGROUP_5
 10
0.0
 20
0.0
 30
0.0
  0
INSERT
  5
376
  8
LAYER0014
  6
CONTINUOUS
  2
DA_IMAGEDIMGROUP_6
 10
0.0
 20
0.0
 30
0.0
  0
INSERT
  5
377
  8
LAYER0014
  6
CONTINUOUS
  2
DA_IMAGEDIMGROUP_7
 10
0.0
 20
0.0
 30
0.0
  0
INSERT
  5
378
  8
LAYER0014
  6
CONTINUOUS
  2
DA_IMAGEDIMGROUP_8
 10
0.0
 20
0.0
 30
0.0
  0
INSERT
  5
379
  8
LAYER0014
  6
CONTINUOUS
  2
DA_IMAGEDIMGROUP_9
 10
0.0
 20
0.0
 30
0.0
  0
INSERT
  5
37A
  8
LAYER0014
  6
CONTINUOUS
  2
DA_IMAGEDIMGROUP_10
 10
0.0
 20
0.0
 30
0.0
  0
INSERT
  5
37B
  8
LAYER0014
  6
CONTINUOUS
  2
DA_IMAGEDIMGROUP_11
 10
0.0
 20
0.0
 30
0.0
  0
INSERT
  5
37C
  8
LAYER0014
  6
CONTINUOUS
  2
DA_IMAGEDIMGROUP_12
 10
0.0
 20
0.0
 30
0.0
  0
INSERT
  5
37D
  8
LAYER0014
  6
CONTINUOUS
  2
DA_IMAGEDIMGROUP_13
 10
0.0
 20
0.0
 30
0.0
  0
INSERT
  5
37E
  8
LAYER0014
  6
CONTINUOUS
  2
DA_IMAGEDIMGROUP_14
 10
0.0
 20
0.0
 30
0.0
  0
INSERT
  5
37F
  8
LAYER0014
  6
CONTINUOUS
  2
DA_IMAGEDIMGROUP_15
 10
0.0
 20
0.0
 30
0.0
  0
INSERT
  5
380
  8
LAYER0014
  6
CONTINUOUS
  2
DA_IMAGEDIMGROUP_16
 10
0.0
 20
0.0
 30
0.0
  0
INSERT
  5
381
  8
LAYER0014
  6
CONTINUOUS
  2
DA_IMAGEDIMGROUP_17
 10
0.0
 20
0.0
 30
0.0
  0
INSERT
  5
382
  8
LAYER0014
  6
CONTINUOUS
  2
DA_IMAGEDIMGROUP_18
 10
0.0
 20
0.0
 30
0.0
  0
INSERT
  5
383
  8
LAYER0014
  6
CONTINUOUS
  2
DA_IMAGEDIMGROUP_19
 10
0.0
 20
0.0
 30
0.0
  0
INSERT
  5
384
  8
LAYER0014
  6
CONTINUOUS
  2
DA_IMAGEDIMGROUP_20
 10
0.0
 20
0.0
 30
0.0
  0
INSERT
  5
385
  8
LAYER0014
  6
CONTINUOUS
  2
DA_IMAGEDIMGROUP_21
 10
0.0
 20
0.0
 30
0.0
  0
INSERT
  5
386
  8
LAYER0014
  6
CONTINUOUS
  2
DA_IMAGEDIMGROUP_22
 10
0.0
 20
0.0
 30
0.0
  0
INSERT
  5
387
  8
LAYER0014
  6
CONTINUOUS
  2
DA_IMAGEDIMGROUP_23
 10
0.0
 20
0.0
 30
0.0
  0
INSERT
  5
388
  8
LAYER0014
  6
CONTINUOUS
  2
DC_GROUP_1
 10
0.0
 20
0.0
 30
0.0
  0
INSERT
  5
389
  8
LAYER0014
  6
CONTINUOUS
  2
DC_GROUP_2
 10
0.0
 20
0.0
 30
0.0
  0
INSERT
  5
38A
  8
LAYER0014
  6
CONTINUOUS
  2
DA_IMAGEDIMGROUP_24
 10
0.0
 20
0.0
 30
0.0
  0
LINE
  5
38B
  8
0
  6
CONTINUOUS
 62
     4
 10
72.393520516997
 20
4.425221402733186
 30
0.0
 11
73.393520516997
 21
4.425221402733186
 31
0.0
  0
LINE
  5
38C
  8
0
  6
CONTINUOUS
 62
     4
 10
155.5935327240283
 20
-64.82477859726681
 30
0.0
 11
183.5935327240283
 21
-64.82477859726681
 31
0.0
  0
LINE
  5
38D
  8
0
  6
CONTINUOUS
 62
     4
 10
155.5935327240283
 20
-58.82477859726681
 30
0.0
 11
183.5935327240283
 21
-58.82477859726681
 31
0.0
  0
LINE
  5
38E
  8
0
  6
CONTINUOUS
 62
     4
 10
155.5935327240283
 20
-57.82477859726681
 30
0.0
 11
155.5935327240283
 21
-65.82477859726681
 31
0.0
  0
LINE
  5
38F
  8
0
  6
CONTINUOUS
 62
     4
 10
141.3935357757861
 20
-15.82478431931271
 30
0.0
 11
152.3935357757861
 21
-15.82478431931271
 31
0.0
  0
LINE
  5
390
  8
0
  6
CONTINUOUS
 62
     4
 10
141.3935357757861
 20
-20.82478241196408
 30
0.0
 11
152.3935357757861
 21
-20.82478241196408
 31
0.0
  0
CIRCLE
  5
391
  8
0
  6
CONTINUOUS
 62
     4
 10
1.043514413481375
 20
0.675221402733186
 30
0.0
 40
2.75
  0
CIRCLE
  5
392
  8
0
  6
CONTINUOUS
 62
     4
 10
1.043514413481375
 20
75.67521377333866
 30
0.0
 40
2.75
  0
POLYLINE
  5
393
  8
0
  6
CONTINUOUS
 62
     4
 66
     1
 10
0.0
 20
0.0
 30
0.0
 70
     1
  0
VERTEX
  5
3B4
  8
0
  6
CONTINUOUS
 62
     4
 10
1.0
 20
0.0
 30
0.0
  0
VERTEX
  5
3B5
  8
0
  6
CONTINUOUS
 62
     4
 10
0.9807852804032304
 20
0.1950903220161283
 30
0.0
  0
VERTEX
  5
3B6
  8
0
  6
CONTINUOUS
 62
     4
 10
0.9238795325112867
 20
0.3826834323650898
 30
0.0
  0
VERTEX
  5
3B7
  8
0
  6
CONTINUOUS
 62
     4
 10
0.8314696123025452
 20
0.5555702330196022
 30
0.0
  0
VERTEX
  5
3B8
  8
0
  6
CONTINUOUS
 62
     4
 10
0.7071067811865476
 20
0.7071067811865475
 30
0.0
  0
VERTEX
  5
3B9
  8
0
  6
CONTINUOUS
 62
     4
 10
0.5555702330196023
 20
0.8314696123025452
 30
0.0
  0
VERTEX
  5
3BA
  8
0
  6
CONTINUOUS
 62
     4
 10
0.3826834323650898
 20
0.9238795325112867
 30
0.0
  0
VERTEX
  5
3BB
  8
0
  6
CONTINUOUS
 62
     4
 10
0.1950903220161283
 20
0.9807852804032304
 30
0.0
  0
VERTEX
  5
3BC
  8
0
  6
CONTINUOUS
 62
     4
 10
0.0000000000000001
 20
1.0
 30
0.0
  0
VERTEX
  5
3BD
  8
0
  6
CONTINUOUS
 62
     4
 10
-0.1950903220161282
 20
0.9807852804032304
 30
0.0
  0
VERTEX
  5
3BE
  8
0
  6
CONTINUOUS
 62
     4
 10
-0.3826834323650897
 20
0.9238795325112867
 30
0.0
  0
VERTEX
  5
3BF
  8
0
  6
CONTINUOUS
 62
     4
 10
-0.555570233019602
 20
0.8314696123025455
 30
0.0
  0
VERTEX
  5
3C0
  8
0
  6
CONTINUOUS
 62
     4
 10
-0.7071067811865475
 20
0.7071067811865476
 30
0.0
  0
VERTEX
  5
3C1
  8
0
  6
CONTINUOUS
 62
     4
 10
-0.8314696123025454
 20
0.5555702330196022
 30
0.0
  0
VERTEX
  5
3C2
  8
0
  6
CONTINUOUS
 62
     4
 10
-0.9238795325112869
 20
0.3826834323650895
 30
0.0
  0
VERTEX
  5
3C3
  8
0
  6
CONTINUOUS
 62
     4
 10
-0.9807852804032305
 20
0.1950903220161277
 30
0.0
  0
VERTEX
  5
3C4
  8
0
  6
CONTINUOUS
 62
     4
 10
-1.0
 20
-0.0000000000000008
 30
0.0
  0
VERTEX
  5
3C5
  8
0
  6
CONTINUOUS
 62
     4
 10
-0.9807852804032302
 20
-0.1950903220161292
 30
0.0
  0
VERTEX
  5
3C6
  8
0
  6
CONTINUOUS
 62
     4
 10
-0.9238795325112863
 20
-0.3826834323650909
 30
0.0
  0
VERTEX
  5
3C7
  8
0
  6
CONTINUOUS
 62
     4
 10
-0.8314696123025445
 20
-0.5555702330196034
 30
0.0
  0
VERTEX
  5
3C8
  8
0
  6
CONTINUOUS
 62
     4
 10
-0.7071067811865464
 20
-0.7071067811865487
 30
0.0
  0
VERTEX
  5
3C9
  8
0
  6
CONTINUOUS
 62
     4
 10
-0.5555702330196007
 20
-0.8314696123025462
 30
0.0
  0
VERTEX
  5
3CA
  8
0
  6
CONTINUOUS
 62
     4
 10
-0.3826834323650879
 20
-0.9238795325112875
 30
0.0
  0
VERTEX
  5
3CB
  8
0
  6
CONTINUOUS
 62
     4
 10
-0.1950903220161261
 20
-0.9807852804032309
 30
0.0
  0
VERTEX
  5
3CC
  8
0
  6
CONTINUOUS
 62
     4
 10
0.0000000000000025
 20
-1.0
 30
0.0
  0
VERTEX
  5
3CD
  8
0
  6
CONTINUOUS
 62
     4
 10
0.1950903220161309
 20
-0.9807852804032299
 30
0.0
  0
VERTEX
  5
3CE
  8
0
  6
CONTINUOUS
 62
     4
 10
0.3826834323650925
 20
-0.9238795325112856
 30
0.0
  0
VERTEX
  5
3CF
  8
0
  6
CONTINUOUS
 62
     4
 10
0.5555702330196048
 20
-0.8314696123025435
 30
0.0
  0
VERTEX
  5
3D0
  8
0
  6
CONTINUOUS
 62
     4
 10
0.7071067811865499
 20
-0.7071067811865451
 30
0.0
  0
VERTEX
  5
3D1
  8
0
  6
CONTINUOUS
 62
     4
 10
0.8314696123025472
 20
-0.5555702330195993
 30
0.0
  0
VERTEX
  5
3D2
  8
0
  6
CONTINUOUS
 62
     4
 10
0.9238795325112882
 20
-0.3826834323650863
 30
0.0
  0
VERTEX
  5
3D3
  8
0
  6
CONTINUOUS
 62
     4
 10
0.9807852804032312
 20
-0.1950903220161244
 30
0.0
  0
SEQEND
  5
3D4
  8
0
  6
CONTINUOUS
 62
     4
  0
POLYLINE
  5
394
  8
0
  6
CONTINUOUS
 62
     4
 66
     1
 10
0.0
 20
0.0
 30
0.0
 70
     1
  0
VERTEX
  5
3D6
  8
0
  6
CONTINUOUS
 62
     4
 10
166.393520516997
 20
64.67521377333866
 30
0.0
  0
VERTEX
  5
3D7
  8
0
  6
CONTINUOUS
 62
     4
 10
166.3910205774249
 20
64.77990290766165
 30
0.0
  0
VERTEX
  5
3D8
  8
0
  6
CONTINUOUS
 62
     4
 10
166.3835251444522
 20
64.88440838166945
 30
0.0
  0
VERTEX
  5
3D9
  8
0
  6
CONTINUOUS
 62
     4
 10
166.3710473676152
 20
64.98854685724942
 30
0.0
  0
VERTEX
  5
3DA
  8
0
  6
CONTINUOUS
 62
     4
 10
166.3536091371745
 20
65.09213564012892
 30
0.0
  0
VERTEX
  5
3DB
  8
0
  6
CONTINUOUS
 62
     4
 10
166.3312410457119
 20
65.19499300038305
 30
0.0
  0
VERTEX
  5
3DC
  8
0
  6
CONTINUOUS
 62
     4
 10
166.3039823344604
 20
65.29693849125079
 30
0.0
  0
VERTEX
  5
3DD
  8
0
  6
CONTINUOUS
 62
     4
 10
166.2718808244623
 20
65.39779326569983
 30
0.0
  0
VERTEX
  5
3DE
  8
0
  6
CONTINUOUS
 62
     4
 10
166.2349928326741
 20
65.49738039018511
 30
0.0
  0
VERTEX
  5
3DF
  8
0
  6
CONTINUOUS
 62
     4
 10
166.1933830731682
 20
65.59552515505035
 30
0.0
  0
VERTEX
  5
3E0
  8
0
  6
CONTINUOUS
 62
     4
 10
166.1471245436018
 20
65.69205538102816
 30
0.0
  0
VERTEX
  5
3E1
  8
0
  6
CONTINUOUS
 62
     4
 10
166.0962983971544
 20
65.78680172130098
 30
0.0
  0
VERTEX
  5
3E2
  8
0
  6
CONTINUOUS
 62
     4
 10
166.0409938001579
 20
65.87959795859294
 30
0.0
  0
VERTEX
  5
3E3
  8
0
  6
CONTINUOUS
 62
     4
 10
165.9813077756679
 20
65.97028129677148
 30
0.0
  0
VERTEX
  5
3E4
  8
0
  6
CONTINUOUS
 62
     4
 10
165.917345033253
 20
66.05869264644701
 30
0.0
  0
VERTEX
  5
3E5
  8
0
  6
CONTINUOUS
 62
     4
 10
165.8492177852978
 20
66.14467690406984
 30
0.0
  0
VERTEX
  5
3E6
  8
0
  6
CONTINUOUS
 62
     4
 10
165.7770455501453
 20
66.22808322403444
 30
0.0
  0
VERTEX
  5
3E7
  8
0
  6
CONTINUOUS
 62
     4
 10
165.70095494242
 20
66.30876528331392
 30
0.0
  0
VERTEX
  5
3E8
  8
0
  6
CONTINUOUS
 62
     4
 10
165.6210794509038
 20
66.38658153816037
 30
0.0
  0
VERTEX
  5
3E9
  8
0
  6
CONTINUOUS
 62
     4
 10
165.5375592043506
 20
66.46139547242066
 30
0.0
  0
VERTEX
  5
3EA
  8
0
  6
CONTINUOUS
 62
     4
 10
165.4505407256532
 20
66.53307583703214
 30
0.0
  0
VERTEX
  5
3EB
  8
0
  6
CONTINUOUS
 62
     4
 10
165.3601766747924
 20
66.60149688027812
 30
0.0
  0
VERTEX
  5
3EC
  8
0
  6
CONTINUOUS
 62
     4
 10
165.2666255810193
 20
66.66653856839915
 30
0.0
  0
VERTEX
  5
3ED
  8
0
  6
CONTINUOUS
 62
     4
 10
165.1700515647412
 20
66.72808679617292
 30
0.0
  0
VERTEX
  5
3EE
  8
0
  6
CONTINUOUS
 62
     4
 10
165.0706240495987
 20
66.7860335870937
 30
0.0
  0
VERTEX
  5
3EF
  8
0
  6
CONTINUOUS
 62
     4
 10
164.9685174652392
 20
66.84027728279975
 30
0.0
  0
VERTEX
  5
3F0
  8
0
  6
CONTINUOUS
 62
     4
 10
164.8639109413076
 20
66.89072272141669
 30
0.0
  0
VERTEX
  5
3F1
  8
0
  6
CONTINUOUS
 62
     4
 10
164.7569879931924
 20
66.93728140450371
 30
0.0
  0
VERTEX
  5
3F2
  8
0
  6
CONTINUOUS
 62
     4
 10
164.6479362000773
 20
66.97987165230991
 30
0.0
  0
VERTEX
  5
3F3
  8
0
  6
CONTINUOUS
 62
     4
 10
164.5369468758635
 20
67.01841874706838
 30
0.0
  0
VERTEX
  5
3F4
  8
0
  6
CONTINUOUS
 62
     4
 10
164.42421473354
 20
67.05285506407654
 30
0.0
  0
VERTEX
  5
3F5
  8
0
  6
CONTINUOUS
 62
     4
 10
164.3099375435912
 20
67.08312019033281
 30
0.0
  0
VERTEX
  5
3F6
  8
0
  6
CONTINUOUS
 62
     4
 10
164.1943157870398
 20
67.10916103052156
 30
0.0
  0
VERTEX
  5
3F7
  8
0
  6
CONTINUOUS
 62
     4
 10
164.0775523037355
 20
67.13093190016038
 30
0.0
  0
VERTEX
  5
3F8
  8
0
  6
CONTINUOUS
 62
     4
 10
163.9598519365043
 20
67.14839460574612
 30
0.0
  0
VERTEX
  5
3F9
  8
0
  6
CONTINUOUS
 62
     4
 10
163.8414211717853
 20
67.16151851175934
 30
0.0
  0
VERTEX
  5
3FA
  8
0
  6
CONTINUOUS
 62
     4
 10
163.7224677773828
 20
67.17028059440933
 30
0.0
  0
VERTEX
  5
3FB
  8
0
  6
CONTINUOUS
 62
     4
 10
163.6032004379713
 20
67.17466548202577
 30
0.0
  0
VERTEX
  5
3FC
  8
0
  6
CONTINUOUS
 62
     4
 10
163.4838283889914
 20
67.17466548202577
 30
0.0
  0
VERTEX
  5
3FD
  8
0
  6
CONTINUOUS
 62
     4
 10
163.3645610495799
 20
67.17028059440933
 30
0.0
  0
VERTEX
  5
3FE
  8
0
  6
CONTINUOUS
 62
     4
 10
163.2456076551775
 20
67.16151851175934
 30
0.0
  0
VERTEX
  5
3FF
  8
0
  6
CONTINUOUS
 62
     4
 10
163.1271768904585
 20
67.14839460574612
 30
0.0
  0
VERTEX
  5
400
  8
0
  6
CONTINUOUS
 62
     4
 10
163.0094765232273
 20
67.13093190016038
 30
0.0
  0
VERTEX
  5
401
  8
0
  6
CONTINUOUS
 62
     4
 10
162.8927130399229
 20
67.10916103052155
 30
0.0
  0
VERTEX
  5
402
  8
0
  6
CONTINUOUS
 62
     4
 10
162.7770912833715
 20
67.08312019033281
 30
0.0
  0
VERTEX
  5
403
  8
0
  6
CONTINUOUS
 62
     4
 10
162.6628140934227
 20
67.05285506407654
 30
0.0
  0
VERTEX
  5
404
  8
0
  6
CONTINUOUS
 62
     4
 10
162.5500819510993
 20
67.01841874706838
 30
0.0
  0
VERTEX
  5
405
  8
0
  6
CONTINUOUS
 62
     4
 10
162.4390926268854
 20
66.97987165230991
 30
0.0
  0
VERTEX
  5
406
  8
0
  6
CONTINUOUS
 62
     4
 10
162.3300408337704
 20
66.93728140450371
 30
0.0
  0
VERTEX
  5
407
  8
0
  6
CONTINUOUS
 62
     4
 10
162.2231178856552
 20
66.89072272141669
 30
0.0
  0
VERTEX
  5
408
  8
0
  6
CONTINUOUS
 62
     4
 10
162.1185113617236
 20
66.84027728279975
 30
0.0
  0
VERTEX
  5
409
  8
0
  6
CONTINUOUS
 62
     4
 10
162.016404777364
 20
66.7860335870937
 30
0.0
  0
VERTEX
  5
40A
  8
0
  6
CONTINUOUS
 62
     4
 10
161.9169772622216
 20
66.72808679617292
 30
0.0
  0
VERTEX
  5
40B
  8
0
  6
CONTINUOUS
 62
     4
 10
161.8204032459435
 20
66.66653856839915
 30
0.0
  0
VERTEX
  5
40C
  8
0
  6
CONTINUOUS
 62
     4
 10
161.7268521521703
 20
66.60149688027812
 30
0.0
  0
VERTEX
  5
40D
  8
0
  6
CONTINUOUS
 62
     4
 10
161.6364881013095
 20
66.53307583703214
 30
0.0
  0
VERTEX
  5
40E
  8
0
  6
CONTINUOUS
 62
     4
 10
161.5494696226122
 20
66.46139547242066
 30
0.0
  0
VERTEX
  5
40F
  8
0
  6
CONTINUOUS
 62
     4
 10
161.4659493760589
 20
66.38658153816037
 30
0.0
  0
VERTEX
  5
410
  8
0
  6
CONTINUOUS
 62
     4
 10
161.3860738845427
 20
66.30876528331392
 30
0.0
  0
VERTEX
  5
411
  8
0
  6
CONTINUOUS
 62
     4
 10
161.3099832768175
 20
66.22808322403444
 30
0.0
  0
VERTEX
  5
412
  8
0
  6
CONTINUOUS
 62
     4
 10
161.2378110416649
 20
66.14467690406984
 30
0.0
  0
VERTEX
  5
413
  8
0
  6
CONTINUOUS
 62
     4
 10
161.1696837937098
 20
66.05869264644701
 30
0.0
  0
VERTEX
  5
414
  8
0
  6
CONTINUOUS
 62
     4
 10
161.1057210512948
 20
65.97028129677148
 30
0.0
  0
VERTEX
  5
415
  8
0
  6
CONTINUOUS
 62
     4
 10
161.0460350268048
 20
65.87959795859294
 30
0.0
  0
VERTEX
  5
416
  8
0
  6
CONTINUOUS
 62
     4
 10
160.9907304298083
 20
65.78680172130098
 30
0.0
  0
VERTEX
  5
417
  8
0
  6
CONTINUOUS
 62
     4
 10
160.939904283361
 20
65.69205538102816
 30
0.0
  0
VERTEX
  5
418
  8
0
  6
CONTINUOUS
 62
     4
 10
160.8936457537945
 20
65.59552515505034
 30
0.0
  0
VERTEX
  5
419
  8
0
  6
CONTINUOUS
 62
     4
 10
160.8520359942886
 20
65.49738039018511
 30
0.0
  0
VERTEX
  5
41A
  8
0
  6
CONTINUOUS
 62
     4
 10
160.8151480025005
 20
65.39779326569983
 30
0.0
  0
VERTEX
  5
41B
  8
0
  6
CONTINUOUS
 62
     4
 10
160.7830464925023
 20
65.29693849125079
 30
0.0
  0
VERTEX
  5
41C
  8
0
  6
CONTINUOUS
 62
     4
 10
160.7557877812509
 20
65.19499300038305
 30
0.0
  0
VERTEX
  5
41D
  8
0
  6
CONTINUOUS
 62
     4
 10
160.7334196897882
 20
65.0921356401289
 30
0.0
  0
VERTEX
  5
41E
  8
0
  6
CONTINUOUS
 62
     4
 10
160.7159814593475
 20
64.98854685724942
 30
0.0
  0
VERTEX
  5
41F
  8
0
  6
CONTINUOUS
 62
     4
 10
160.7035036825106
 20
64.88440838166945
 30
0.0
  0
VERTEX
  5
420
  8
0
  6
CONTINUOUS
 62
     4
 10
160.6960082495378
 20
64.77990290766165
 30
0.0
  0
VERTEX
  5
421
  8
0
  6
CONTINUOUS
 62
     4
 10
160.6935083099658
 20
64.67521377333866
 30
0.0
  0
VERTEX
  5
422
  8
0
  6
CONTINUOUS
 62
     4
 10
160.6960082495378
 20
64.57052463901565
 30
0.0
  0
VERTEX
  5
423
  8
0
  6
CONTINUOUS
 62
     4
 10
160.7035036825106
 20
64.46601916500786
 30
0.0
  0
VERTEX
  5
424
  8
0
  6
CONTINUOUS
 62
     4
 10
160.7159814593476
 20
64.36188068942789
 30
0.0
  0
VERTEX
  5
425
  8
0
  6
CONTINUOUS
 62
     4
 10
160.7334196897882
 20
64.25829190654839
 30
0.0
  0
VERTEX
  5
426
  8
0
  6
CONTINUOUS
 62
     4
 10
160.7557877812509
 20
64.15543454629425
 30
0.0
  0
VERTEX
  5
427
  8
0
  6
CONTINUOUS
 62
     4
 10
160.7830464925023
 20
64.05348905542651
 30
0.0
  0
VERTEX
  5
428
  8
0
  6
CONTINUOUS
 62
     4
 10
160.8151480025005
 20
63.95263428097747
 30
0.0
  0
VERTEX
  5
429
  8
0
  6
CONTINUOUS
 62
     4
 10
160.8520359942886
 20
63.85304715649219
 30
0.0
  0
VERTEX
  5
42A
  8
0
  6
CONTINUOUS
 62
     4
 10
160.8936457537945
 20
63.75490239162696
 30
0.0
  0
VERTEX
  5
42B
  8
0
  6
CONTINUOUS
 62
     4
 10
160.939904283361
 20
63.65837216564915
 30
0.0
  0
VERTEX
  5
42C
  8
0
  6
CONTINUOUS
 62
     4
 10
160.9907304298083
 20
63.56362582537633
 30
0.0
  0
VERTEX
  5
42D
  8
0
  6
CONTINUOUS
 62
     4
 10
161.0460350268048
 20
63.47082958808436
 30
0.0
  0
VERTEX
  5
42E
  8
0
  6
CONTINUOUS
 62
     4
 10
161.1057210512948
 20
63.38014624990582
 30
0.0
  0
VERTEX
  5
42F
  8
0
  6
CONTINUOUS
 62
     4
 10
161.1696837937098
 20
63.29173490023029
 30
0.0
  0
VERTEX
  5
430
  8
0
  6
CONTINUOUS
 62
     4
 10
161.2378110416649
 20
63.20575064260747
 30
0.0
  0
VERTEX
  5
431
  8
0
  6
CONTINUOUS
 62
     4
 10
161.3099832768175
 20
63.12234432264287
 30
0.0
  0
VERTEX
  5
432
  8
0
  6
CONTINUOUS
 62
     4
 10
161.3860738845427
 20
63.04166226336339
 30
0.0
  0
VERTEX
  5
433
  8
0
  6
CONTINUOUS
 62
     4
 10
161.4659493760589
 20
62.96384600851692
 30
0.0
  0
VERTEX
  5
434
  8
0
  6
CONTINUOUS
 62
     4
 10
161.5494696226122
 20
62.88903207425664
 30
0.0
  0
VERTEX
  5
435
  8
0
  6
CONTINUOUS
 62
     4
 10
161.6364881013095
 20
62.81735170964517
 30
0.0
  0
VERTEX
  5
436
  8
0
  6
CONTINUOUS
 62
     4
 10
161.7268521521703
 20
62.74893066639918
 30
0.0
  0
VERTEX
  5
437
  8
0
  6
CONTINUOUS
 62
     4
 10
161.8204032459435
 20
62.68388897827816
 30
0.0
  0
VERTEX
  5
438
  8
0
  6
CONTINUOUS
 62
     4
 10
161.9169772622216
 20
62.62234075050439
 30
0.0
  0
VERTEX
  5
439
  8
0
  6
CONTINUOUS
 62
     4
 10
162.016404777364
 20
62.56439395958361
 30
0.0
  0
VERTEX
  5
43A
  8
0
  6
CONTINUOUS
 62
     4
 10
162.1185113617236
 20
62.51015026387756
 30
0.0
  0
VERTEX
  5
43B
  8
0
  6
CONTINUOUS
 62
     4
 10
162.2231178856552
 20
62.45970482526062
 30
0.0
  0
VERTEX
  5
43C
  8
0
  6
CONTINUOUS
 62
     4
 10
162.3300408337704
 20
62.4131461421736
 30
0.0
  0
VERTEX
  5
43D
  8
0
  6
CONTINUOUS
 62
     4
 10
162.4390926268854
 20
62.3705558943674
 30
0.0
  0
VERTEX
  5
43E
  8
0
  6
CONTINUOUS
 62
     4
 10
162.5500819510993
 20
62.33200879960892
 30
0.0
  0
VERTEX
  5
43F
  8
0
  6
CONTINUOUS
 62
     4
 10
162.6628140934227
 20
62.29757248260077
 30
0.0
  0
VERTEX
  5
440
  8
0
  6
CONTINUOUS
 62
     4
 10
162.7770912833716
 20
62.26730735634451
 30
0.0
  0
VERTEX
  5
441
  8
0
  6
CONTINUOUS
 62
     4
 10
162.8927130399229
 20
62.24126651615575
 30
0.0
  0
VERTEX
  5
442
  8
0
  6
CONTINUOUS
 62
     4
 10
163.0094765232273
 20
62.21949564651693
 30
0.0
  0
VERTEX
  5
443
  8
0
  6
CONTINUOUS
 62
     4
 10
163.1271768904585
 20
62.20203294093118
 30
0.0
  0
VERTEX
  5
444
  8
0
  6
CONTINUOUS
 62
     4
 10
163.2456076551775
 20
62.18890903491797
 30
0.0
  0
VERTEX
  5
445
  8
0
  6
CONTINUOUS
 62
     4
 10
163.3645610495799
 20
62.18014695226798
 30
0.0
  0
VERTEX
  5
446
  8
0
  6
CONTINUOUS
 62
     4
 10
163.4838283889914
 20
62.17576206465154
 30
0.0
  0
VERTEX
  5
447
  8
0
  6
CONTINUOUS
 62
     4
 10
163.6032004379713
 20
62.17576206465154
 30
0.0
  0
VERTEX
  5
448
  8
0
  6
CONTINUOUS
 62
     4
 10
163.7224677773829
 20
62.18014695226798
 30
0.0
  0
VERTEX
  5
449
  8
0
  6
CONTINUOUS
 62
     4
 10
163.8414211717853
 20
62.18890903491797
 30
0.0
  0
VERTEX
  5
44A
  8
0
  6
CONTINUOUS
 62
     4
 10
163.9598519365043
 20
62.20203294093118
 30
0.0
  0
VERTEX
  5
44B
  8
0
  6
CONTINUOUS
 62
     4
 10
164.0775523037355
 20
62.21949564651693
 30
0.0
  0
VERTEX
  5
44C
  8
0
  6
CONTINUOUS
 62
     4
 10
164.1943157870399
 20
62.24126651615575
 30
0.0
  0
VERTEX
  5
44D
  8
0
  6
CONTINUOUS
 62
     4
 10
164.3099375435912
 20
62.26730735634451
 30
0.0
  0
VERTEX
  5
44E
  8
0
  6
CONTINUOUS
 62
     4
 10
164.4242147335401
 20
62.29757248260077
 30
0.0
  0
VERTEX
  5
44F
  8
0
  6
CONTINUOUS
 62
     4
 10
164.5369468758635
 20
62.33200879960893
 30
0.0
  0
VERTEX
  5
450
  8
0
  6
CONTINUOUS
 62
     4
 10
164.6479362000773
 20
62.37055589436741
 30
0.0
  0
VERTEX
  5
451
  8
0
  6
CONTINUOUS
 62
     4
 10
164.7569879931924
 20
62.41314614217361
 30
0.0
  0
VERTEX
  5
452
  8
0
  6
CONTINUOUS
 62
     4
 10
164.8639109413076
 20
62.45970482526062
 30
0.0
  0
VERTEX
  5
453
  8
0
  6
CONTINUOUS
 62
     4
 10
164.9685174652392
 20
62.51015026387756
 30
0.0
  0
VERTEX
  5
454
  8
0
  6
CONTINUOUS
 62
     4
 10
165.0706240495987
 20
62.56439395958363
 30
0.0
  0
VERTEX
  5
455
  8
0
  6
CONTINUOUS
 62
     4
 10
165.1700515647412
 20
62.6223407505044
 30
0.0
  0
VERTEX
  5
456
  8
0
  6
CONTINUOUS
 62
     4
 10
165.2666255810193
 20
62.68388897827817
 30
0.0
  0
VERTEX
  5
457
  8
0
  6
CONTINUOUS
 62
     4
 10
165.3601766747924
 20
62.74893066639919
 30
0.0
  0
VERTEX
  5
458
  8
0
  6
CONTINUOUS
 62
     4
 10
165.4505407256532
 20
62.81735170964518
 30
0.0
  0
VERTEX
  5
459
  8
0
  6
CONTINUOUS
 62
     4
 10
165.5375592043506
 20
62.88903207425665
 30
0.0
  0
VERTEX
  5
45A
  8
0
  6
CONTINUOUS
 62
     4
 10
165.6210794509038
 20
62.96384600851694
 30
0.0
  0
VERTEX
  5
45B
  8
0
  6
CONTINUOUS
 62
     4
 10
165.7009549424201
 20
63.0416622633634
 30
0.0
  0
VERTEX
  5
45C
  8
0
  6
CONTINUOUS
 62
     4
 10
165.7770455501453
 20
63.12234432264289
 30
0.0
  0
VERTEX
  5
45D
  8
0
  6
CONTINUOUS
 62
     4
 10
165.8492177852978
 20
63.20575064260748
 30
0.0
  0
VERTEX
  5
45E
  8
0
  6
CONTINUOUS
 62
     4
 10
165.917345033253
 20
63.2917349002303
 30
0.0
  0
VERTEX
  5
45F
  8
0
  6
CONTINUOUS
 62
     4
 10
165.9813077756679
 20
63.38014624990584
 30
0.0
  0
VERTEX
  5
460
  8
0
  6
CONTINUOUS
 62
     4
 10
166.0409938001579
 20
63.47082958808438
 30
0.0
  0
VERTEX
  5
461
  8
0
  6
CONTINUOUS
 62
     4
 10
166.0962983971544
 20
63.56362582537635
 30
0.0
  0
VERTEX
  5
462
  8
0
  6
CONTINUOUS
 62
     4
 10
166.1471245436018
 20
63.65837216564917
 30
0.0
  0
VERTEX
  5
463
  8
0
  6
CONTINUOUS
 62
     4
 10
166.1933830731682
 20
63.75490239162697
 30
0.0
  0
VERTEX
  5
464
  8
0
  6
CONTINUOUS
 62
     4
 10
166.2349928326741
 20
63.85304715649221
 30
0.0
  0
VERTEX
  5
465
  8
0
  6
CONTINUOUS
 62
     4
 10
166.2718808244623
 20
63.95263428097749
 30
0.0
  0
VERTEX
  5
466
  8
0
  6
CONTINUOUS
 62
     4
 10
166.3039823344604
 20
64.05348905542653
 30
0.0
  0
VERTEX
  5
467
  8
0
  6
CONTINUOUS
 62
     4
 10
166.3312410457119
 20
64.15543454629427
 30
0.0
  0
VERTEX
  5
468
  8
0
  6
CONTINUOUS
 62
     4
 10
166.3536091371745
 20
64.25829190654841
 30
0.0
  0
VERTEX
  5
469
  8
0
  6
CONTINUOUS
 62
     4
 10
166.3710473676152
 20
64.36188068942791
 30
0.0
  0
VERTEX
  5
46A
  8
0
  6
CONTINUOUS
 62
     4
 10
166.3835251444522
 20
64.46601916500788
 30
0.0
  0
VERTEX
  5
46B
  8
0
  6
CONTINUOUS
 62
     4
 10
166.3910205774249
 20
64.57052463901567
 30
0.0
  0
SEQEND
  5
3D5
  8
0
  6
CONTINUOUS
 62
     4
  0
POLYLINE
  5
395
  8
0
  6
CONTINUOUS
 62
     4
 66
     1
 10
0.0
 20
0.0
 30
0.0
  0
VERTEX
  5
46D
  8
0
  6
CONTINUOUS
 62
     4
 10
9.594247979765555
 20
95.68547530898319
 30
0.0
 40
0.18
 41
0.18
  0
VERTEX
  5
46E
  8
0
  6
CONTINUOUS
 62
     4
 10
13.06950988078917
 20
94.28139383393506
 30
0.0
 40
0.18
 41
0.18
  0
VERTEX
  5
46F
  8
0
  6
CONTINUOUS
 62
     4
 10
14.87404060073892
 20
91.48771136051978
 30
0.0
 40
0.18
 41
0.18
  0
VERTEX
  5
470
  8
0
  6
CONTINUOUS
 62
     4
 10
14.62758713961166
 20
87.74342521555337
 30
0.0
 40
0.18
 41
0.18
  0
VERTEX
  5
471
  8
0
  6
CONTINUOUS
 62
     4
 10
13.74484157391269
 20
83.92095206604758
 30
0.0
 40
0.18
 41
0.18
  0
VERTEX
  5
472
  8
0
  6
CONTINUOUS
 62
     4
 10
13.30700574490973
 20
80.38020108014365
 30
0.0
 40
0.18
 41
0.18
  0
VERTEX
  5
473
  8
0
  6
CONTINUOUS
 62
     4
 10
13.96596118560711
 20
77.01773072547749
 30
0.0
 40
0.18
 41
0.18
  0
VERTEX
  5
474
  8
0
  6
CONTINUOUS
 62
     4
 10
15.4327751959817
 20
73.69782823600056
 30
0.0
 40
0.18
 41
0.18
  0
VERTEX
  5
475
  8
0
  6
CONTINUOUS
 62
     4
 10
16.82364133132503
 20
70.27404539553018
 30
0.0
 40
0.18
 41
0.18
  0
VERTEX
  5
476
  8
0
  6
CONTINUOUS
 62
     4
 10
17.33787287343518
 20
66.62453361973941
 30
0.0
 40
0.18
 41
0.18
  0
VERTEX
  5
477
  8
0
  6
CONTINUOUS
 62
     4
 10
17.76160346368148
 20
63.0509347626801
 30
0.0
 40
0.18
 41
0.18
  0
VERTEX
  5
478
  8
0
  6
CONTINUOUS
 62
     4
 10
19.87655911144588
 20
60.1941323453646
 30
0.0
 40
0.18
 41
0.18
  0
VERTEX
  5
479
  8
0
  6
CONTINUOUS
 62
     4
 10
23.09964848210619
 20
58.54653911316063
 30
0.0
 40
0.18
 41
0.18
  0
VERTEX
  5
47A
  8
0
  6
CONTINUOUS
 62
     4
 10
26.65056779863104
 20
58.03155036787979
 30
0.0
 40
0.18
 41
0.18
  0
VERTEX
  5
47B
  8
0
  6
CONTINUOUS
 62
     4
 10
30.36828376490938
 20
58.2192334711828
 30
0.0
 40
0.18
 41
0.18
  0
VERTEX
  5
47C
  8
0
  6
CONTINUOUS
 62
     4
 10
34.10397927663018
 20
58.67296320162586
 30
0.0
 40
0.18
 41
0.18
  0
VERTEX
  5
47D
  8
0
  6
CONTINUOUS
 62
     4
 10
37.75490738368263
 20
59.05905475650989
 30
0.0
 40
0.18
 41
0.18
  0
VERTEX
  5
47E
  8
0
  6
CONTINUOUS
 62
     4
 10
41.34232028968663
 20
59.32089045024544
 30
0.0
 40
0.18
 41
0.18
  0
VERTEX
  5
47F
  8
0
  6
CONTINUOUS
 62
     4
 10
44.90812008669437
 20
59.44799327550115
 30
0.0
 40
0.18
 41
0.18
  0
VERTEX
  5
480
  8
0
  6
CONTINUOUS
 62
     4
 10
48.4935876840125
 20
59.43057094826657
 30
0.0
 40
0.18
 41
0.18
  0
VERTEX
  5
481
  8
0
  6
CONTINUOUS
 62
     4
 10
52.11444622460927
 20
59.28700324624567
 30
0.0
 40
0.18
 41
0.18
  0
VERTEX
  5
482
  8
0
  6
CONTINUOUS
 62
     4
 10
55.75237929726321
 20
59.07319139595254
 30
0.0
 40
0.18
 41
0.18
  0
VERTEX
  5
483
  8
0
  6
CONTINUOUS
 62
     4
 10
59.38670915641445
 20
58.8476394983397
 30
0.0
 40
0.18
 41
0.18
  0
VERTEX
  5
484
  8
0
  6
CONTINUOUS
 62
     4
 10
62.9967580565032
 20
58.66885165435976
 30
0.0
 40
0.18
 41
0.18
  0
VERTEX
  5
485
  8
0
  6
CONTINUOUS
 62
     4
 10
66.56184825196959
 20
58.59533196496529
 30
0.0
 40
0.18
 41
0.18
  0
VERTEX
  5
486
  8
0
  6
CONTINUOUS
 62
     4
 10
70.06351192958253
 20
58.68116952781436
 30
0.0
 40
0.18
 41
0.18
  0
VERTEX
  5
487
  8
0
  6
CONTINUOUS
 62
     4
 10
73.52425481625285
 20
58.89859649301723
 30
0.0
 40
0.18
 41
0.18
  0
VERTEX
  5
488
  8
0
  6
CONTINUOUS
 62
     4
 10
77.00273047480043
 20
59.14762885611934
 30
0.0
 40
0.18
 41
0.18
  0
VERTEX
  5
489
  8
0
  6
CONTINUOUS
 62
     4
 10
80.55883250624525
 20
59.32580526407582
 30
0.0
 40
0.18
 41
0.18
  0
VERTEX
  5
48A
  8
0
  6
CONTINUOUS
 62
     4
 10
84.25245451160731
 20
59.33066436384182
 30
0.0
 40
0.18
 41
0.18
  0
VERTEX
  5
48B
  8
0
  6
CONTINUOUS
 62
     4
 10
88.14349009190663
 20
59.05974480237252
 30
0.0
 40
0.18
 41
0.18
  0
VERTEX
  5
48C
  8
0
  6
CONTINUOUS
 62
     4
 10
92.20498909269836
 20
58.53966799423561
 30
0.0
 40
0.18
 41
0.18
  0
VERTEX
  5
48D
  8
0
  6
CONTINUOUS
 62
     4
 10
95.99702963502057
 20
58.41088801083233
 30
0.0
 40
0.18
 41
0.18
  0
VERTEX
  5
48E
  8
0
  6
CONTINUOUS
 62
     4
 10
98.95706618401569
 20
59.49612410928415
 30
0.0
 40
0.18
 41
0.18
  0
VERTEX
  5
48F
  8
0
  6
CONTINUOUS
 62
     4
 10
100.7314321441799
 20
62.29775501894792
 30
0.0
 40
0.18
 41
0.18
  0
VERTEX
  5
490
  8
0
  6
CONTINUOUS
 62
     4
 10
101.7506096116946
 20
66.1155783272478
 30
0.0
 40
0.18
 41
0.18
  0
VERTEX
  5
491
  8
0
  6
CONTINUOUS
 62
     4
 10
102.6015884300572
 20
70.04265984581308
 30
0.0
 40
0.18
 41
0.18
  0
VERTEX
  5
492
  8
0
  6
CONTINUOUS
 62
     4
 10
103.7108795502369
 20
73.61279855542529
 30
0.0
 40
0.18
 41
0.18
  0
VERTEX
  5
493
  8
0
  6
CONTINUOUS
 62
     4
 10
105.4468471202004
 20
76.51948562042777
 30
0.0
 40
0.18
 41
0.18
  0
VERTEX
  5
494
  8
0
  6
CONTINUOUS
 62
     4
 10
108.1242571958325
 20
78.50490236142741
 30
0.0
 40
0.18
 41
0.18
  0
VERTEX
  5
495
  8
0
  6
CONTINUOUS
 62
     4
 10
111.5611020573065
 20
79.76113583785596
 30
0.0
 40
0.18
 41
0.18
  0
VERTEX
  5
496
  8
0
  6
CONTINUOUS
 62
     4
 10
115.3062701168641
 20
80.72401426592555
 30
0.0
 40
0.18
 41
0.18
  0
VERTEX
  5
497
  8
0
  6
CONTINUOUS
 62
     4
 10
118.9817477055542
 20
81.76768096424569
 30
0.0
 40
0.18
 41
0.18
  0
VERTEX
  5
498
  8
0
  6
CONTINUOUS
 62
     4
 10
122.371255990977
 20
83.12944414867513
 30
0.0
 40
0.18
 41
0.18
  0
VERTEX
  5
499
  8
0
  6
CONTINUOUS
 62
     4
 10
125.2793088043364
 20
85.02902048632946
 30
0.0
 40
0.18
 41
0.18
  0
VERTEX
  5
49A
  8
0
  6
CONTINUOUS
 62
     4
 10
127.5269384822269
 20
87.65382442469148
 30
0.0
 40
0.18
 41
0.18
  0
VERTEX
  5
49B
  8
0
  6
CONTINUOUS
 62
     4
 10
129.0714929504771
 20
90.92470294652951
 30
0.0
 40
0.18
 41
0.18
  0
VERTEX
  5
49C
  8
0
  6
CONTINUOUS
 62
     4
 10
129.9374681964835
 20
94.63119385249196
 30
0.0
 40
0.18
 41
0.18
  0
VERTEX
  5
49D
  8
0
  6
CONTINUOUS
 62
     4
 10
130.1498305523809
 20
98.56191517605204
 30
0.0
 40
0.18
 41
0.18
  0
VERTEX
  5
49E
  8
0
  6
CONTINUOUS
 62
     4
 10
129.733546350304
 20
102.505484950683
 30
0.0
 40
0.18
 41
0.18
  0
VERTEX
  5
49F
  8
0
  6
CONTINUOUS
 62
     4
 10
128.7135819223875
 20
106.2505212098581
 30
0.0
 40
0.18
 41
0.18
  0
VERTEX
  5
4A0
  8
0
  6
CONTINUOUS
 62
     4
 10
127.1370732249012
 20
109.6186192477523
 30
0.0
 40
0.18
 41
0.18
  0
VERTEX
  5
4A1
  8
0
  6
CONTINUOUS
 62
     4
 10
125.2315226921651
 20
112.6996690455532
 30
0.0
 40
0.18
 41
0.18
  0
VERTEX
  5
4A2
  8
0
  6
CONTINUOUS
 62
     4
 10
123.3122226007345
 20
115.7141477561887
 30
0.0
 40
0.18
 41
0.18
  0
VERTEX
  5
4A3
  8
0
  6
CONTINUOUS
 62
     4
 10
121.6940518627667
 20
118.8823675080314
 30
0.0
 40
0.18
 41
0.18
  0
VERTEX
  5
4A4
  8
0
  6
CONTINUOUS
 62
     4
 10
120.5878087520411
 20
122.3166313407508
 30
0.0
 40
0.18
 41
0.18
  0
VERTEX
  5
4A5
  8
0
  6
CONTINUOUS
 62
     4
 10
120.0106798365049
 20
125.9283228508324
 30
0.0
 40
0.18
 41
0.18
  0
VERTEX
  5
4A6
  8
0
  6
CONTINUOUS
 62
     4
 10
119.9587527045479
 20
129.6069302890945
 30
0.0
 40
0.18
 41
0.18
  0
VERTEX
  5
4A7
  8
0
  6
CONTINUOUS
 62
     4
 10
120.4215011478964
 20
133.2524926801974
 30
0.0
 40
0.18
 41
0.18
  0
VERTEX
  5
4A8
  8
0
  6
CONTINUOUS
 62
     4
 10
121.3571731397111
 20
136.8148625774711
 30
0.0
 40
0.18
 41
0.18
  0
VERTEX
  5
4A9
  8
0
  6
CONTINUOUS
 62
     4
 10
122.7148100025182
 20
140.2585796033568
 30
0.0
 40
0.18
 41
0.18
  0
VERTEX
  5
4AA
  8
0
  6
CONTINUOUS
 62
     4
 10
124.4434517423141
 20
143.5481854805131
 30
0.0
 40
0.18
 41
0.18
  0
VERTEX
  5
4AB
  8
0
  6
CONTINUOUS
 62
     4
 10
126.4921383650951
 20
146.6482219315984
 30
0.0
 40
0.18
 41
0.18
  0
VERTEX
  5
4AC
  8
0
  6
CONTINUOUS
 62
     4
 10
128.8099098768577
 20
149.5232306792713
 30
0.0
 40
0.18
 41
0.18
  0
VERTEX
  5
4AD
  8
0
  6
CONTINUOUS
 62
     4
 10
131.3458062835983
 20
152.13775344619
 30
0.0
 40
0.18
 41
0.18
  0
SEQEND
  5
46C
  8
0
  6
CONTINUOUS
 62
     4
  0
POLYLINE
  5
396
  8
0
  6
CONTINUOUS
 62
     4
 66
     1
 10
0.0
 20
0.0
 30
0.0
  0
VERTEX
  5
4AF
  8
0
  6
CONTINUOUS
 62
     4
 10
9.594247979765555
 20
-19.33504776230588
 30
0.0
 40
0.18
 41
0.18
  0
VERTEX
  5
4B0
  8
0
  6
CONTINUOUS
 62
     4
 10
13.06951053618078
 20
-17.9309678105074
 30
0.0
 40
0.18
 41
0.18
  0
VERTEX
  5
4B1
  8
0
  6
CONTINUOUS
 62
     4
 10
14.87404178507413
 20
-15.13728676129327
 30
0.0
 40
0.18
 41
0.18
  0
VERTEX
  5
4B2
  8
0
  6
CONTINUOUS
 62
     4
 10
14.62758854442608
 20
-11.39300040907967
 30
0.0
 40
0.18
 41
0.18
  0
VERTEX
  5
4B3
  8
0
  6
CONTINUOUS
 62
     4
 10
13.7448424575437
 20
-7.57052644663074
 30
0.0
 40
0.18
 41
0.18
  0
VERTEX
  5
4B4
  8
0
  6
CONTINUOUS
 62
     4
 10
13.30700560687167
 20
-4.029775238412049
 30
0.0
 40
0.18
 41
0.18
  0
VERTEX
  5
4B5
  8
0
  6
CONTINUOUS
 62
     4
 10
13.96595977773337
 20
-0.6673049569443803
 30
0.0
 40
0.18
 41
0.18
  0
VERTEX
  5
4B6
  8
0
  6
CONTINUOUS
 62
     4
 10
15.43277354698714
 20
2.652597368687692
 30
0.0
 40
0.18
 41
0.18
  0
VERTEX
  5
4B7
  8
0
  6
CONTINUOUS
 62
     4
 10
16.82364031286928
 20
6.076380037578891
 30
0.0
 40
0.18
 41
0.18
  0
VERTEX
  5
4B8
  8
0
  6
CONTINUOUS
 62
     4
 10
17.33787265318956
 20
9.72589181191808
 30
0.0
 40
0.18
 41
0.18
  0
VERTEX
  5
4B9
  8
0
  6
CONTINUOUS
 62
     4
 10
17.76160271410236
 20
13.29949090207521
 30
0.0
 40
0.18
 41
0.18
  0
VERTEX
  5
4BA
  8
0
  6
CONTINUOUS
 62
     4
 10
19.87655819109125
 20
16.15629301958553
 30
0.0
 40
0.18
 41
0.18
  0
VERTEX
  5
4BB
  8
0
  6
CONTINUOUS
 62
     4
 10
23.09964801119559
 20
17.80388601137209
 30
0.0
 40
0.18
 41
0.18
  0
VERTEX
  5
4BC
  8
0
  6
CONTINUOUS
 62
     4
 10
26.65056734773035
 20
18.31887488382655
 30
0.0
 40
0.18
 41
0.18
  0
VERTEX
  5
4BD
  8
0
  6
CONTINUOUS
 62
     4
 10
30.36828309730565
 20
18.13119206468973
 30
0.0
 40
0.18
 41
0.18
  0
VERTEX
  5
4BE
  8
0
  6
CONTINUOUS
 62
     4
 10
34.1039783913958
 20
17.67746256600976
 30
0.0
 40
0.18
 41
0.18
  0
VERTEX
  5
4BF
  8
0
  6
CONTINUOUS
 62
     4
 10
37.75490641816667
 20
17.29137109803638
 30
0.0
 40
0.18
 41
0.18
  0
VERTEX
  5
4C0
  8
0
  6
CONTINUOUS
 62
     4
 10
41.34231934037106
 20
17.02953538253876
 30
0.0
 40
0.18
 41
0.18
  0
VERTEX
  5
4C1
  8
0
  6
CONTINUOUS
 62
     4
 10
44.90811919423403
 20
16.90243245121544
 30
0.0
 40
0.18
 41
0.18
  0
VERTEX
  5
4C2
  8
0
  6
CONTINUOUS
 62
     4
 10
48.49358683503545
 20
16.91985461391899
 30
0.0
 40
0.18
 41
0.18
  0
VERTEX
  5
4C3
  8
0
  6
CONTINUOUS
 62
     4
 10
52.11444538859384
 20
17.06342213847592
 30
0.0
 40
0.18
 41
0.18
  0
VERTEX
  5
4C4
  8
0
  6
CONTINUOUS
 62
     4
 10
55.75237845411338
 20
17.27723384638176
 30
0.0
 40
0.18
 41
0.18
  0
VERTEX
  5
4C5
  8
0
  6
CONTINUOUS
 62
     4
 10
59.38670829615793
 20
17.50278568242401
 30
0.0
 40
0.18
 41
0.18
  0
VERTEX
  5
4C6
  8
0
  6
CONTINUOUS
 62
     4
 10
62.99675717929142
 20
17.68157359139023
 30
0.0
 40
0.18
 41
0.18
  0
VERTEX
  5
4C7
  8
0
  6
CONTINUOUS
 62
     4
 10
66.56184736807771
 20
17.75509351806793
 30
0.0
 40
0.18
 41
0.18
  0
VERTEX
  5
4C8
  8
0
  6
CONTINUOUS
 62
     4
 10
70.0635110558362
 20
17.66925639963874
 30
0.0
 40
0.18
 41
0.18
  0
VERTEX
  5
4C9
  8
0
  6
CONTINUOUS
 62
     4
 10
73.52425395406354
 20
17.45183000720229
 30
0.0
 40
0.18
 41
0.18
  0
VERTEX
  5
4CA
  8
0
  6
CONTINUOUS
 62
     4
 10
77.00272961453963
 20
17.20279821362817
 30
0.0
 40
0.18
 41
0.18
  0
VERTEX
  5
4CB
  8
0
  6
CONTINUOUS
 62
     4
 10
80.55883162901509
 20
17.02462224180247
 30
0.0
 40
0.18
 41
0.18
  0
VERTEX
  5
4CC
  8
0
  6
CONTINUOUS
 62
     4
 10
84.25245358924047
 20
17.01976331461126
 30
0.0
 40
0.18
 41
0.18
  0
VERTEX
  5
4CD
  8
0
  6
CONTINUOUS
 62
     4
 10
88.14348908696641
 20
17.29068265494062
 30
0.0
 40
0.18
 41
0.18
  0
VERTEX
  5
4CE
  8
0
  6
CONTINUOUS
 62
     4
 10
92.20498803576251
 20
17.81075888834257
 30
0.0
 40
0.18
 41
0.18
  0
VERTEX
  5
4CF
  8
0
  6
CONTINUOUS
 62
     4
 10
95.99702867918091
 20
17.93953832801372
 30
0.0
 40
0.18
 41
0.18
  0
VERTEX
  5
4D0
  8
0
  6
CONTINUOUS
 62
     4
 10
98.95706552946777
 20
16.85430206757162
 30
0.0
 40
0.18
 41
0.18
  0
VERTEX
  5
4D1
  8
0
  6
CONTINUOUS
 62
     4
 10
100.7314318632129
 20
14.0526713792632
 30
0.0
 40
0.18
 41
0.18
  0
VERTEX
  5
4D2
  8
0
  6
CONTINUOUS
 62
     4
 10
101.7506096456613
 20
10.23484836946195
 30
0.0
 40
0.18
 41
0.18
  0
VERTEX
  5
4D3
  8
0
  6
CONTINUOUS
 62
     4
 10
102.6015887401779
 20
6.307767090627851
 30
0.0
 40
0.18
 41
0.18
  0
VERTEX
  5
4D4
  8
0
  6
CONTINUOUS
 62
     4
 10
103.7108801475623
 20
2.737628581933163
 30
0.0
 40
0.18
 41
0.18
  0
VERTEX
  5
4D5
  8
0
  6
CONTINUOUS
 62
     4
 10
105.4468480906904
 20
-0.1690582054774611
 30
0.0
 40
0.18
 41
0.18
  0
VERTEX
  5
4D6
  8
0
  6
CONTINUOUS
 62
     4
 10
108.1242585958919
 20
-2.1544745755705
 30
0.0
 40
0.18
 41
0.18
  0
VERTEX
  5
4D7
  8
0
  6
CONTINUOUS
 62
     4
 10
111.5611036950782
 20
-3.410707811991356
 30
0.0
 40
0.18
 41
0.18
  0
VERTEX
  5
4D8
  8
0
  6
CONTINUOUS
 62
     4
 10
115.3062717645264
 20
-4.373586186286591
 30
0.0
 40
0.18
 41
0.18
  0
VERTEX
  5
4D9
  8
0
  6
CONTINUOUS
 62
     4
 10
118.9817492117811
 20
-5.417252978335861
 30
0.0
 40
0.18
 41
0.18
  0
VERTEX
  5
4DA
  8
0
  6
CONTINUOUS
 62
     4
 10
122.3712572944151
 20
-6.77901635733662
 30
0.0
 40
0.18
 41
0.18
  0
VERTEX
  5
4DB
  8
0
  6
CONTINUOUS
 62
     4
 10
125.2793099055222
 20
-8.678592967948461
 30
0.0
 40
0.18
 41
0.18
  0
VERTEX
  5
4DC
  8
0
  6
CONTINUOUS
 62
     4
 10
127.52693946314
 20
-11.30339718432469
 30
0.0
 40
0.18
 41
0.18
  0
VERTEX
  5
4DD
  8
0
  6
CONTINUOUS
 62
     4
 10
129.0714939407058
 20
-14.57427587778978
 30
0.0
 40
0.18
 41
0.18
  0
VERTEX
  5
4DE
  8
0
  6
CONTINUOUS
 62
     4
 10
129.9374692758339
 20
-18.28076687662921
 30
0.0
 40
0.18
 41
0.18
  0
VERTEX
  5
4DF
  8
0
  6
CONTINUOUS
 62
     4
 10
130.1498317480093
 20
-22.21148824720182
 30
0.0
 40
0.18
 41
0.18
  0
VERTEX
  5
4E0
  8
0
  6
CONTINUOUS
 62
     4
 10
129.7335476367169
 20
-26.15505805586646
 30
0.0
 40
0.18
 41
0.18
  0
VERTEX
  5
4E1
  8
0
  6
CONTINUOUS
 62
     4
 10
128.7135832214416
 20
-29.90009436898197
 30
0.0
 40
0.18
 41
0.18
  0
VERTEX
  5
4E2
  8
0
  6
CONTINUOUS
 62
     4
 10
127.1370743480851
 20
-33.26819240780289
 30
0.0
 40
0.18
 41
0.18
  0
VERTEX
  5
4E3
  8
0
  6
CONTINUOUS
 62
     4
 10
125.2315233971818
 20
-36.34924200245138
 30
0.0
 40
0.18
 41
0.18
  0
VERTEX
  5
4E4
  8
0
  6
CONTINUOUS
 62
     4
 10
123.3122228351612
 20
-39.36372043823217
 30
0.0
 40
0.18
 41
0.18
  0
VERTEX
  5
4E5
  8
0
  6
CONTINUOUS
 62
     4
 10
121.6940517702151
 20
-42.5319399853863
 30
0.0
 40
0.18
 41
0.18
  0
VERTEX
  5
4E6
  8
0
  6
CONTINUOUS
 62
     4
 10
120.5878085703848
 20
-45.96620375463948
 30
0.0
 40
0.18
 41
0.18
  0
VERTEX
  5
4E7
  8
0
  6
CONTINUOUS
 62
     4
 10
120.0106797190542
 20
-49.57789529269639
 30
0.0
 40
0.18
 41
0.18
  0
VERTEX
  5
4E8
  8
0
  6
CONTINUOUS
 62
     4
 10
119.9587527019795
 20
-53.25650278889657
 30
0.0
 40
0.18
 41
0.18
  0
VERTEX
  5
4E9
  8
0
  6
CONTINUOUS
 62
     4
 10
120.4215012241269
 20
-56.90206521656362
 30
0.0
 40
0.18
 41
0.18
  0
VERTEX
  5
4EA
  8
0
  6
CONTINUOUS
 62
     4
 10
121.3571732481094
 20
-60.46443512355662
 30
0.0
 40
0.18
 41
0.18
  0
VERTEX
  5
4EB
  8
0
  6
CONTINUOUS
 62
     4
 10
122.7148101087429
 20
-63.90815213978276
 30
0.0
 40
0.18
 41
0.18
  0
VERTEX
  5
4EC
  8
0
  6
CONTINUOUS
 62
     4
 10
124.4434518243182
 20
-67.19775799536679
 30
0.0
 40
0.18
 41
0.18
  0
VERTEX
  5
4ED
  8
0
  6
CONTINUOUS
 62
     4
 10
126.4921384131256
 20
-70.29779442043338
 30
0.0
 40
0.18
 41
0.18
  0
VERTEX
  5
4EE
  8
0
  6
CONTINUOUS
 62
     4
 10
128.8099098934556
 20
-73.17280314510725
 30
0.0
 40
0.18
 41
0.18
  0
VERTEX
  5
4EF
  8
0
  6
CONTINUOUS
 62
     4
 10
131.3458062835986
 20
-75.78732589951291
 30
0.0
 40
0.18
 41
0.18
  0
SEQEND
  5
4AE
  8
0
  6
CONTINUOUS
 62
     4
  0
POLYLINE
  5
397
  8
0
  6
CONTINUOUS
 62
     4
 66
     1
 10
0.0
 20
0.0
 30
0.0
 70
     1
  0
VERTEX
  5
4F0
  8
0
  6
CONTINUOUS
 62
     4
 10
1.0
 20
0.0
 30
0.0
  0
VERTEX
  5
4F1
  8
0
  6
CONTINUOUS
 62
     4
 10
0.9807852804032304
 20
0.1950903220161283
 30
0.0
  0
VERTEX
  5
4F2
  8
0
  6
CONTINUOUS
 62
     4
 10
0.9238795325112867
 20
0.3826834323650898
 30
0.0
  0
VERTEX
  5
4F3
  8
0
  6
CONTINUOUS
 62
     4
 10
0.8314696123025452
 20
0.5555702330196022
 30
0.0
  0
VERTEX
  5
4F4
  8
0
  6
CONTINUOUS
 62
     4
 10
0.7071067811865476
 20
0.7071067811865475
 30
0.0
  0
VERTEX
  5
4F5
  8
0
  6
CONTINUOUS
 62
     4
 10
0.5555702330196023
 20
0.8314696123025452
 30
0.0
  0
VERTEX
  5
4F6
  8
0
  6
CONTINUOUS
 62
     4
 10
0.3826834323650898
 20
0.9238795325112867
 30
0.0
  0
VERTEX
  5
4F7
  8
0
  6
CONTINUOUS
 62
     4
 10
0.1950903220161283
 20
0.9807852804032304
 30
0.0
  0
VERTEX
  5
4F8
  8
0
  6
CONTINUOUS
 62
     4
 10
0.0000000000000001
 20
1.0
 30
0.0
  0
VERTEX
  5
4F9
  8
0
  6
CONTINUOUS
 62
     4
 10
-0.1950903220161282
 20
0.9807852804032304
 30
0.0
  0
VERTEX
  5
4FA
  8
0
  6
CONTINUOUS
 62
     4
 10
-0.3826834323650897
 20
0.9238795325112867
 30
0.0
  0
VERTEX
  5
4FB
  8
0
  6
CONTINUOUS
 62
     4
 10
-0.555570233019602
 20
0.8314696123025455
 30
0.0
  0
VERTEX
  5
4FC
  8
0
  6
CONTINUOUS
 62
     4
 10
-0.7071067811865475
 20
0.7071067811865476
 30
0.0
  0
VERTEX
  5
4FD
  8
0
  6
CONTINUOUS
 62
     4
 10
-0.8314696123025454
 20
0.5555702330196022
 30
0.0
  0
VERTEX
  5
4FE
  8
0
  6
CONTINUOUS
 62
     4
 10
-0.9238795325112869
 20
0.3826834323650895
 30
0.0
  0
VERTEX
  5
4FF
  8
0
  6
CONTINUOUS
 62
     4
 10
-0.9807852804032305
 20
0.1950903220161277
 30
0.0
  0
VERTEX
  5
500
  8
0
  6
CONTINUOUS
 62
     4
 10
-1.0
 20
-0.0000000000000008
 30
0.0
  0
VERTEX
  5
501
  8
0
  6
CONTINUOUS
 62
     4
 10
-0.9807852804032302
 20
-0.1950903220161292
 30
0.0
  0
VERTEX
  5
502
  8
0
  6
CONTINUOUS
 62
     4
 10
-0.9238795325112863
 20
-0.3826834323650909
 30
0.0
  0
VERTEX
  5
503
  8
0
  6
CONTINUOUS
 62
     4
 10
-0.8314696123025445
 20
-0.5555702330196034
 30
0.0
  0
VERTEX
  5
504
  8
0
  6
CONTINUOUS
 62
     4
 10
-0.7071067811865464
 20
-0.7071067811865487
 30
0.0
  0
VERTEX
  5
505
  8
0
  6
CONTINUOUS
 62
     4
 10
-0.5555702330196007
 20
-0.8314696123025462
 30
0.0
  0
VERTEX
  5
506
  8
0
  6
CONTINUOUS
 62
     4
 10
-0.3826834323650879
 20
-0.9238795325112875
 30
0.0
  0
VERTEX
  5
507
  8
0
  6
CONTINUOUS
 62
     4
 10
-0.1950903220161261
 20
-0.9807852804032309
 30
0.0
  0
VERTEX
  5
508
  8
0
  6
CONTINUOUS
 62
     4
 10
0.0000000000000025
 20
-1.0
 30
0.0
  0
VERTEX
  5
509
  8
0
  6
CONTINUOUS
 62
     4
 10
0.1950903220161309
 20
-0.9807852804032299
 30
0.0
  0
VERTEX
  5
50A
  8
0
  6
CONTINUOUS
 62
     4
 10
0.3826834323650925
 20
-0.9238795325112856
 30
0.0
  0
VERTEX
  5
50B
  8
0
  6
CONTINUOUS
 62
     4
 10
0.5555702330196048
 20
-0.8314696123025435
 30
0.0
  0
VERTEX
  5
50C
  8
0
  6
CONTINUOUS
 62
     4
 10
0.7071067811865499
 20
-0.7071067811865451
 30
0.0
  0
VERTEX
  5
50D
  8
0
  6
CONTINUOUS
 62
     4
 10
0.8314696123025472
 20
-0.5555702330195993
 30
0.0
  0
VERTEX
  5
50E
  8
0
  6
CONTINUOUS
 62
     4
 10
0.9238795325112882
 20
-0.3826834323650863
 30
0.0
  0
VERTEX
  5
50F
  8
0
  6
CONTINUOUS
 62
     4
 10
0.9807852804032312
 20
-0.1950903220161244
 30
0.0
  0
SEQEND
  5
510
  8
0
  6
CONTINUOUS
 62
     4
  0
POLYLINE
  5
398
  8
0
  6
CONTINUOUS
 62
     4
 66
     1
 10
0.0
 20
0.0
 30
0.0
 70
     1
  0
VERTEX
  5
512
  8
0
  6
CONTINUOUS
 62
     4
 10
149.393520516997
 20
128.8002099586414
 30
0.0
  0
VERTEX
  5
513
  8
0
  6
CONTINUOUS
 62
     4
 10
149.3911521609408
 20
128.8996647959912
 30
0.0
  0
VERTEX
  5
514
  8
0
  6
CONTINUOUS
 62
     4
 10
149.3840512476736
 20
128.9989451557613
 30
0.0
  0
VERTEX
  5
515
  8
0
  6
CONTINUOUS
 62
     4
 10
149.3722302346101
 20
129.097876866465
 30
0.0
  0
VERTEX
  5
516
  8
0
  6
CONTINUOUS
 62
     4
 10
149.3557098598241
 20
129.1962863682644
 30
0.0
  0
VERTEX
  5
517
  8
0
  6
CONTINUOUS
 62
     4
 10
149.3345191056665
 20
129.2940010174538
 30
0.0
  0
VERTEX
  5
518
  8
0
  6
CONTINUOUS
 62
     4
 10
149.3086951479209
 20
129.3908493893346
 30
0.0
  0
VERTEX
  5
519
  8
0
  6
CONTINUOUS
 62
     4
 10
149.2782832905841
 20
129.4866615789534
 30
0.0
  0
VERTEX
  5
51A
  8
0
  6
CONTINUOUS
 62
     4
 10
149.2433368863881
 20
129.5812694991722
 30
0.0
  0
VERTEX
  5
51B
  8
0
  6
CONTINUOUS
 62
     4
 10
149.2039172432005
 20
129.6745071755512
 30
0.0
  0
VERTEX
  5
51C
  8
0
  6
CONTINUOUS
 62
     4
 10
149.1600935164704
 20
129.7662110375236
 30
0.0
  0
VERTEX
  5
51D
  8
0
  6
CONTINUOUS
 62
     4
 10
149.1119425879059
 20
129.8562202053542
 30
0.0
  0
VERTEX
  5
51E
  8
0
  6
CONTINUOUS
 62
     4
 10
149.0595489305975
 20
129.9443767723774
 30
0.0
  0
VERTEX
  5
51F
  8
0
  6
CONTINUOUS
 62
     4
 10
149.0030044608236
 20
130.0305260820188
 30
0.0
  0
VERTEX
  5
520
  8
0
  6
CONTINUOUS
 62
     4
 10
148.9424083767982
 20
130.1145169991156
 30
0.0
  0
VERTEX
  5
521
  8
0
  6
CONTINUOUS
 62
     4
 10
148.8778669846433
 20
130.1962021750588
 30
0.0
  0
VERTEX
  5
522
  8
0
  6
CONTINUOUS
 62
     4
 10
148.809493511892
 20
130.2754383062931
 30
0.0
  0
VERTEX
  5
523
  8
0
  6
CONTINUOUS
 62
     4
 10
148.737407908849
 20
130.3520863857197
 30
0.0
  0
VERTEX
  5
524
  8
0
  6
CONTINUOUS
 62
     4
 10
148.6617366381569
 20
130.426011946562
 30
0.0
  0
VERTEX
  5
525
  8
0
  6
CONTINUOUS
 62
     4
 10
148.5826124529378
 20
130.4970852982663
 30
0.0
  0
VERTEX
  5
526
  8
0
  6
CONTINUOUS
 62
     4
 10
148.5001741638992
 20
130.5651817540228
 30
0.0
  0
VERTEX
  5
527
  8
0
  6
CONTINUOUS
 62
     4
 10
148.4145663958126
 20
130.6301818495087
 30
0.0
  0
VERTEX
  5
528
  8
0
  6
CONTINUOUS
 62
     4
 10
148.3259393337932
 20
130.6919715524694
 30
0.0
  0
VERTEX
  5
529
  8
0
  6
CONTINUOUS
 62
     4
 10
148.2344484598232
 20
130.7504424627696
 30
0.0
  0
VERTEX
  5
52A
  8
0
  6
CONTINUOUS
 62
     4
 10
148.1402542799845
 20
130.8054920025641
 30
0.0
  0
VERTEX
  5
52B
  8
0
  6
CONTINUOUS
 62
     4
 10
148.0435220428759
 20
130.8570235962542
 30
0.0
  0
VERTEX
  5
52C
  8
0
  6
CONTINUOUS
 62
     4
 10
147.9444214497111
 20
130.9049468399139
 30
0.0
  0
VERTEX
  5
52D
  8
0
  6
CONTINUOUS
 62
     4
 10
147.8431263566052
 20
130.9491776598895
 30
0.0
  0
VERTEX
  5
52E
  8
0
  6
CONTINUOUS
 62
     4
 10
147.7398144695718
 20
130.989638460293
 30
0.0
  0
VERTEX
  5
52F
  8
0
  6
CONTINUOUS
 62
     4
 10
147.6346670327663
 20
131.0262582591317
 30
0.0
  0
VERTEX
  5
530
  8
0
  6
CONTINUOUS
 62
     4
 10
147.5278685105222
 20
131.0589728128351
 30
0.0
  0
VERTEX
  5
531
  8
0
  6
CONTINUOUS
 62
     4
 10
147.4196062637379
 20
131.0877247289595
 30
0.0
  0
VERTEX
  5
532
  8
0
  6
CONTINUOUS
 62
     4
 10
147.310070221182
 20
131.1124635668739
 30
0.0
  0
VERTEX
  5
533
  8
0
  6
CONTINUOUS
 62
     4
 10
147.1994525462939
 20
131.1331459262505
 30
0.0
  0
VERTEX
  5
534
  8
0
  6
CONTINUOUS
 62
     4
 10
147.0879473000633
 20
131.149735523203
 30
0.0
  0
VERTEX
  5
535
  8
0
  6
CONTINUOUS
 62
     4
 10
146.9757501005819
 20
131.162203253941
 30
0.0
  0
VERTEX
  5
536
  8
0
  6
CONTINUOUS
 62
     4
 10
146.8630577798625
 20
131.1705272458284
 30
0.0
  0
VERTEX
  5
537
  8
0
  6
CONTINUOUS
 62
     4
 10
146.7500680385287
 20
131.1746928957548
 30
0.0
  0
VERTEX
  5
538
  8
0
  6
CONTINUOUS
 62
     4
 10
146.6369790989809
 20
131.1746928957548
 30
0.0
  0
VERTEX
  5
539
  8
0
  6
CONTINUOUS
 62
     4
 10
146.5239893576471
 20
131.1705272458284
 30
0.0
  0
VERTEX
  5
53A
  8
0
  6
CONTINUOUS
 62
     4
 10
146.4112970369277
 20
131.162203253941
 30
0.0
  0
VERTEX
  5
53B
  8
0
  6
CONTINUOUS
 62
     4
 10
146.2990998374463
 20
131.149735523203
 30
0.0
  0
VERTEX
  5
53C
  8
0
  6
CONTINUOUS
 62
     4
 10
146.1875945912157
 20
131.1331459262505
 30
0.0
  0
VERTEX
  5
53D
  8
0
  6
CONTINUOUS
 62
     4
 10
146.0769769163276
 20
131.1124635668739
 30
0.0
  0
VERTEX
  5
53E
  8
0
  6
CONTINUOUS
 62
     4
 10
145.9674408737718
 20
131.0877247289595
 30
0.0
  0
VERTEX
  5
53F
  8
0
  6
CONTINUOUS
 62
     4
 10
145.8591786269875
 20
131.0589728128351
 30
0.0
  0
VERTEX
  5
540
  8
0
  6
CONTINUOUS
 62
     4
 10
145.7523801047434
 20
131.0262582591317
 30
0.0
  0
VERTEX
  5
541
  8
0
  6
CONTINUOUS
 62
     4
 10
145.6472326679379
 20
130.989638460293
 30
0.0
  0
VERTEX
  5
542
  8
0
  6
CONTINUOUS
 62
     4
 10
145.5439207809044
 20
130.9491776598895
 30
0.0
  0
VERTEX
  5
543
  8
0
  6
CONTINUOUS
 62
     4
 10
145.4426256877985
 20
130.9049468399139
 30
0.0
  0
VERTEX
  5
544
  8
0
  6
CONTINUOUS
 62
     4
 10
145.3435250946337
 20
130.8570235962542
 30
0.0
  0
VERTEX
  5
545
  8
0
  6
CONTINUOUS
 62
     4
 10
145.2467928575251
 20
130.8054920025641
 30
0.0
  0
VERTEX
  5
546
  8
0
  6
CONTINUOUS
 62
     4
 10
145.1525986776864
 20
130.7504424627696
 30
0.0
  0
VERTEX
  5
547
  8
0
  6
CONTINUOUS
 62
     4
 10
145.0611078037165
 20
130.6919715524694
 30
0.0
  0
VERTEX
  5
548
  8
0
  6
CONTINUOUS
 62
     4
 10
144.972480741697
 20
130.6301818495087
 30
0.0
  0
VERTEX
  5
549
  8
0
  6
CONTINUOUS
 62
     4
 10
144.8868729736105
 20
130.5651817540228
 30
0.0
  0
VERTEX
  5
54A
  8
0
  6
CONTINUOUS
 62
     4
 10
144.8044346845718
 20
130.4970852982663
 30
0.0
  0
VERTEX
  5
54B
  8
0
  6
CONTINUOUS
 62
     4
 10
144.7253104993527
 20
130.426011946562
 30
0.0
  0
VERTEX
  5
54C
  8
0
  6
CONTINUOUS
 62
     4
 10
144.6496392286606
 20
130.3520863857197
 30
0.0
  0
VERTEX
  5
54D
  8
0
  6
CONTINUOUS
 62
     4
 10
144.5775536256177
 20
130.2754383062931
 30
0.0
  0
VERTEX
  5
54E
  8
0
  6
CONTINUOUS
 62
     4
 10
144.5091801528664
 20
130.1962021750588
 30
0.0
  0
VERTEX
  5
54F
  8
0
  6
CONTINUOUS
 62
     4
 10
144.4446387607114
 20
130.1145169991156
 30
0.0
  0
VERTEX
  5
550
  8
0
  6
CONTINUOUS
 62
     4
 10
144.384042676686
 20
130.0305260820188
 30
0.0
  0
VERTEX
  5
551
  8
0
  6
CONTINUOUS
 62
     4
 10
144.3274982069121
 20
129.9443767723774
 30
0.0
  0
VERTEX
  5
552
  8
0
  6
CONTINUOUS
 62
     4
 10
144.2751045496038
 20
129.8562202053542
 30
0.0
  0
VERTEX
  5
553
  8
0
  6
CONTINUOUS
 62
     4
 10
144.2269536210393
 20
129.7662110375236
 30
0.0
  0
VERTEX
  5
554
  8
0
  6
CONTINUOUS
 62
     4
 10
144.1831298943092
 20
129.6745071755512
 30
0.0
  0
VERTEX
  5
555
  8
0
  6
CONTINUOUS
 62
     4
 10
144.1437102511216
 20
129.5812694991722
 30
0.0
  0
VERTEX
  5
556
  8
0
  6
CONTINUOUS
 62
     4
 10
144.1087638469255
 20
129.4866615789533
 30
0.0
  0
VERTEX
  5
557
  8
0
  6
CONTINUOUS
 62
     4
 10
144.0783519895887
 20
129.3908493893346
 30
0.0
  0
VERTEX
  5
558
  8
0
  6
CONTINUOUS
 62
     4
 10
144.0525280318431
 20
129.2940010174538
 30
0.0
  0
VERTEX
  5
559
  8
0
  6
CONTINUOUS
 62
     4
 10
144.0313372776855
 20
129.1962863682644
 30
0.0
  0
VERTEX
  5
55A
  8
0
  6
CONTINUOUS
 62
     4
 10
144.0148169028995
 20
129.097876866465
 30
0.0
  0
VERTEX
  5
55B
  8
0
  6
CONTINUOUS
 62
     4
 10
144.002995889836
 20
128.9989451557613
 30
0.0
  0
VERTEX
  5
55C
  8
0
  6
CONTINUOUS
 62
     4
 10
143.9958949765688
 20
128.8996647959912
 30
0.0
  0
VERTEX
  5
55D
  8
0
  6
CONTINUOUS
 62
     4
 10
143.9935266205126
 20
128.8002099586414
 30
0.0
  0
VERTEX
  5
55E
  8
0
  6
CONTINUOUS
 62
     4
 10
143.9958949765688
 20
128.7007551212916
 30
0.0
  0
VERTEX
  5
55F
  8
0
  6
CONTINUOUS
 62
     4
 10
144.002995889836
 20
128.6014747615215
 30
0.0
  0
VERTEX
  5
560
  8
0
  6
CONTINUOUS
 62
     4
 10
144.0148169028995
 20
128.5025430508178
 30
0.0
  0
VERTEX
  5
561
  8
0
  6
CONTINUOUS
 62
     4
 10
144.0313372776855
 20
128.4041335490184
 30
0.0
  0
VERTEX
  5
562
  8
0
  6
CONTINUOUS
 62
     4
 10
144.0525280318431
 20
128.3064188998291
 30
0.0
  0
VERTEX
  5
563
  8
0
  6
CONTINUOUS
 62
     4
 10
144.0783519895887
 20
128.2095705279482
 30
0.0
  0
VERTEX
  5
564
  8
0
  6
CONTINUOUS
 62
     4
 10
144.1087638469255
 20
128.1137583383295
 30
0.0
  0
VERTEX
  5
565
  8
0
  6
CONTINUOUS
 62
     4
 10
144.1437102511216
 20
128.0191504181106
 30
0.0
  0
VERTEX
  5
566
  8
0
  6
CONTINUOUS
 62
     4
 10
144.1831298943092
 20
127.9259127417316
 30
0.0
  0
VERTEX
  5
567
  8
0
  6
CONTINUOUS
 62
     4
 10
144.2269536210393
 20
127.8342088797592
 30
0.0
  0
VERTEX
  5
568
  8
0
  6
CONTINUOUS
 62
     4
 10
144.2751045496038
 20
127.7441997119286
 30
0.0
  0
VERTEX
  5
569
  8
0
  6
CONTINUOUS
 62
     4
 10
144.3274982069121
 20
127.6560431449054
 30
0.0
  0
VERTEX
  5
56A
  8
0
  6
CONTINUOUS
 62
     4
 10
144.384042676686
 20
127.569893835264
 30
0.0
  0
VERTEX
  5
56B
  8
0
  6
CONTINUOUS
 62
     4
 10
144.4446387607114
 20
127.4859029181672
 30
0.0
  0
VERTEX
  5
56C
  8
0
  6
CONTINUOUS
 62
     4
 10
144.5091801528664
 20
127.404217742224
 30
0.0
  0
VERTEX
  5
56D
  8
0
  6
CONTINUOUS
 62
     4
 10
144.5775536256177
 20
127.3249816109897
 30
0.0
  0
VERTEX
  5
56E
  8
0
  6
CONTINUOUS
 62
     4
 10
144.6496392286607
 20
127.2483335315631
 30
0.0
  0
VERTEX
  5
56F
  8
0
  6
CONTINUOUS
 62
     4
 10
144.7253104993527
 20
127.1744079707208
 30
0.0
  0
VERTEX
  5
570
  8
0
  6
CONTINUOUS
 62
     4
 10
144.8044346845718
 20
127.1033346190165
 30
0.0
  0
VERTEX
  5
571
  8
0
  6
CONTINUOUS
 62
     4
 10
144.8868729736105
 20
127.0352381632601
 30
0.0
  0
VERTEX
  5
572
  8
0
  6
CONTINUOUS
 62
     4
 10
144.972480741697
 20
126.9702380677741
 30
0.0
  0
VERTEX
  5
573
  8
0
  6
CONTINUOUS
 62
     4
 10
145.0611078037165
 20
126.9084483648134
 30
0.0
  0
VERTEX
  5
574
  8
0
  6
CONTINUOUS
 62
     4
 10
145.1525986776864
 20
126.8499774545132
 30
0.0
  0
VERTEX
  5
575
  8
0
  6
CONTINUOUS
 62
     4
 10
145.2467928575251
 20
126.7949279147187
 30
0.0
  0
VERTEX
  5
576
  8
0
  6
CONTINUOUS
 62
     4
 10
145.3435250946337
 20
126.7433963210286
 30
0.0
  0
VERTEX
  5
577
  8
0
  6
CONTINUOUS
 62
     4
 10
145.4426256877985
 20
126.6954730773689
 30
0.0
  0
VERTEX
  5
578
  8
0
  6
CONTINUOUS
 62
     4
 10
145.5439207809044
 20
126.6512422573933
 30
0.0
  0
VERTEX
  5
579
  8
0
  6
CONTINUOUS
 62
     4
 10
145.6472326679379
 20
126.6107814569899
 30
0.0
  0
VERTEX
  5
57A
  8
0
  6
CONTINUOUS
 62
     4
 10
145.7523801047434
 20
126.5741616581511
 30
0.0
  0
VERTEX
  5
57B
  8
0
  6
CONTINUOUS
 62
     4
 10
145.8591786269875
 20
126.5414471044477
 30
0.0
  0
VERTEX
  5
57C
  8
0
  6
CONTINUOUS
 62
     4
 10
145.9674408737718
 20
126.5126951883233
 30
0.0
  0
VERTEX
  5
57D
  8
0
  6
CONTINUOUS
 62
     4
 10
146.0769769163276
 20
126.4879563504089
 30
0.0
  0
VERTEX
  5
57E
  8
0
  6
CONTINUOUS
 62
     4
 10
146.1875945912157
 20
126.4672739910323
 30
0.0
  0
VERTEX
  5
57F
  8
0
  6
CONTINUOUS
 62
     4
 10
146.2990998374463
 20
126.4506843940798
 30
0.0
  0
VERTEX
  5
580
  8
0
  6
CONTINUOUS
 62
     4
 10
146.4112970369277
 20
126.4382166633418
 30
0.0
  0
VERTEX
  5
581
  8
0
  6
CONTINUOUS
 62
     4
 10
146.5239893576471
 20
126.4298926714544
 30
0.0
  0
VERTEX
  5
582
  8
0
  6
CONTINUOUS
 62
     4
 10
146.636979098981
 20
126.425727021528
 30
0.0
  0
VERTEX
  5
583
  8
0
  6
CONTINUOUS
 62
     4
 10
146.7500680385287
 20
126.425727021528
 30
0.0
  0
VERTEX
  5
584
  8
0
  6
CONTINUOUS
 62
     4
 10
146.8630577798625
 20
126.4298926714544
 30
0.0
  0
VERTEX
  5
585
  8
0
  6
CONTINUOUS
 62
     4
 10
146.9757501005819
 20
126.4382166633418
 30
0.0
  0
VERTEX
  5
586
  8
0
  6
CONTINUOUS
 62
     4
 10
147.0879473000633
 20
126.4506843940798
 30
0.0
  0
VERTEX
  5
587
  8
0
  6
CONTINUOUS
 62
     4
 10
147.1994525462939
 20
126.4672739910323
 30
0.0
  0
VERTEX
  5
588
  8
0
  6
CONTINUOUS
 62
     4
 10
147.3100702211821
 20
126.4879563504089
 30
0.0
  0
VERTEX
  5
589
  8
0
  6
CONTINUOUS
 62
     4
 10
147.4196062637379
 20
126.5126951883234
 30
0.0
  0
VERTEX
  5
58A
  8
0
  6
CONTINUOUS
 62
     4
 10
147.5278685105222
 20
126.5414471044477
 30
0.0
  0
VERTEX
  5
58B
  8
0
  6
CONTINUOUS
 62
     4
 10
147.6346670327663
 20
126.5741616581511
 30
0.0
  0
VERTEX
  5
58C
  8
0
  6
CONTINUOUS
 62
     4
 10
147.7398144695718
 20
126.6107814569899
 30
0.0
  0
VERTEX
  5
58D
  8
0
  6
CONTINUOUS
 62
     4
 10
147.8431263566052
 20
126.6512422573933
 30
0.0
  0
VERTEX
  5
58E
  8
0
  6
CONTINUOUS
 62
     4
 10
147.9444214497112
 20
126.6954730773689
 30
0.0
  0
VERTEX
  5
58F
  8
0
  6
CONTINUOUS
 62
     4
 10
148.0435220428759
 20
126.7433963210286
 30
0.0
  0
VERTEX
  5
590
  8
0
  6
CONTINUOUS
 62
     4
 10
148.1402542799845
 20
126.7949279147187
 30
0.0
  0
VERTEX
  5
591
  8
0
  6
CONTINUOUS
 62
     4
 10
148.2344484598232
 20
126.8499774545132
 30
0.0
  0
VERTEX
  5
592
  8
0
  6
CONTINUOUS
 62
     4
 10
148.3259393337932
 20
126.9084483648134
 30
0.0
  0
VERTEX
  5
593
  8
0
  6
CONTINUOUS
 62
     4
 10
148.4145663958126
 20
126.9702380677741
 30
0.0
  0
VERTEX
  5
594
  8
0
  6
CONTINUOUS
 62
     4
 10
148.5001741638992
 20
127.0352381632601
 30
0.0
  0
VERTEX
  5
595
  8
0
  6
CONTINUOUS
 62
     4
 10
148.5826124529379
 20
127.1033346190165
 30
0.0
  0
VERTEX
  5
596
  8
0
  6
CONTINUOUS
 62
     4
 10
148.661736638157
 20
127.1744079707208
 30
0.0
  0
VERTEX
  5
597
  8
0
  6
CONTINUOUS
 62
     4
 10
148.737407908849
 20
127.2483335315631
 30
0.0
  0
VERTEX
  5
598
  8
0
  6
CONTINUOUS
 62
     4
 10
148.809493511892
 20
127.3249816109897
 30
0.0
  0
VERTEX
  5
599
  8
0
  6
CONTINUOUS
 62
     4
 10
148.8778669846433
 20
127.404217742224
 30
0.0
  0
VERTEX
  5
59A
  8
0
  6
CONTINUOUS
 62
     4
 10
148.9424083767982
 20
127.4859029181672
 30
0.0
  0
VERTEX
  5
59B
  8
0
  6
CONTINUOUS
 62
     4
 10
149.0030044608236
 20
127.569893835264
 30
0.0
  0
VERTEX
  5
59C
  8
0
  6
CONTINUOUS
 62
     4
 10
149.0595489305975
 20
127.6560431449054
 30
0.0
  0
VERTEX
  5
59D
  8
0
  6
CONTINUOUS
 62
     4
 10
149.1119425879059
 20
127.7441997119286
 30
0.0
  0
VERTEX
  5
59E
  8
0
  6
CONTINUOUS
 62
     4
 10
149.1600935164704
 20
127.8342088797592
 30
0.0
  0
VERTEX
  5
59F
  8
0
  6
CONTINUOUS
 62
     4
 10
149.2039172432005
 20
127.9259127417316
 30
0.0
  0
VERTEX
  5
5A0
  8
0
  6
CONTINUOUS
 62
     4
 10
149.2433368863881
 20
128.0191504181106
 30
0.0
  0
VERTEX
  5
5A1
  8
0
  6
CONTINUOUS
 62
     4
 10
149.2782832905842
 20
128.1137583383295
 30
0.0
  0
VERTEX
  5
5A2
  8
0
  6
CONTINUOUS
 62
     4
 10
149.3086951479209
 20
128.2095705279482
 30
0.0
  0
VERTEX
  5
5A3
  8
0
  6
CONTINUOUS
 62
     4
 10
149.3345191056665
 20
128.3064188998291
 30
0.0
  0
VERTEX
  5
5A4
  8
0
  6
CONTINUOUS
 62
     4
 10
149.3557098598241
 20
128.4041335490184
 30
0.0
  0
VERTEX
  5
5A5
  8
0
  6
CONTINUOUS
 62
     4
 10
149.3722302346101
 20
128.5025430508179
 30
0.0
  0
VERTEX
  5
5A6
  8
0
  6
CONTINUOUS
 62
     4
 10
149.3840512476736
 20
128.6014747615215
 30
0.0
  0
VERTEX
  5
5A7
  8
0
  6
CONTINUOUS
 62
     4
 10
149.3911521609408
 20
128.7007551212916
 30
0.0
  0
SEQEND
  5
511
  8
0
  6
CONTINUOUS
 62
     4
  0
POLYLINE
  5
399
  8
0
  6
CONTINUOUS
 62
     4
 66
     1
 10
0.0
 20
0.0
 30
0.0
 70
     1
  0
VERTEX
  5
5A8
  8
0
  6
CONTINUOUS
 62
     4
 10
1.0
 20
0.0
 30
0.0
  0
VERTEX
  5
5A9
  8
0
  6
CONTINUOUS
 62
     4
 10
0.9807852804032304
 20
0.1950903220161283
 30
0.0
  0
VERTEX
  5
5AA
  8
0
  6
CONTINUOUS
 62
     4
 10
0.9238795325112867
 20
0.3826834323650898
 30
0.0
  0
VERTEX
  5
5AB
  8
0
  6
CONTINUOUS
 62
     4
 10
0.8314696123025452
 20
0.5555702330196022
 30
0.0
  0
VERTEX
  5
5AC
  8
0
  6
CONTINUOUS
 62
     4
 10
0.7071067811865476
 20
0.7071067811865475
 30
0.0
  0
VERTEX
  5
5AD
  8
0
  6
CONTINUOUS
 62
     4
 10
0.5555702330196023
 20
0.8314696123025452
 30
0.0
  0
VERTEX
  5
5AE
  8
0
  6
CONTINUOUS
 62
     4
 10
0.3826834323650898
 20
0.9238795325112867
 30
0.0
  0
VERTEX
  5
5AF
  8
0
  6
CONTINUOUS
 62
     4
 10
0.1950903220161283
 20
0.9807852804032304
 30
0.0
  0
VERTEX
  5
5B0
  8
0
  6
CONTINUOUS
 62
     4
 10
0.0000000000000001
 20
1.0
 30
0.0
  0
VERTEX
  5
5B1
  8
0
  6
CONTINUOUS
 62
     4
 10
-0.1950903220161282
 20
0.9807852804032304
 30
0.0
  0
VERTEX
  5
5B2
  8
0
  6
CONTINUOUS
 62
     4
 10
-0.3826834323650897
 20
0.9238795325112867
 30
0.0
  0
VERTEX
  5
5B3
  8
0
  6
CONTINUOUS
 62
     4
 10
-0.555570233019602
 20
0.8314696123025455
 30
0.0
  0
VERTEX
  5
5B4
  8
0
  6
CONTINUOUS
 62
     4
 10
-0.7071067811865475
 20
0.7071067811865476
 30
0.0
  0
VERTEX
  5
5B5
  8
0
  6
CONTINUOUS
 62
     4
 10
-0.8314696123025454
 20
0.5555702330196022
 30
0.0
  0
VERTEX
  5
5B6
  8
0
  6
CONTINUOUS
 62
     4
 10
-0.9238795325112869
 20
0.3826834323650895
 30
0.0
  0
VERTEX
  5
5B7
  8
0
  6
CONTINUOUS
 62
     4
 10
-0.9807852804032305
 20
0.1950903220161277
 30
0.0
  0
VERTEX
  5
5B8
  8
0
  6
CONTINUOUS
 62
     4
 10
-1.0
 20
-0.0000000000000008
 30
0.0
  0
VERTEX
  5
5B9
  8
0
  6
CONTINUOUS
 62
     4
 10
-0.9807852804032302
 20
-0.1950903220161292
 30
0.0
  0
VERTEX
  5
5BA
  8
0
  6
CONTINUOUS
 62
     4
 10
-0.9238795325112863
 20
-0.3826834323650909
 30
0.0
  0
VERTEX
  5
5BB
  8
0
  6
CONTINUOUS
 62
     4
 10
-0.8314696123025445
 20
-0.5555702330196034
 30
0.0
  0
VERTEX
  5
5BC
  8
0
  6
CONTINUOUS
 62
     4
 10
-0.7071067811865464
 20
-0.7071067811865487
 30
0.0
  0
VERTEX
  5
5BD
  8
0
  6
CONTINUOUS
 62
     4
 10
-0.5555702330196007
 20
-0.8314696123025462
 30
0.0
  0
VERTEX
  5
5BE
  8
0
  6
CONTINUOUS
 62
     4
 10
-0.3826834323650879
 20
-0.9238795325112875
 30
0.0
  0
VERTEX
  5
5BF
  8
0
  6
CONTINUOUS
 62
     4
 10
-0.1950903220161261
 20
-0.9807852804032309
 30
0.0
  0
VERTEX
  5
5C0
  8
0
  6
CONTINUOUS
 62
     4
 10
0.0000000000000025
 20
-1.0
 30
0.0
  0
VERTEX
  5
5C1
  8
0
  6
CONTINUOUS
 62
     4
 10
0.1950903220161309
 20
-0.9807852804032299
 30
0.0
  0
VERTEX
  5
5C2
  8
0
  6
CONTINUOUS
 62
     4
 10
0.3826834323650925
 20
-0.9238795325112856
 30
0.0
  0
VERTEX
  5
5C3
  8
0
  6
CONTINUOUS
 62
     4
 10
0.5555702330196048
 20
-0.8314696123025435
 30
0.0
  0
VERTEX
  5
5C4
  8
0
  6
CONTINUOUS
 62
     4
 10
0.7071067811865499
 20
-0.7071067811865451
 30
0.0
  0
VERTEX
  5
5C5
  8
0
  6
CONTINUOUS
 62
     4
 10
0.8314696123025472
 20
-0.5555702330195993
 30
0.0
  0
VERTEX
  5
5C6
  8
0
  6
CONTINUOUS
 62
     4
 10
0.9238795325112882
 20
-0.3826834323650863
 30
0.0
  0
VERTEX
  5
5C7
  8
0
  6
CONTINUOUS
 62
     4
 10
0.9807852804032312
 20
-0.1950903220161244
 30
0.0
  0
SEQEND
  5
5C8
  8
0
  6
CONTINUOUS
 62
     4
  0
POLYLINE
  5
39A
  8
0
  6
CONTINUOUS
 62
     4
 66
     1
 10
0.0
 20
0.0
 30
0.0
 70
     1
  0
VERTEX
  5
5CA
  8
0
  6
CONTINUOUS
 62
     4
 10
149.393520516997
 20
-52.44978241196408
 30
0.0
  0
VERTEX
  5
5CB
  8
0
  6
CONTINUOUS
 62
     4
 10
149.3911521609408
 20
-52.3503278142287
 30
0.0
  0
VERTEX
  5
5CC
  8
0
  6
CONTINUOUS
 62
     4
 10
149.3840512476736
 20
-52.25104769365265
 30
0.0
  0
VERTEX
  5
5CD
  8
0
  6
CONTINUOUS
 62
     4
 10
149.3722302346101
 20
-52.15211622130303
 30
0.0
  0
VERTEX
  5
5CE
  8
0
  6
CONTINUOUS
 62
     4
 10
149.3557098598241
 20
-52.05370695659948
 30
0.0
  0
VERTEX
  5
5CF
  8
0
  6
CONTINUOUS
 62
     4
 10
149.3345191056665
 20
-51.95599254283198
 30
0.0
  0
VERTEX
  5
5D0
  8
0
  6
CONTINUOUS
 62
     4
 10
149.3086951479209
 20
-51.85914440428586
 30
0.0
  0
VERTEX
  5
5D1
  8
0
  6
CONTINUOUS
 62
     4
 10
149.2782832905841
 20
-51.76333244550536
 30
0.0
  0
VERTEX
  5
5D2
  8
0
  6
CONTINUOUS
 62
     4
 10
149.2433368863881
 20
-51.66872475322329
 30
0.0
  0
VERTEX
  5
5D3
  8
0
  6
CONTINUOUS
 62
     4
 10
149.2039172432004
 20
-51.57548730147983
 30
0.0
  0
VERTEX
  5
5D4
  8
0
  6
CONTINUOUS
 62
     4
 10
149.1600935164703
 20
-51.48378366044764
 30
0.0
  0
VERTEX
  5
5D5
  8
0
  6
CONTINUOUS
 62
     4
 10
149.1119425879059
 20
-51.39377470947418
 30
0.0
  0
VERTEX
  5
5D6
  8
0
  6
CONTINUOUS
 62
     4
 10
149.0595489305975
 20
-51.30561835484472
 30
0.0
  0
VERTEX
  5
5D7
  8
0
  6
CONTINUOUS
 62
     4
 10
149.0030044608236
 20
-51.219469252761
 30
0.0
  0
VERTEX
  5
5D8
  8
0
  6
CONTINUOUS
 62
     4
 10
148.9424083767982
 20
-51.13547853802175
 30
0.0
  0
VERTEX
  5
5D9
  8
0
  6
CONTINUOUS
 62
     4
 10
148.8778669846433
 20
-51.05379355888086
 30
0.0
  0
VERTEX
  5
5DA
  8
0
  6
CONTINUOUS
 62
     4
 10
148.809493511892
 20
-50.97455761854846
 30
0.0
  0
VERTEX
  5
5DB
  8
0
  6
CONTINUOUS
 62
     4
 10
148.737407908849
 20
-50.89790972378847
 30
0.0
  0
VERTEX
  5
5DC
  8
0
  6
CONTINUOUS
 62
     4
 10
148.6617366381569
 20
-50.82398434105343
 30
0.0
  0
VERTEX
  5
5DD
  8
0
  6
CONTINUOUS
 62
     4
 10
148.5826124529378
 20
-50.75291116058466
 30
0.0
  0
VERTEX
  5
5DE
  8
0
  6
CONTINUOUS
 62
     4
 10
148.5001741638992
 20
-50.68481486889154
 30
0.0
  0
VERTEX
  5
5DF
  8
0
  6
CONTINUOUS
 62
     4
 10
148.4145663958126
 20
-50.61981493000896
 30
0.0
  0
VERTEX
  5
5E0
  8
0
  6
CONTINUOUS
 62
     4
 10
148.3259393337931
 20
-50.55802537591686
 30
0.0
  0
VERTEX
  5
5E1
  8
0
  6
CONTINUOUS
 62
     4
 10
148.2344484598232
 20
-50.49955460648936
 30
0.0
  0
VERTEX
  5
5E2
  8
0
  6
CONTINUOUS
 62
     4
 10
148.1402542799845
 20
-50.44450519932451
 30
0.0
  0
VERTEX
  5
5E3
  8
0
  6
CONTINUOUS
 62
     4
 10
148.0435220428759
 20
-50.39297372978841
 30
0.0
  0
VERTEX
  5
5E4
  8
0
  6
CONTINUOUS
 62
     4
 10
147.9444214497111
 20
-50.34505060158913
 30
0.0
  0
VERTEX
  5
5E5
  8
0
  6
CONTINUOUS
 62
     4
 10
147.8431263566052
 20
-50.30081988817793
 30
0.0
  0
VERTEX
  5
5E6
  8
0
  6
CONTINUOUS
 62
     4
 10
147.7398144695718
 20
-50.26035918525582
 30
0.0
  0
VERTEX
  5
5E7
  8
0
  6
CONTINUOUS
 62
     4
 10
147.6346670327663
 20
-50.22373947464436
 30
0.0
  0
VERTEX
  5
5E8
  8
0
  6
CONTINUOUS
 62
     4
 10
147.5278685105222
 20
-50.19102499975944
 30
0.0
  0
VERTEX
  5
5E9
  8
0
  6
CONTINUOUS
 62
     4
 10
147.4196062637379
 20
-50.16227315290644
 30
0.0
  0
VERTEX
  5
5EA
  8
0
  6
CONTINUOUS
 62
     4
 10
147.310070221182
 20
-50.13753437459472
 30
0.0
  0
VERTEX
  5
5EB
  8
0
  6
CONTINUOUS
 62
     4
 10
147.1994525462939
 20
-50.11685206504769
 30
0.0
  0
VERTEX
  5
5EC
  8
0
  6
CONTINUOUS
 62
     4
 10
147.0879473000633
 20
-50.10026250806421
 30
0.0
  0
VERTEX
  5
5ED
  8
0
  6
CONTINUOUS
 62
     4
 10
146.9757501005819
 20
-50.08779480736441
 30
0.0
  0
VERTEX
  5
5EE
  8
0
  6
CONTINUOUS
 62
     4
 10
146.8630577798625
 20
-50.07947083553185
 30
0.0
  0
VERTEX
  5
5EF
  8
0
  6
CONTINUOUS
 62
     4
 10
146.7500680385287
 20
-50.07530519564164
 30
0.0
  0
VERTEX
  5
5F0
  8
0
  6
CONTINUOUS
 62
     4
 10
146.6369790989809
 20
-50.07530519564164
 30
0.0
  0
VERTEX
  5
5F1
  8
0
  6
CONTINUOUS
 62
     4
 10
146.5239893576471
 20
-50.07947083553185
 30
0.0
  0
VERTEX
  5
5F2
  8
0
  6
CONTINUOUS
 62
     4
 10
146.4112970369277
 20
-50.08779480736441
 30
0.0
  0
VERTEX
  5
5F3
  8
0
  6
CONTINUOUS
 62
     4
 10
146.2990998374463
 20
-50.10026250806421
 30
0.0
  0
VERTEX
  5
5F4
  8
0
  6
CONTINUOUS
 62
     4
 10
146.1875945912157
 20
-50.11685206504769
 30
0.0
  0
VERTEX
  5
5F5
  8
0
  6
CONTINUOUS
 62
     4
 10
146.0769769163276
 20
-50.13753437459472
 30
0.0
  0
VERTEX
  5
5F6
  8
0
  6
CONTINUOUS
 62
     4
 10
145.9674408737718
 20
-50.16227315290644
 30
0.0
  0
VERTEX
  5
5F7
  8
0
  6
CONTINUOUS
 62
     4
 10
145.8591786269875
 20
-50.19102499975944
 30
0.0
  0
VERTEX
  5
5F8
  8
0
  6
CONTINUOUS
 62
     4
 10
145.7523801047434
 20
-50.22373947464436
 30
0.0
  0
VERTEX
  5
5F9
  8
0
  6
CONTINUOUS
 62
     4
 10
145.6472326679379
 20
-50.26035918525582
 30
0.0
  0
VERTEX
  5
5FA
  8
0
  6
CONTINUOUS
 62
     4
 10
145.5439207809044
 20
-50.30081988817793
 30
0.0
  0
VERTEX
  5
5FB
  8
0
  6
CONTINUOUS
 62
     4
 10
145.4426256877985
 20
-50.34505060158913
 30
0.0
  0
VERTEX
  5
5FC
  8
0
  6
CONTINUOUS
 62
     4
 10
145.3435250946337
 20
-50.39297372978841
 30
0.0
  0
VERTEX
  5
5FD
  8
0
  6
CONTINUOUS
 62
     4
 10
145.2467928575251
 20
-50.44450519932451
 30
0.0
  0
VERTEX
  5
5FE
  8
0
  6
CONTINUOUS
 62
     4
 10
145.1525986776864
 20
-50.49955460648936
 30
0.0
  0
VERTEX
  5
5FF
  8
0
  6
CONTINUOUS
 62
     4
 10
145.0611078037165
 20
-50.55802537591686
 30
0.0
  0
VERTEX
  5
600
  8
0
  6
CONTINUOUS
 62
     4
 10
144.972480741697
 20
-50.61981493000896
 30
0.0
  0
VERTEX
  5
601
  8
0
  6
CONTINUOUS
 62
     4
 10
144.8868729736105
 20
-50.68481486889154
 30
0.0
  0
VERTEX
  5
602
  8
0
  6
CONTINUOUS
 62
     4
 10
144.8044346845718
 20
-50.75291116058466
 30
0.0
  0
VERTEX
  5
603
  8
0
  6
CONTINUOUS
 62
     4
 10
144.7253104993527
 20
-50.82398434105343
 30
0.0
  0
VERTEX
  5
604
  8
0
  6
CONTINUOUS
 62
     4
 10
144.6496392286607
 20
-50.89790972378848
 30
0.0
  0
VERTEX
  5
605
  8
0
  6
CONTINUOUS
 62
     4
 10
144.5775536256177
 20
-50.97455761854847
 30
0.0
  0
VERTEX
  5
606
  8
0
  6
CONTINUOUS
 62
     4
 10
144.5091801528664
 20
-51.05379355888086
 30
0.0
  0
VERTEX
  5
607
  8
0
  6
CONTINUOUS
 62
     4
 10
144.4446387607115
 20
-51.13547853802176
 30
0.0
  0
VERTEX
  5
608
  8
0
  6
CONTINUOUS
 62
     4
 10
144.384042676686
 20
-51.21946925276101
 30
0.0
  0
VERTEX
  5
609
  8
0
  6
CONTINUOUS
 62
     4
 10
144.3274982069121
 20
-51.30561835484472
 30
0.0
  0
VERTEX
  5
60A
  8
0
  6
CONTINUOUS
 62
     4
 10
144.2751045496038
 20
-51.39377470947418
 30
0.0
  0
VERTEX
  5
60B
  8
0
  6
CONTINUOUS
 62
     4
 10
144.2269536210393
 20
-51.48378366044764
 30
0.0
  0
VERTEX
  5
60C
  8
0
  6
CONTINUOUS
 62
     4
 10
144.1831298943092
 20
-51.57548730147983
 30
0.0
  0
VERTEX
  5
60D
  8
0
  6
CONTINUOUS
 62
     4
 10
144.1437102511216
 20
-51.66872475322329
 30
0.0
  0
VERTEX
  5
60E
  8
0
  6
CONTINUOUS
 62
     4
 10
144.1087638469255
 20
-51.76333244550537
 30
0.0
  0
VERTEX
  5
60F
  8
0
  6
CONTINUOUS
 62
     4
 10
144.0783519895887
 20
-51.85914440428587
 30
0.0
  0
VERTEX
  5
610
  8
0
  6
CONTINUOUS
 62
     4
 10
144.0525280318431
 20
-51.95599254283199
 30
0.0
  0
VERTEX
  5
611
  8
0
  6
CONTINUOUS
 62
     4
 10
144.0313372776856
 20
-52.05370695659948
 30
0.0
  0
VERTEX
  5
612
  8
0
  6
CONTINUOUS
 62
     4
 10
144.0148169028995
 20
-52.15211622130303
 30
0.0
  0
VERTEX
  5
613
  8
0
  6
CONTINUOUS
 62
     4
 10
144.002995889836
 20
-52.25104769365265
 30
0.0
  0
VERTEX
  5
614
  8
0
  6
CONTINUOUS
 62
     4
 10
143.9958949765688
 20
-52.35032781422871
 30
0.0
  0
VERTEX
  5
615
  8
0
  6
CONTINUOUS
 62
     4
 10
143.9935266205126
 20
-52.44978241196409
 30
0.0
  0
VERTEX
  5
616
  8
0
  6
CONTINUOUS
 62
     4
 10
143.9958949765688
 20
-52.54923700969946
 30
0.0
  0
VERTEX
  5
617
  8
0
  6
CONTINUOUS
 62
     4
 10
144.002995889836
 20
-52.64851713027552
 30
0.0
  0
VERTEX
  5
618
  8
0
  6
CONTINUOUS
 62
     4
 10
144.0148169028995
 20
-52.74744860262513
 30
0.0
  0
VERTEX
  5
619
  8
0
  6
CONTINUOUS
 62
     4
 10
144.0313372776856
 20
-52.84585786732869
 30
0.0
  0
VERTEX
  5
61A
  8
0
  6
CONTINUOUS
 62
     4
 10
144.0525280318431
 20
-52.94357228109619
 30
0.0
  0
VERTEX
  5
61B
  8
0
  6
CONTINUOUS
 62
     4
 10
144.0783519895887
 20
-53.0404204196423
 30
0.0
  0
VERTEX
  5
61C
  8
0
  6
CONTINUOUS
 62
     4
 10
144.1087638469255
 20
-53.1362323784228
 30
0.0
  0
VERTEX
  5
61D
  8
0
  6
CONTINUOUS
 62
     4
 10
144.1437102511216
 20
-53.23084007070487
 30
0.0
  0
VERTEX
  5
61E
  8
0
  6
CONTINUOUS
 62
     4
 10
144.1831298943092
 20
-53.32407752244833
 30
0.0
  0
VERTEX
  5
61F
  8
0
  6
CONTINUOUS
 62
     4
 10
144.2269536210393
 20
-53.41578116348053
 30
0.0
  0
VERTEX
  5
620
  8
0
  6
CONTINUOUS
 62
     4
 10
144.2751045496038
 20
-53.50579011445399
 30
0.0
  0
VERTEX
  5
621
  8
0
  6
CONTINUOUS
 62
     4
 10
144.3274982069121
 20
-53.59394646908345
 30
0.0
  0
VERTEX
  5
622
  8
0
  6
CONTINUOUS
 62
     4
 10
144.384042676686
 20
-53.68009557116717
 30
0.0
  0
VERTEX
  5
623
  8
0
  6
CONTINUOUS
 62
     4
 10
144.4446387607115
 20
-53.76408628590642
 30
0.0
  0
VERTEX
  5
624
  8
0
  6
CONTINUOUS
 62
     4
 10
144.5091801528664
 20
-53.84577126504731
 30
0.0
  0
VERTEX
  5
625
  8
0
  6
CONTINUOUS
 62
     4
 10
144.5775536256177
 20
-53.9250072053797
 30
0.0
  0
VERTEX
  5
626
  8
0
  6
CONTINUOUS
 62
     4
 10
144.6496392286607
 20
-54.00165510013969
 30
0.0
  0
VERTEX
  5
627
  8
0
  6
CONTINUOUS
 62
     4
 10
144.7253104993527
 20
-54.07558048287473
 30
0.0
  0
VERTEX
  5
628
  8
0
  6
CONTINUOUS
 62
     4
 10
144.8044346845718
 20
-54.14665366334351
 30
0.0
  0
VERTEX
  5
629
  8
0
  6
CONTINUOUS
 62
     4
 10
144.8868729736105
 20
-54.21474995503663
 30
0.0
  0
VERTEX
  5
62A
  8
0
  6
CONTINUOUS
 62
     4
 10
144.972480741697
 20
-54.2797498939192
 30
0.0
  0
VERTEX
  5
62B
  8
0
  6
CONTINUOUS
 62
     4
 10
145.0611078037165
 20
-54.3415394480113
 30
0.0
  0
VERTEX
  5
62C
  8
0
  6
CONTINUOUS
 62
     4
 10
145.1525986776865
 20
-54.40001021743881
 30
0.0
  0
VERTEX
  5
62D
  8
0
  6
CONTINUOUS
 62
     4
 10
145.2467928575252
 20
-54.45505962460366
 30
0.0
  0
VERTEX
  5
62E
  8
0
  6
CONTINUOUS
 62
     4
 10
145.3435250946337
 20
-54.50659109413976
 30
0.0
  0
VERTEX
  5
62F
  8
0
  6
CONTINUOUS
 62
     4
 10
145.4426256877985
 20
-54.55451422233903
 30
0.0
  0
VERTEX
  5
630
  8
0
  6
CONTINUOUS
 62
     4
 10
145.5439207809044
 20
-54.59874493575024
 30
0.0
  0
VERTEX
  5
631
  8
0
  6
CONTINUOUS
 62
     4
 10
145.6472326679379
 20
-54.63920563867235
 30
0.0
  0
VERTEX
  5
632
  8
0
  6
CONTINUOUS
 62
     4
 10
145.7523801047434
 20
-54.67582534928381
 30
0.0
  0
VERTEX
  5
633
  8
0
  6
CONTINUOUS
 62
     4
 10
145.8591786269875
 20
-54.70853982416872
 30
0.0
  0
VERTEX
  5
634
  8
0
  6
CONTINUOUS
 62
     4
 10
145.9674408737718
 20
-54.73729167102172
 30
0.0
  0
VERTEX
  5
635
  8
0
  6
CONTINUOUS
 62
     4
 10
146.0769769163276
 20
-54.76203044933345
 30
0.0
  0
VERTEX
  5
636
  8
0
  6
CONTINUOUS
 62
     4
 10
146.1875945912158
 20
-54.78271275888047
 30
0.0
  0
VERTEX
  5
637
  8
0
  6
CONTINUOUS
 62
     4
 10
146.2990998374463
 20
-54.79930231586395
 30
0.0
  0
VERTEX
  5
638
  8
0
  6
CONTINUOUS
 62
     4
 10
146.4112970369277
 20
-54.81177001656376
 30
0.0
  0
VERTEX
  5
639
  8
0
  6
CONTINUOUS
 62
     4
 10
146.5239893576471
 20
-54.82009398839631
 30
0.0
  0
VERTEX
  5
63A
  8
0
  6
CONTINUOUS
 62
     4
 10
146.636979098981
 20
-54.82425962828652
 30
0.0
  0
VERTEX
  5
63B
  8
0
  6
CONTINUOUS
 62
     4
 10
146.7500680385287
 20
-54.82425962828652
 30
0.0
  0
VERTEX
  5
63C
  8
0
  6
CONTINUOUS
 62
     4
 10
146.8630577798625
 20
-54.82009398839631
 30
0.0
  0
VERTEX
  5
63D
  8
0
  6
CONTINUOUS
 62
     4
 10
146.9757501005819
 20
-54.81177001656375
 30
0.0
  0
VERTEX
  5
63E
  8
0
  6
CONTINUOUS
 62
     4
 10
147.0879473000633
 20
-54.79930231586394
 30
0.0
  0
VERTEX
  5
63F
  8
0
  6
CONTINUOUS
 62
     4
 10
147.1994525462939
 20
-54.78271275888047
 30
0.0
  0
VERTEX
  5
640
  8
0
  6
CONTINUOUS
 62
     4
 10
147.310070221182
 20
-54.76203044933344
 30
0.0
  0
VERTEX
  5
641
  8
0
  6
CONTINUOUS
 62
     4
 10
147.4196062637379
 20
-54.73729167102171
 30
0.0
  0
VERTEX
  5
642
  8
0
  6
CONTINUOUS
 62
     4
 10
147.5278685105222
 20
-54.70853982416872
 30
0.0
  0
VERTEX
  5
643
  8
0
  6
CONTINUOUS
 62
     4
 10
147.6346670327663
 20
-54.6758253492838
 30
0.0
  0
VERTEX
  5
644
  8
0
  6
CONTINUOUS
 62
     4
 10
147.7398144695718
 20
-54.63920563867234
 30
0.0
  0
VERTEX
  5
645
  8
0
  6
CONTINUOUS
 62
     4
 10
147.8431263566052
 20
-54.59874493575023
 30
0.0
  0
VERTEX
  5
646
  8
0
  6
CONTINUOUS
 62
     4
 10
147.9444214497111
 20
-54.55451422233902
 30
0.0
  0
VERTEX
  5
647
  8
0
  6
CONTINUOUS
 62
     4
 10
148.0435220428759
 20
-54.50659109413974
 30
0.0
  0
VERTEX
  5
648
  8
0
  6
CONTINUOUS
 62
     4
 10
148.1402542799845
 20
-54.45505962460364
 30
0.0
  0
VERTEX
  5
649
  8
0
  6
CONTINUOUS
 62
     4
 10
148.2344484598232
 20
-54.4000102174388
 30
0.0
  0
VERTEX
  5
64A
  8
0
  6
CONTINUOUS
 62
     4
 10
148.3259393337932
 20
-54.34153944801129
 30
0.0
  0
VERTEX
  5
64B
  8
0
  6
CONTINUOUS
 62
     4
 10
148.4145663958126
 20
-54.27974989391919
 30
0.0
  0
VERTEX
  5
64C
  8
0
  6
CONTINUOUS
 62
     4
 10
148.5001741638992
 20
-54.21474995503662
 30
0.0
  0
VERTEX
  5
64D
  8
0
  6
CONTINUOUS
 62
     4
 10
148.5826124529378
 20
-54.14665366334349
 30
0.0
  0
VERTEX
  5
64E
  8
0
  6
CONTINUOUS
 62
     4
 10
148.6617366381569
 20
-54.07558048287472
 30
0.0
  0
VERTEX
  5
64F
  8
0
  6
CONTINUOUS
 62
     4
 10
148.737407908849
 20
-54.00165510013967
 30
0.0
  0
VERTEX
  5
650
  8
0
  6
CONTINUOUS
 62
     4
 10
148.809493511892
 20
-53.92500720537969
 30
0.0
  0
VERTEX
  5
651
  8
0
  6
CONTINUOUS
 62
     4
 10
148.8778669846433
 20
-53.8457712650473
 30
0.0
  0
VERTEX
  5
652
  8
0
  6
CONTINUOUS
 62
     4
 10
148.9424083767982
 20
-53.76408628590639
 30
0.0
  0
VERTEX
  5
653
  8
0
  6
CONTINUOUS
 62
     4
 10
149.0030044608236
 20
-53.68009557116714
 30
0.0
  0
VERTEX
  5
654
  8
0
  6
CONTINUOUS
 62
     4
 10
149.0595489305975
 20
-53.59394646908343
 30
0.0
  0
VERTEX
  5
655
  8
0
  6
CONTINUOUS
 62
     4
 10
149.1119425879059
 20
-53.50579011445397
 30
0.0
  0
VERTEX
  5
656
  8
0
  6
CONTINUOUS
 62
     4
 10
149.1600935164703
 20
-53.41578116348051
 30
0.0
  0
VERTEX
  5
657
  8
0
  6
CONTINUOUS
 62
     4
 10
149.2039172432004
 20
-53.32407752244831
 30
0.0
  0
VERTEX
  5
658
  8
0
  6
CONTINUOUS
 62
     4
 10
149.2433368863881
 20
-53.23084007070485
 30
0.0
  0
VERTEX
  5
659
  8
0
  6
CONTINUOUS
 62
     4
 10
149.2782832905841
 20
-53.13623237842278
 30
0.0
  0
VERTEX
  5
65A
  8
0
  6
CONTINUOUS
 62
     4
 10
149.3086951479209
 20
-53.04042041964228
 30
0.0
  0
VERTEX
  5
65B
  8
0
  6
CONTINUOUS
 62
     4
 10
149.3345191056665
 20
-52.94357228109617
 30
0.0
  0
VERTEX
  5
65C
  8
0
  6
CONTINUOUS
 62
     4
 10
149.3557098598241
 20
-52.84585786732867
 30
0.0
  0
VERTEX
  5
65D
  8
0
  6
CONTINUOUS
 62
     4
 10
149.3722302346101
 20
-52.74744860262512
 30
0.0
  0
VERTEX
  5
65E
  8
0
  6
CONTINUOUS
 62
     4
 10
149.3840512476736
 20
-52.64851713027549
 30
0.0
  0
VERTEX
  5
65F
  8
0
  6
CONTINUOUS
 62
     4
 10
149.3911521609408
 20
-52.54923700969945
 30
0.0
  0
SEQEND
  5
5C9
  8
0
  6
CONTINUOUS
 62
     4
  0
CIRCLE
  5
39B
  8
0
  6
DIVIDE
 62
     9
 10
84.19352356875481
 20
3.175213773338655
 30
0.0
 40
8.0
  0
CIRCLE
  5
39C
  8
0
  6
DIVIDE
 62
     9
 10
84.19352356875481
 20
73.17521377333866
 30
0.0
 40
8.0
  0
POLYLINE
  5
39D
  8
0
  6
CONTINUOUS
 62
     4
 66
     1
 10
0.0
 20
0.0
 30
0.0
 70
     1
  0
VERTEX
  5
660
  8
0
  6
CONTINUOUS
 62
     4
 10
1.0
 20
0.0
 30
0.0
  0
VERTEX
  5
661
  8
0
  6
CONTINUOUS
 62
     4
 10
0.9807852804032304
 20
0.1950903220161283
 30
0.0
  0
VERTEX
  5
662
  8
0
  6
CONTINUOUS
 62
     4
 10
0.9238795325112867
 20
0.3826834323650898
 30
0.0
  0
VERTEX
  5
663
  8
0
  6
CONTINUOUS
 62
     4
 10
0.8314696123025452
 20
0.5555702330196022
 30
0.0
  0
VERTEX
  5
664
  8
0
  6
CONTINUOUS
 62
     4
 10
0.7071067811865476
 20
0.7071067811865475
 30
0.0
  0
VERTEX
  5
665
  8
0
  6
CONTINUOUS
 62
     4
 10
0.5555702330196023
 20
0.8314696123025452
 30
0.0
  0
VERTEX
  5
666
  8
0
  6
CONTINUOUS
 62
     4
 10
0.3826834323650898
 20
0.9238795325112867
 30
0.0
  0
VERTEX
  5
667
  8
0
  6
CONTINUOUS
 62
     4
 10
0.1950903220161283
 20
0.9807852804032304
 30
0.0
  0
VERTEX
  5
668
  8
0
  6
CONTINUOUS
 62
     4
 10
0.0000000000000001
 20
1.0
 30
0.0
  0
VERTEX
  5
669
  8
0
  6
CONTINUOUS
 62
     4
 10
-0.1950903220161282
 20
0.9807852804032304
 30
0.0
  0
VERTEX
  5
66A
  8
0
  6
CONTINUOUS
 62
     4
 10
-0.3826834323650897
 20
0.9238795325112867
 30
0.0
  0
VERTEX
  5
66B
  8
0
  6
CONTINUOUS
 62
     4
 10
-0.555570233019602
 20
0.8314696123025455
 30
0.0
  0
VERTEX
  5
66C
  8
0
  6
CONTINUOUS
 62
     4
 10
-0.7071067811865475
 20
0.7071067811865476
 30
0.0
  0
VERTEX
  5
66D
  8
0
  6
CONTINUOUS
 62
     4
 10
-0.8314696123025454
 20
0.5555702330196022
 30
0.0
  0
VERTEX
  5
66E
  8
0
  6
CONTINUOUS
 62
     4
 10
-0.9238795325112869
 20
0.3826834323650895
 30
0.0
  0
VERTEX
  5
66F
  8
0
  6
CONTINUOUS
 62
     4
 10
-0.9807852804032305
 20
0.1950903220161277
 30
0.0
  0
VERTEX
  5
670
  8
0
  6
CONTINUOUS
 62
     4
 10
-1.0
 20
-0.0000000000000008
 30
0.0
  0
VERTEX
  5
671
  8
0
  6
CONTINUOUS
 62
     4
 10
-0.9807852804032302
 20
-0.1950903220161292
 30
0.0
  0
VERTEX
  5
672
  8
0
  6
CONTINUOUS
 62
     4
 10
-0.9238795325112863
 20
-0.3826834323650909
 30
0.0
  0
VERTEX
  5
673
  8
0
  6
CONTINUOUS
 62
     4
 10
-0.8314696123025445
 20
-0.5555702330196034
 30
0.0
  0
VERTEX
  5
674
  8
0
  6
CONTINUOUS
 62
     4
 10
-0.7071067811865464
 20
-0.7071067811865487
 30
0.0
  0
VERTEX
  5
675
  8
0
  6
CONTINUOUS
 62
     4
 10
-0.5555702330196007
 20
-0.8314696123025462
 30
0.0
  0
VERTEX
  5
676
  8
0
  6
CONTINUOUS
 62
     4
 10
-0.3826834323650879
 20
-0.9238795325112875
 30
0.0
  0
VERTEX
  5
677
  8
0
  6
CONTINUOUS
 62
     4
 10
-0.1950903220161261
 20
-0.9807852804032309
 30
0.0
  0
VERTEX
  5
678
  8
0
  6
CONTINUOUS
 62
     4
 10
0.0000000000000025
 20
-1.0
 30
0.0
  0
VERTEX
  5
679
  8
0
  6
CONTINUOUS
 62
     4
 10
0.1950903220161309
 20
-0.9807852804032299
 30
0.0
  0
VERTEX
  5
67A
  8
0
  6
CONTINUOUS
 62
     4
 10
0.3826834323650925
 20
-0.9238795325112856
 30
0.0
  0
VERTEX
  5
67B
  8
0
  6
CONTINUOUS
 62
     4
 10
0.5555702330196048
 20
-0.8314696123025435
 30
0.0
  0
VERTEX
  5
67C
  8
0
  6
CONTINUOUS
 62
     4
 10
0.7071067811865499
 20
-0.7071067811865451
 30
0.0
  0
VERTEX
  5
67D
  8
0
  6
CONTINUOUS
 62
     4
 10
0.8314696123025472
 20
-0.5555702330195993
 30
0.0
  0
VERTEX
  5
67E
  8
0
  6
CONTINUOUS
 62
     4
 10
0.9238795325112882
 20
-0.3826834323650863
 30
0.0
  0
VERTEX
  5
67F
  8
0
  6
CONTINUOUS
 62
     4
 10
0.9807852804032312
 20
-0.1950903220161244
 30
0.0
  0
SEQEND
  5
680
  8
0
  6
CONTINUOUS
 62
     4
  0
POLYLINE
  5
39E
  8
0
  6
CONTINUOUS
 62
     4
 66
     1
 10
0.0
 20
0.0
 30
0.0
 70
     1
  0
VERTEX
  5
682
  8
0
  6
CONTINUOUS
 62
     4
 10
166.393520516997
 20
11.67522140273319
 30
0.0
  0
VERTEX
  5
683
  8
0
  6
CONTINUOUS
 62
     4
 10
166.3910205774249
 20
11.77991053705619
 30
0.0
  0
VERTEX
  5
684
  8
0
  6
CONTINUOUS
 62
     4
 10
166.3835251444522
 20
11.88441601106397
 30
0.0
  0
VERTEX
  5
685
  8
0
  6
CONTINUOUS
 62
     4
 10
166.3710473676152
 20
11.98855448664395
 30
0.0
  0
VERTEX
  5
686
  8
0
  6
CONTINUOUS
 62
     4
 10
166.3536091371745
 20
12.09214326952344
 30
0.0
  0
VERTEX
  5
687
  8
0
  6
CONTINUOUS
 62
     4
 10
166.3312410457119
 20
12.19500062977759
 30
0.0
  0
VERTEX
  5
688
  8
0
  6
CONTINUOUS
 62
     4
 10
166.3039823344604
 20
12.29694612064532
 30
0.0
  0
VERTEX
  5
689
  8
0
  6
CONTINUOUS
 62
     4
 10
166.2718808244623
 20
12.39780089509437
 30
0.0
  0
VERTEX
  5
68A
  8
0
  6
CONTINUOUS
 62
     4
 10
166.2349928326741
 20
12.49738801957964
 30
0.0
  0
VERTEX
  5
68B
  8
0
  6
CONTINUOUS
 62
     4
 10
166.1933830731682
 20
12.59553278444488
 30
0.0
  0
VERTEX
  5
68C
  8
0
  6
CONTINUOUS
 62
     4
 10
166.1471245436018
 20
12.69206301042269
 30
0.0
  0
VERTEX
  5
68D
  8
0
  6
CONTINUOUS
 62
     4
 10
166.0962983971544
 20
12.78680935069551
 30
0.0
  0
VERTEX
  5
68E
  8
0
  6
CONTINUOUS
 62
     4
 10
166.0409938001579
 20
12.87960558798747
 30
0.0
  0
VERTEX
  5
68F
  8
0
  6
CONTINUOUS
 62
     4
 10
165.9813077756679
 20
12.97028892616601
 30
0.0
  0
VERTEX
  5
690
  8
0
  6
CONTINUOUS
 62
     4
 10
165.917345033253
 20
13.05870027584155
 30
0.0
  0
VERTEX
  5
691
  8
0
  6
CONTINUOUS
 62
     4
 10
165.8492177852978
 20
13.14468453346437
 30
0.0
  0
VERTEX
  5
692
  8
0
  6
CONTINUOUS
 62
     4
 10
165.7770455501453
 20
13.22809085342896
 30
0.0
  0
VERTEX
  5
693
  8
0
  6
CONTINUOUS
 62
     4
 10
165.70095494242
 20
13.30877291270845
 30
0.0
  0
VERTEX
  5
694
  8
0
  6
CONTINUOUS
 62
     4
 10
165.6210794509038
 20
13.38658916755491
 30
0.0
  0
VERTEX
  5
695
  8
0
  6
CONTINUOUS
 62
     4
 10
165.5375592043506
 20
13.46140310181519
 30
0.0
  0
VERTEX
  5
696
  8
0
  6
CONTINUOUS
 62
     4
 10
165.4505407256532
 20
13.53308346642667
 30
0.0
  0
VERTEX
  5
697
  8
0
  6
CONTINUOUS
 62
     4
 10
165.3601766747924
 20
13.60150450967266
 30
0.0
  0
VERTEX
  5
698
  8
0
  6
CONTINUOUS
 62
     4
 10
165.2666255810193
 20
13.66654619779368
 30
0.0
  0
VERTEX
  5
699
  8
0
  6
CONTINUOUS
 62
     4
 10
165.1700515647412
 20
13.72809442556745
 30
0.0
  0
VERTEX
  5
69A
  8
0
  6
CONTINUOUS
 62
     4
 10
165.0706240495987
 20
13.78604121648822
 30
0.0
  0
VERTEX
  5
69B
  8
0
  6
CONTINUOUS
 62
     4
 10
164.9685174652392
 20
13.84028491219428
 30
0.0
  0
VERTEX
  5
69C
  8
0
  6
CONTINUOUS
 62
     4
 10
164.8639109413076
 20
13.89073035081122
 30
0.0
  0
VERTEX
  5
69D
  8
0
  6
CONTINUOUS
 62
     4
 10
164.7569879931924
 20
13.93728903389824
 30
0.0
  0
VERTEX
  5
69E
  8
0
  6
CONTINUOUS
 62
     4
 10
164.6479362000773
 20
13.97987928170444
 30
0.0
  0
VERTEX
  5
69F
  8
0
  6
CONTINUOUS
 62
     4
 10
164.5369468758635
 20
14.01842637646291
 30
0.0
  0
VERTEX
  5
6A0
  8
0
  6
CONTINUOUS
 62
     4
 10
164.42421473354
 20
14.05286269347107
 30
0.0
  0
VERTEX
  5
6A1
  8
0
  6
CONTINUOUS
 62
     4
 10
164.3099375435912
 20
14.08312781972733
 30
0.0
  0
VERTEX
  5
6A2
  8
0
  6
CONTINUOUS
 62
     4
 10
164.1943157870398
 20
14.10916865991609
 30
0.0
  0
VERTEX
  5
6A3
  8
0
  6
CONTINUOUS
 62
     4
 10
164.0775523037355
 20
14.13093952955491
 30
0.0
  0
VERTEX
  5
6A4
  8
0
  6
CONTINUOUS
 62
     4
 10
163.9598519365043
 20
14.14840223514066
 30
0.0
  0
VERTEX
  5
6A5
  8
0
  6
CONTINUOUS
 62
     4
 10
163.8414211717853
 20
14.16152614115387
 30
0.0
  0
VERTEX
  5
6A6
  8
0
  6
CONTINUOUS
 62
     4
 10
163.7224677773828
 20
14.17028822380387
 30
0.0
  0
VERTEX
  5
6A7
  8
0
  6
CONTINUOUS
 62
     4
 10
163.6032004379713
 20
14.1746731114203
 30
0.0
  0
VERTEX
  5
6A8
  8
0
  6
CONTINUOUS
 62
     4
 10
163.4838283889914
 20
14.1746731114203
 30
0.0
  0
VERTEX
  5
6A9
  8
0
  6
CONTINUOUS
 62
     4
 10
163.3645610495799
 20
14.17028822380387
 30
0.0
  0
VERTEX
  5
6AA
  8
0
  6
CONTINUOUS
 62
     4
 10
163.2456076551775
 20
14.16152614115387
 30
0.0
  0
VERTEX
  5
6AB
  8
0
  6
CONTINUOUS
 62
     4
 10
163.1271768904585
 20
14.14840223514066
 30
0.0
  0
VERTEX
  5
6AC
  8
0
  6
CONTINUOUS
 62
     4
 10
163.0094765232273
 20
14.13093952955491
 30
0.0
  0
VERTEX
  5
6AD
  8
0
  6
CONTINUOUS
 62
     4
 10
162.8927130399229
 20
14.10916865991609
 30
0.0
  0
VERTEX
  5
6AE
  8
0
  6
CONTINUOUS
 62
     4
 10
162.7770912833715
 20
14.08312781972733
 30
0.0
  0
VERTEX
  5
6AF
  8
0
  6
CONTINUOUS
 62
     4
 10
162.6628140934227
 20
14.05286269347107
 30
0.0
  0
VERTEX
  5
6B0
  8
0
  6
CONTINUOUS
 62
     4
 10
162.5500819510993
 20
14.01842637646291
 30
0.0
  0
VERTEX
  5
6B1
  8
0
  6
CONTINUOUS
 62
     4
 10
162.4390926268854
 20
13.97987928170444
 30
0.0
  0
VERTEX
  5
6B2
  8
0
  6
CONTINUOUS
 62
     4
 10
162.3300408337704
 20
13.93728903389824
 30
0.0
  0
VERTEX
  5
6B3
  8
0
  6
CONTINUOUS
 62
     4
 10
162.2231178856552
 20
13.89073035081122
 30
0.0
  0
VERTEX
  5
6B4
  8
0
  6
CONTINUOUS
 62
     4
 10
162.1185113617236
 20
13.84028491219428
 30
0.0
  0
VERTEX
  5
6B5
  8
0
  6
CONTINUOUS
 62
     4
 10
162.016404777364
 20
13.78604121648822
 30
0.0
  0
VERTEX
  5
6B6
  8
0
  6
CONTINUOUS
 62
     4
 10
161.9169772622216
 20
13.72809442556745
 30
0.0
  0
VERTEX
  5
6B7
  8
0
  6
CONTINUOUS
 62
     4
 10
161.8204032459435
 20
13.66654619779368
 30
0.0
  0
VERTEX
  5
6B8
  8
0
  6
CONTINUOUS
 62
     4
 10
161.7268521521703
 20
13.60150450967266
 30
0.0
  0
VERTEX
  5
6B9
  8
0
  6
CONTINUOUS
 62
     4
 10
161.6364881013095
 20
13.53308346642667
 30
0.0
  0
VERTEX
  5
6BA
  8
0
  6
CONTINUOUS
 62
     4
 10
161.5494696226122
 20
13.46140310181519
 30
0.0
  0
VERTEX
  5
6BB
  8
0
  6
CONTINUOUS
 62
     4
 10
161.4659493760589
 20
13.38658916755491
 30
0.0
  0
VERTEX
  5
6BC
  8
0
  6
CONTINUOUS
 62
     4
 10
161.3860738845427
 20
13.30877291270845
 30
0.0
  0
VERTEX
  5
6BD
  8
0
  6
CONTINUOUS
 62
     4
 10
161.3099832768175
 20
13.22809085342896
 30
0.0
  0
VERTEX
  5
6BE
  8
0
  6
CONTINUOUS
 62
     4
 10
161.2378110416649
 20
13.14468453346437
 30
0.0
  0
VERTEX
  5
6BF
  8
0
  6
CONTINUOUS
 62
     4
 10
161.1696837937098
 20
13.05870027584154
 30
0.0
  0
VERTEX
  5
6C0
  8
0
  6
CONTINUOUS
 62
     4
 10
161.1057210512948
 20
12.97028892616601
 30
0.0
  0
VERTEX
  5
6C1
  8
0
  6
CONTINUOUS
 62
     4
 10
161.0460350268048
 20
12.87960558798747
 30
0.0
  0
VERTEX
  5
6C2
  8
0
  6
CONTINUOUS
 62
     4
 10
160.9907304298083
 20
12.7868093506955
 30
0.0
  0
VERTEX
  5
6C3
  8
0
  6
CONTINUOUS
 62
     4
 10
160.939904283361
 20
12.69206301042268
 30
0.0
  0
VERTEX
  5
6C4
  8
0
  6
CONTINUOUS
 62
     4
 10
160.8936457537945
 20
12.59553278444488
 30
0.0
  0
VERTEX
  5
6C5
  8
0
  6
CONTINUOUS
 62
     4
 10
160.8520359942886
 20
12.49738801957964
 30
0.0
  0
VERTEX
  5
6C6
  8
0
  6
CONTINUOUS
 62
     4
 10
160.8151480025005
 20
12.39780089509436
 30
0.0
  0
VERTEX
  5
6C7
  8
0
  6
CONTINUOUS
 62
     4
 10
160.7830464925023
 20
12.29694612064532
 30
0.0
  0
VERTEX
  5
6C8
  8
0
  6
CONTINUOUS
 62
     4
 10
160.7557877812509
 20
12.19500062977758
 30
0.0
  0
VERTEX
  5
6C9
  8
0
  6
CONTINUOUS
 62
     4
 10
160.7334196897882
 20
12.09214326952344
 30
0.0
  0
VERTEX
  5
6CA
  8
0
  6
CONTINUOUS
 62
     4
 10
160.7159814593475
 20
11.98855448664394
 30
0.0
  0
VERTEX
  5
6CB
  8
0
  6
CONTINUOUS
 62
     4
 10
160.7035036825106
 20
11.88441601106397
 30
0.0
  0
VERTEX
  5
6CC
  8
0
  6
CONTINUOUS
 62
     4
 10
160.6960082495378
 20
11.77991053705618
 30
0.0
  0
VERTEX
  5
6CD
  8
0
  6
CONTINUOUS
 62
     4
 10
160.6935083099658
 20
11.67522140273318
 30
0.0
  0
VERTEX
  5
6CE
  8
0
  6
CONTINUOUS
 62
     4
 10
160.6960082495378
 20
11.57053226841018
 30
0.0
  0
VERTEX
  5
6CF
  8
0
  6
CONTINUOUS
 62
     4
 10
160.7035036825106
 20
11.46602679440239
 30
0.0
  0
VERTEX
  5
6D0
  8
0
  6
CONTINUOUS
 62
     4
 10
160.7159814593476
 20
11.36188831882242
 30
0.0
  0
VERTEX
  5
6D1
  8
0
  6
CONTINUOUS
 62
     4
 10
160.7334196897882
 20
11.25829953594293
 30
0.0
  0
VERTEX
  5
6D2
  8
0
  6
CONTINUOUS
 62
     4
 10
160.7557877812509
 20
11.15544217568878
 30
0.0
  0
VERTEX
  5
6D3
  8
0
  6
CONTINUOUS
 62
     4
 10
160.7830464925023
 20
11.05349668482104
 30
0.0
  0
VERTEX
  5
6D4
  8
0
  6
CONTINUOUS
 62
     4
 10
160.8151480025005
 20
10.952641910372
 30
0.0
  0
VERTEX
  5
6D5
  8
0
  6
CONTINUOUS
 62
     4
 10
160.8520359942886
 20
10.85305478588672
 30
0.0
  0
VERTEX
  5
6D6
  8
0
  6
CONTINUOUS
 62
     4
 10
160.8936457537945
 20
10.75491002102149
 30
0.0
  0
VERTEX
  5
6D7
  8
0
  6
CONTINUOUS
 62
     4
 10
160.939904283361
 20
10.65837979504368
 30
0.0
  0
VERTEX
  5
6D8
  8
0
  6
CONTINUOUS
 62
     4
 10
160.9907304298083
 20
10.56363345477086
 30
0.0
  0
VERTEX
  5
6D9
  8
0
  6
CONTINUOUS
 62
     4
 10
161.0460350268048
 20
10.47083721747889
 30
0.0
  0
VERTEX
  5
6DA
  8
0
  6
CONTINUOUS
 62
     4
 10
161.1057210512948
 20
10.38015387930036
 30
0.0
  0
VERTEX
  5
6DB
  8
0
  6
CONTINUOUS
 62
     4
 10
161.1696837937098
 20
10.29174252962482
 30
0.0
  0
VERTEX
  5
6DC
  8
0
  6
CONTINUOUS
 62
     4
 10
161.2378110416649
 20
10.205758272002
 30
0.0
  0
VERTEX
  5
6DD
  8
0
  6
CONTINUOUS
 62
     4
 10
161.3099832768175
 20
10.1223519520374
 30
0.0
  0
VERTEX
  5
6DE
  8
0
  6
CONTINUOUS
 62
     4
 10
161.3860738845427
 20
10.04166989275792
 30
0.0
  0
VERTEX
  5
6DF
  8
0
  6
CONTINUOUS
 62
     4
 10
161.4659493760589
 20
9.963853637911459
 30
0.0
  0
VERTEX
  5
6E0
  8
0
  6
CONTINUOUS
 62
     4
 10
161.5494696226122
 20
9.889039703651172
 30
0.0
  0
VERTEX
  5
6E1
  8
0
  6
CONTINUOUS
 62
     4
 10
161.6364881013095
 20
9.817359339039696
 30
0.0
  0
VERTEX
  5
6E2
  8
0
  6
CONTINUOUS
 62
     4
 10
161.7268521521703
 20
9.748938295793709
 30
0.0
  0
VERTEX
  5
6E3
  8
0
  6
CONTINUOUS
 62
     4
 10
161.8204032459435
 20
9.683896607672692
 30
0.0
  0
VERTEX
  5
6E4
  8
0
  6
CONTINUOUS
 62
     4
 10
161.9169772622216
 20
9.622348379898922
 30
0.0
  0
VERTEX
  5
6E5
  8
0
  6
CONTINUOUS
 62
     4
 10
162.016404777364
 20
9.564401588978145
 30
0.0
  0
VERTEX
  5
6E6
  8
0
  6
CONTINUOUS
 62
     4
 10
162.1185113617236
 20
9.510157893272085
 30
0.0
  0
VERTEX
  5
6E7
  8
0
  6
CONTINUOUS
 62
     4
 10
162.2231178856552
 20
9.459712454655145
 30
0.0
  0
VERTEX
  5
6E8
  8
0
  6
CONTINUOUS
 62
     4
 10
162.3300408337704
 20
9.413153771568133
 30
0.0
  0
VERTEX
  5
6E9
  8
0
  6
CONTINUOUS
 62
     4
 10
162.4390926268854
 20
9.370563523761931
 30
0.0
  0
VERTEX
  5
6EA
  8
0
  6
CONTINUOUS
 62
     4
 10
162.5500819510993
 20
9.332016429003454
 30
0.0
  0
VERTEX
  5
6EB
  8
0
  6
CONTINUOUS
 62
     4
 10
162.6628140934227
 20
9.2975801119953
 30
0.0
  0
VERTEX
  5
6EC
  8
0
  6
CONTINUOUS
 62
     4
 10
162.7770912833716
 20
9.267314985739038
 30
0.0
  0
VERTEX
  5
6ED
  8
0
  6
CONTINUOUS
 62
     4
 10
162.8927130399229
 20
9.241274145550284
 30
0.0
  0
VERTEX
  5
6EE
  8
0
  6
CONTINUOUS
 62
     4
 10
163.0094765232273
 20
9.219503275911462
 30
0.0
  0
VERTEX
  5
6EF
  8
0
  6
CONTINUOUS
 62
     4
 10
163.1271768904585
 20
9.202040570325714
 30
0.0
  0
VERTEX
  5
6F0
  8
0
  6
CONTINUOUS
 62
     4
 10
163.2456076551775
 20
9.188916664312501
 30
0.0
  0
VERTEX
  5
6F1
  8
0
  6
CONTINUOUS
 62
     4
 10
163.3645610495799
 20
9.180154581662507
 30
0.0
  0
VERTEX
  5
6F2
  8
0
  6
CONTINUOUS
 62
     4
 10
163.4838283889914
 20
9.175769694046071
 30
0.0
  0
VERTEX
  5
6F3
  8
0
  6
CONTINUOUS
 62
     4
 10
163.6032004379713
 20
9.175769694046073
 30
0.0
  0
VERTEX
  5
6F4
  8
0
  6
CONTINUOUS
 62
     4
 10
163.7224677773829
 20
9.180154581662508
 30
0.0
  0
VERTEX
  5
6F5
  8
0
  6
CONTINUOUS
 62
     4
 10
163.8414211717853
 20
9.188916664312504
 30
0.0
  0
VERTEX
  5
6F6
  8
0
  6
CONTINUOUS
 62
     4
 10
163.9598519365043
 20
9.202040570325718
 30
0.0
  0
VERTEX
  5
6F7
  8
0
  6
CONTINUOUS
 62
     4
 10
164.0775523037355
 20
9.219503275911466
 30
0.0
  0
VERTEX
  5
6F8
  8
0
  6
CONTINUOUS
 62
     4
 10
164.1943157870399
 20
9.241274145550287
 30
0.0
  0
VERTEX
  5
6F9
  8
0
  6
CONTINUOUS
 62
     4
 10
164.3099375435912
 20
9.267314985739043
 30
0.0
  0
VERTEX
  5
6FA
  8
0
  6
CONTINUOUS
 62
     4
 10
164.4242147335401
 20
9.297580111995305
 30
0.0
  0
VERTEX
  5
6FB
  8
0
  6
CONTINUOUS
 62
     4
 10
164.5369468758635
 20
9.332016429003462
 30
0.0
  0
VERTEX
  5
6FC
  8
0
  6
CONTINUOUS
 62
     4
 10
164.6479362000773
 20
9.370563523761939
 30
0.0
  0
VERTEX
  5
6FD
  8
0
  6
CONTINUOUS
 62
     4
 10
164.7569879931924
 20
9.413153771568142
 30
0.0
  0
VERTEX
  5
6FE
  8
0
  6
CONTINUOUS
 62
     4
 10
164.8639109413076
 20
9.459712454655154
 30
0.0
  0
VERTEX
  5
6FF
  8
0
  6
CONTINUOUS
 62
     4
 10
164.9685174652392
 20
9.510157893272094
 30
0.0
  0
VERTEX
  5
700
  8
0
  6
CONTINUOUS
 62
     4
 10
165.0706240495987
 20
9.564401588978154
 30
0.0
  0
VERTEX
  5
701
  8
0
  6
CONTINUOUS
 62
     4
 10
165.1700515647412
 20
9.622348379898932
 30
0.0
  0
VERTEX
  5
702
  8
0
  6
CONTINUOUS
 62
     4
 10
165.2666255810193
 20
9.683896607672702
 30
0.0
  0
VERTEX
  5
703
  8
0
  6
CONTINUOUS
 62
     4
 10
165.3601766747924
 20
9.748938295793721
 30
0.0
  0
VERTEX
  5
704
  8
0
  6
CONTINUOUS
 62
     4
 10
165.4505407256532
 20
9.817359339039708
 30
0.0
  0
VERTEX
  5
705
  8
0
  6
CONTINUOUS
 62
     4
 10
165.5375592043506
 20
9.889039703651186
 30
0.0
  0
VERTEX
  5
706
  8
0
  6
CONTINUOUS
 62
     4
 10
165.6210794509038
 20
9.963853637911473
 30
0.0
  0
VERTEX
  5
707
  8
0
  6
CONTINUOUS
 62
     4
 10
165.7009549424201
 20
10.04166989275793
 30
0.0
  0
VERTEX
  5
708
  8
0
  6
CONTINUOUS
 62
     4
 10
165.7770455501453
 20
10.12235195203742
 30
0.0
  0
VERTEX
  5
709
  8
0
  6
CONTINUOUS
 62
     4
 10
165.8492177852978
 20
10.20575827200201
 30
0.0
  0
VERTEX
  5
70A
  8
0
  6
CONTINUOUS
 62
     4
 10
165.917345033253
 20
10.29174252962484
 30
0.0
  0
VERTEX
  5
70B
  8
0
  6
CONTINUOUS
 62
     4
 10
165.9813077756679
 20
10.38015387930037
 30
0.0
  0
VERTEX
  5
70C
  8
0
  6
CONTINUOUS
 62
     4
 10
166.0409938001579
 20
10.47083721747891
 30
0.0
  0
VERTEX
  5
70D
  8
0
  6
CONTINUOUS
 62
     4
 10
166.0962983971544
 20
10.56363345477088
 30
0.0
  0
VERTEX
  5
70E
  8
0
  6
CONTINUOUS
 62
     4
 10
166.1471245436018
 20
10.6583797950437
 30
0.0
  0
VERTEX
  5
70F
  8
0
  6
CONTINUOUS
 62
     4
 10
166.1933830731682
 20
10.7549100210215
 30
0.0
  0
VERTEX
  5
710
  8
0
  6
CONTINUOUS
 62
     4
 10
166.2349928326741
 20
10.85305478588674
 30
0.0
  0
VERTEX
  5
711
  8
0
  6
CONTINUOUS
 62
     4
 10
166.2718808244623
 20
10.95264191037202
 30
0.0
  0
VERTEX
  5
712
  8
0
  6
CONTINUOUS
 62
     4
 10
166.3039823344604
 20
11.05349668482106
 30
0.0
  0
VERTEX
  5
713
  8
0
  6
CONTINUOUS
 62
     4
 10
166.3312410457119
 20
11.1554421756888
 30
0.0
  0
VERTEX
  5
714
  8
0
  6
CONTINUOUS
 62
     4
 10
166.3536091371745
 20
11.25829953594294
 30
0.0
  0
VERTEX
  5
715
  8
0
  6
CONTINUOUS
 62
     4
 10
166.3710473676152
 20
11.36188831882244
 30
0.0
  0
VERTEX
  5
716
  8
0
  6
CONTINUOUS
 62
     4
 10
166.3835251444522
 20
11.46602679440241
 30
0.0
  0
VERTEX
  5
717
  8
0
  6
CONTINUOUS
 62
     4
 10
166.3910205774249
 20
11.5705322684102
 30
0.0
  0
SEQEND
  5
681
  8
0
  6
CONTINUOUS
 62
     4
  0
POLYLINE
  5
39F
  8
0
  6
CONTINUOUS
 62
     4
 66
     1
 10
0.0
 20
0.0
 30
0.0
 70
     1
  0
VERTEX
  5
718
  8
0
  6
CONTINUOUS
 62
     4
 10
1.0
 20
0.0
 30
0.0
  0
VERTEX
  5
719
  8
0
  6
CONTINUOUS
 62
     4
 10
0.9807852804032304
 20
0.1950903220161283
 30
0.0
  0
VERTEX
  5
71A
  8
0
  6
CONTINUOUS
 62
     4
 10
0.9238795325112867
 20
0.3826834323650898
 30
0.0
  0
VERTEX
  5
71B
  8
0
  6
CONTINUOUS
 62
     4
 10
0.8314696123025452
 20
0.5555702330196022
 30
0.0
  0
VERTEX
  5
71C
  8
0
  6
CONTINUOUS
 62
     4
 10
0.7071067811865476
 20
0.7071067811865475
 30
0.0
  0
VERTEX
  5
71D
  8
0
  6
CONTINUOUS
 62
     4
 10
0.5555702330196023
 20
0.8314696123025452
 30
0.0
  0
VERTEX
  5
71E
  8
0
  6
CONTINUOUS
 62
     4
 10
0.3826834323650898
 20
0.9238795325112867
 30
0.0
  0
VERTEX
  5
71F
  8
0
  6
CONTINUOUS
 62
     4
 10
0.1950903220161283
 20
0.9807852804032304
 30
0.0
  0
VERTEX
  5
720
  8
0
  6
CONTINUOUS
 62
     4
 10
0.0000000000000001
 20
1.0
 30
0.0
  0
VERTEX
  5
721
  8
0
  6
CONTINUOUS
 62
     4
 10
-0.1950903220161282
 20
0.9807852804032304
 30
0.0
  0
VERTEX
  5
722
  8
0
  6
CONTINUOUS
 62
     4
 10
-0.3826834323650897
 20
0.9238795325112867
 30
0.0
  0
VERTEX
  5
723
  8
0
  6
CONTINUOUS
 62
     4
 10
-0.555570233019602
 20
0.8314696123025455
 30
0.0
  0
VERTEX
  5
724
  8
0
  6
CONTINUOUS
 62
     4
 10
-0.7071067811865475
 20
0.7071067811865476
 30
0.0
  0
VERTEX
  5
725
  8
0
  6
CONTINUOUS
 62
     4
 10
-0.8314696123025454
 20
0.5555702330196022
 30
0.0
  0
VERTEX
  5
726
  8
0
  6
CONTINUOUS
 62
     4
 10
-0.9238795325112869
 20
0.3826834323650895
 30
0.0
  0
VERTEX
  5
727
  8
0
  6
CONTINUOUS
 62
     4
 10
-0.9807852804032305
 20
0.1950903220161277
 30
0.0
  0
VERTEX
  5
728
  8
0
  6
CONTINUOUS
 62
     4
 10
-1.0
 20
-0.0000000000000008
 30
0.0
  0
VERTEX
  5
729
  8
0
  6
CONTINUOUS
 62
     4
 10
-0.9807852804032302
 20
-0.1950903220161292
 30
0.0
  0
VERTEX
  5
72A
  8
0
  6
CONTINUOUS
 62
     4
 10
-0.9238795325112863
 20
-0.3826834323650909
 30
0.0
  0
VERTEX
  5
72B
  8
0
  6
CONTINUOUS
 62
     4
 10
-0.8314696123025445
 20
-0.5555702330196034
 30
0.0
  0
VERTEX
  5
72C
  8
0
  6
CONTINUOUS
 62
     4
 10
-0.7071067811865464
 20
-0.7071067811865487
 30
0.0
  0
VERTEX
  5
72D
  8
0
  6
CONTINUOUS
 62
     4
 10
-0.5555702330196007
 20
-0.8314696123025462
 30
0.0
  0
VERTEX
  5
72E
  8
0
  6
CONTINUOUS
 62
     4
 10
-0.3826834323650879
 20
-0.9238795325112875
 30
0.0
  0
VERTEX
  5
72F
  8
0
  6
CONTINUOUS
 62
     4
 10
-0.1950903220161261
 20
-0.9807852804032309
 30
0.0
  0
VERTEX
  5
730
  8
0
  6
CONTINUOUS
 62
     4
 10
0.0000000000000025
 20
-1.0
 30
0.0
  0
VERTEX
  5
731
  8
0
  6
CONTINUOUS
 62
     4
 10
0.1950903220161309
 20
-0.9807852804032299
 30
0.0
  0
VERTEX
  5
732
  8
0
  6
CONTINUOUS
 62
     4
 10
0.3826834323650925
 20
-0.9238795325112856
 30
0.0
  0
VERTEX
  5
733
  8
0
  6
CONTINUOUS
 62
     4
 10
0.5555702330196048
 20
-0.8314696123025435
 30
0.0
  0
VERTEX
  5
734
  8
0
  6
CONTINUOUS
 62
     4
 10
0.7071067811865499
 20
-0.7071067811865451
 30
0.0
  0
VERTEX
  5
735
  8
0
  6
CONTINUOUS
 62
     4
 10
0.8314696123025472
 20
-0.5555702330195993
 30
0.0
  0
VERTEX
  5
736
  8
0
  6
CONTINUOUS
 62
     4
 10
0.9238795325112882
 20
-0.3826834323650863
 30
0.0
  0
VERTEX
  5
737
  8
0
  6
CONTINUOUS
 62
     4
 10
0.9807852804032312
 20
-0.1950903220161244
 30
0.0
  0
SEQEND
  5
738
  8
0
  6
CONTINUOUS
 62
     4
  0
POLYLINE
  5
3A0
  8
0
  6
CONTINUOUS
 62
     4
 66
     1
 10
0.0
 20
0.0
 30
0.0
 70
     1
  0
VERTEX
  5
73A
  8
0
  6
CONTINUOUS
 62
     4
 10
110.5935174652392
 20
64.67521377333866
 30
0.0
  0
VERTEX
  5
73B
  8
0
  6
CONTINUOUS
 62
     4
 10
110.5910175323594
 20
64.77990290766165
 30
0.0
  0
VERTEX
  5
73C
  8
0
  6
CONTINUOUS
 62
     4
 10
110.5835221194517
 20
64.88440838166945
 30
0.0
  0
VERTEX
  5
73D
  8
0
  6
CONTINUOUS
 62
     4
 10
110.5710443760175
 20
64.98854685724942
 30
0.0
  0
VERTEX
  5
73E
  8
0
  6
CONTINUOUS
 62
     4
 10
110.5536061922585
 20
65.09213564012892
 30
0.0
  0
VERTEX
  5
73F
  8
0
  6
CONTINUOUS
 62
     4
 10
110.5312381606747
 20
65.19499300038305
 30
0.0
  0
VERTEX
  5
740
  8
0
  6
CONTINUOUS
 62
     4
 10
110.5039795223941
 20
65.29693849125079
 30
0.0
  0
VERTEX
  5
741
  8
0
  6
CONTINUOUS
 62
     4
 10
110.4718780983309
 20
65.39779326569983
 30
0.0
  0
VERTEX
  5
742
  8
0
  6
CONTINUOUS
 62
     4
 10
110.4349902052909
 20
65.49738039018511
 30
0.0
  0
VERTEX
  5
743
  8
0
  6
CONTINUOUS
 62
     4
 10
110.3933805571733
 20
65.59552515505035
 30
0.0
  0
VERTEX
  5
744
  8
0
  6
CONTINUOUS
 62
     4
 10
110.3471221514398
 20
65.69205538102816
 30
0.0
  0
VERTEX
  5
745
  8
0
  6
CONTINUOUS
 62
     4
 10
110.2962961410527
 20
65.78680172130098
 30
0.0
  0
VERTEX
  5
746
  8
0
  6
CONTINUOUS
 62
     4
 10
110.2409916921052
 20
65.87959795859294
 30
0.0
  0
VERTEX
  5
747
  8
0
  6
CONTINUOUS
 62
     4
 10
110.1813058273933
 20
65.97028129677148
 30
0.0
  0
VERTEX
  5
748
  8
0
  6
CONTINUOUS
 62
     4
 10
110.1173432562049
 20
66.05869264644701
 30
0.0
  0
VERTEX
  5
749
  8
0
  6
CONTINUOUS
 62
     4
 10
110.0492161906247
 20
66.14467690406984
 30
0.0
  0
VERTEX
  5
74A
  8
0
  6
CONTINUOUS
 62
     4
 10
109.9770441486754
 20
66.22808322403444
 30
0.0
  0
VERTEX
  5
74B
  8
0
  6
CONTINUOUS
 62
     4
 10
109.9009537446428
 20
66.30876528331392
 30
0.0
  0
VERTEX
  5
74C
  8
0
  6
CONTINUOUS
 62
     4
 10
109.8210784669513
 20
66.38658153816037
 30
0.0
  0
VERTEX
  5
74D
  8
0
  6
CONTINUOUS
 62
     4
 10
109.7375584439797
 20
66.46139547242066
 30
0.0
  0
VERTEX
  5
74E
  8
0
  6
CONTINUOUS
 62
     4
 10
109.6505401982286
 20
66.53307583703214
 30
0.0
  0
VERTEX
  5
74F
  8
0
  6
CONTINUOUS
 62
     4
 10
109.56017638927
 20
66.60149688027812
 30
0.0
  0
VERTEX
  5
750
  8
0
  6
CONTINUOUS
 62
     4
 10
109.4666255459308
 20
66.66653856839915
 30
0.0
  0
VERTEX
  5
751
  8
0
  6
CONTINUOUS
 62
     4
 10
109.3700517881789
 20
66.72808679617292
 30
0.0
  0
VERTEX
  5
752
  8
0
  6
CONTINUOUS
 62
     4
 10
109.2706245392014
 20
66.7860335870937
 30
0.0
  0
VERTEX
  5
753
  8
0
  6
CONTINUOUS
 62
     4
 10
109.1685182281786
 20
66.84027728279975
 30
0.0
  0
VERTEX
  5
754
  8
0
  6
CONTINUOUS
 62
     4
 10
109.0639119842761
 20
66.89072272141669
 30
0.0
  0
VERTEX
  5
755
  8
0
  6
CONTINUOUS
 62
     4
 10
108.9569893223909
 20
66.93728140450371
 30
0.0
  0
VERTEX
  5
756
  8
0
  6
CONTINUOUS
 62
     4
 10
108.8479378212047
 20
66.97987165230991
 30
0.0
  0
VERTEX
  5
757
  8
0
  6
CONTINUOUS
 62
     4
 10
108.7369487941065
 20
67.01841874706838
 30
0.0
  0
VERTEX
  5
758
  8
0
  6
CONTINUOUS
 62
     4
 10
108.6242169535642
 20
67.05285506407654
 30
0.0
  0
VERTEX
  5
759
  8
0
  6
CONTINUOUS
 62
     4
 10
108.5099400695325
 20
67.08312019033281
 30
0.0
  0
VERTEX
  5
75A
  8
0
  6
CONTINUOUS
 62
     4
 10
108.3943186224977
 20
67.10916103052156
 30
0.0
  0
VERTEX
  5
75B
  8
0
  6
CONTINUOUS
 62
     4
 10
108.2775554517662
 20
67.13093190016038
 30
0.0
  0
VERTEX
  5
75C
  8
0
  6
CONTINUOUS
 62
     4
 10
108.159855399616
 20
67.14839460574612
 30
0.0
  0
VERTEX
  5
75D
  8
0
  6
CONTINUOUS
 62
     4
 10
108.0414249519331
 20
67.16151851175934
 30
0.0
  0
VERTEX
  5
75E
  8
0
  6
CONTINUOUS
 62
     4
 10
107.9224718759659
 20
67.17028059440933
 30
0.0
  0
VERTEX
  5
75F
  8
0
  6
CONTINUOUS
 62
     4
 10
107.8032048558301
 20
67.17466548202577
 30
0.0
  0
VERTEX
  5
760
  8
0
  6
CONTINUOUS
 62
     4
 10
107.6838331264061
 20
67.17466548202577
 30
0.0
  0
VERTEX
  5
761
  8
0
  6
CONTINUOUS
 62
     4
 10
107.5645661062703
 20
67.17028059440933
 30
0.0
  0
VERTEX
  5
762
  8
0
  6
CONTINUOUS
 62
     4
 10
107.4456130303031
 20
67.16151851175934
 30
0.0
  0
VERTEX
  5
763
  8
0
  6
CONTINUOUS
 62
     4
 10
107.3271825826202
 20
67.14839460574612
 30
0.0
  0
VERTEX
  5
764
  8
0
  6
CONTINUOUS
 62
     4
 10
107.20948253047
 20
67.13093190016038
 30
0.0
  0
VERTEX
  5
765
  8
0
  6
CONTINUOUS
 62
     4
 10
107.0927193597385
 20
67.10916103052155
 30
0.0
  0
VERTEX
  5
766
  8
0
  6
CONTINUOUS
 62
     4
 10
106.9770979127037
 20
67.08312019033281
 30
0.0
  0
VERTEX
  5
767
  8
0
  6
CONTINUOUS
 62
     4
 10
106.862821028672
 20
67.05285506407654
 30
0.0
  0
VERTEX
  5
768
  8
0
  6
CONTINUOUS
 62
     4
 10
106.7500891881297
 20
67.01841874706838
 30
0.0
  0
VERTEX
  5
769
  8
0
  6
CONTINUOUS
 62
     4
 10
106.6391001610315
 20
66.97987165230991
 30
0.0
  0
VERTEX
  5
76A
  8
0
  6
CONTINUOUS
 62
     4
 10
106.5300486598453
 20
66.93728140450371
 30
0.0
  0
VERTEX
  5
76B
  8
0
  6
CONTINUOUS
 62
     4
 10
106.4231259979601
 20
66.89072272141669
 30
0.0
  0
VERTEX
  5
76C
  8
0
  6
CONTINUOUS
 62
     4
 10
106.3185197540576
 20
66.84027728279975
 30
0.0
  0
VERTEX
  5
76D
  8
0
  6
CONTINUOUS
 62
     4
 10
106.2164134430348
 20
66.7860335870937
 30
0.0
  0
VERTEX
  5
76E
  8
0
  6
CONTINUOUS
 62
     4
 10
106.1169861940573
 20
66.72808679617292
 30
0.0
  0
VERTEX
  5
76F
  8
0
  6
CONTINUOUS
 62
     4
 10
106.0204124363054
 20
66.66653856839915
 30
0.0
  0
VERTEX
  5
770
  8
0
  6
CONTINUOUS
 62
     4
 10
105.9268615929662
 20
66.60149688027812
 30
0.0
  0
VERTEX
  5
771
  8
0
  6
CONTINUOUS
 62
     4
 10
105.8364977840076
 20
66.53307583703214
 30
0.0
  0
VERTEX
  5
772
  8
0
  6
CONTINUOUS
 62
     4
 10
105.7494795382565
 20
66.46139547242066
 30
0.0
  0
VERTEX
  5
773
  8
0
  6
CONTINUOUS
 62
     4
 10
105.6659595152849
 20
66.38658153816037
 30
0.0
  0
VERTEX
  5
774
  8
0
  6
CONTINUOUS
 62
     4
 10
105.5860842375934
 20
66.30876528331392
 30
0.0
  0
VERTEX
  5
775
  8
0
  6
CONTINUOUS
 62
     4
 10
105.5099938335608
 20
66.22808322403444
 30
0.0
  0
VERTEX
  5
776
  8
0
  6
CONTINUOUS
 62
     4
 10
105.4378217916115
 20
66.14467690406984
 30
0.0
  0
VERTEX
  5
777
  8
0
  6
CONTINUOUS
 62
     4
 10
105.3696947260313
 20
66.05869264644701
 30
0.0
  0
VERTEX
  5
778
  8
0
  6
CONTINUOUS
 62
     4
 10
105.3057321548429
 20
65.97028129677148
 30
0.0
  0
VERTEX
  5
779
  8
0
  6
CONTINUOUS
 62
     4
 10
105.246046290131
 20
65.87959795859294
 30
0.0
  0
VERTEX
  5
77A
  8
0
  6
CONTINUOUS
 62
     4
 10
105.1907418411835
 20
65.78680172130098
 30
0.0
  0
VERTEX
  5
77B
  8
0
  6
CONTINUOUS
 62
     4
 10
105.1399158307964
 20
65.69205538102816
 30
0.0
  0
VERTEX
  5
77C
  8
0
  6
CONTINUOUS
 62
     4
 10
105.0936574250629
 20
65.59552515505034
 30
0.0
  0
VERTEX
  5
77D
  8
0
  6
CONTINUOUS
 62
     4
 10
105.0520477769453
 20
65.49738039018511
 30
0.0
  0
VERTEX
  5
77E
  8
0
  6
CONTINUOUS
 62
     4
 10
105.0151598839053
 20
65.39779326569983
 30
0.0
  0
VERTEX
  5
77F
  8
0
  6
CONTINUOUS
 62
     4
 10
104.9830584598421
 20
65.29693849125079
 30
0.0
  0
VERTEX
  5
780
  8
0
  6
CONTINUOUS
 62
     4
 10
104.9557998215615
 20
65.19499300038305
 30
0.0
  0
VERTEX
  5
781
  8
0
  6
CONTINUOUS
 62
     4
 10
104.9334317899777
 20
65.0921356401289
 30
0.0
  0
VERTEX
  5
782
  8
0
  6
CONTINUOUS
 62
     4
 10
104.9159936062187
 20
64.98854685724942
 30
0.0
  0
VERTEX
  5
783
  8
0
  6
CONTINUOUS
 62
     4
 10
104.9035158627845
 20
64.88440838166945
 30
0.0
  0
VERTEX
  5
784
  8
0
  6
CONTINUOUS
 62
     4
 10
104.8960204498768
 20
64.77990290766165
 30
0.0
  0
VERTEX
  5
785
  8
0
  6
CONTINUOUS
 62
     4
 10
104.893520516997
 20
64.67521377333866
 30
0.0
  0
VERTEX
  5
786
  8
0
  6
CONTINUOUS
 62
     4
 10
104.8960204498768
 20
64.57052463901565
 30
0.0
  0
VERTEX
  5
787
  8
0
  6
CONTINUOUS
 62
     4
 10
104.9035158627845
 20
64.46601916500786
 30
0.0
  0
VERTEX
  5
788
  8
0
  6
CONTINUOUS
 62
     4
 10
104.9159936062187
 20
64.36188068942789
 30
0.0
  0
VERTEX
  5
789
  8
0
  6
CONTINUOUS
 62
     4
 10
104.9334317899777
 20
64.25829190654839
 30
0.0
  0
VERTEX
  5
78A
  8
0
  6
CONTINUOUS
 62
     4
 10
104.9557998215615
 20
64.15543454629425
 30
0.0
  0
VERTEX
  5
78B
  8
0
  6
CONTINUOUS
 62
     4
 10
104.9830584598421
 20
64.05348905542651
 30
0.0
  0
VERTEX
  5
78C
  8
0
  6
CONTINUOUS
 62
     4
 10
105.0151598839053
 20
63.95263428097747
 30
0.0
  0
VERTEX
  5
78D
  8
0
  6
CONTINUOUS
 62
     4
 10
105.0520477769453
 20
63.85304715649219
 30
0.0
  0
VERTEX
  5
78E
  8
0
  6
CONTINUOUS
 62
     4
 10
105.0936574250629
 20
63.75490239162696
 30
0.0
  0
VERTEX
  5
78F
  8
0
  6
CONTINUOUS
 62
     4
 10
105.1399158307964
 20
63.65837216564915
 30
0.0
  0
VERTEX
  5
790
  8
0
  6
CONTINUOUS
 62
     4
 10
105.1907418411835
 20
63.56362582537633
 30
0.0
  0
VERTEX
  5
791
  8
0
  6
CONTINUOUS
 62
     4
 10
105.246046290131
 20
63.47082958808436
 30
0.0
  0
VERTEX
  5
792
  8
0
  6
CONTINUOUS
 62
     4
 10
105.3057321548429
 20
63.38014624990582
 30
0.0
  0
VERTEX
  5
793
  8
0
  6
CONTINUOUS
 62
     4
 10
105.3696947260313
 20
63.29173490023029
 30
0.0
  0
VERTEX
  5
794
  8
0
  6
CONTINUOUS
 62
     4
 10
105.4378217916115
 20
63.20575064260747
 30
0.0
  0
VERTEX
  5
795
  8
0
  6
CONTINUOUS
 62
     4
 10
105.5099938335608
 20
63.12234432264287
 30
0.0
  0
VERTEX
  5
796
  8
0
  6
CONTINUOUS
 62
     4
 10
105.5860842375934
 20
63.04166226336339
 30
0.0
  0
VERTEX
  5
797
  8
0
  6
CONTINUOUS
 62
     4
 10
105.6659595152849
 20
62.96384600851692
 30
0.0
  0
VERTEX
  5
798
  8
0
  6
CONTINUOUS
 62
     4
 10
105.7494795382565
 20
62.88903207425664
 30
0.0
  0
VERTEX
  5
799
  8
0
  6
CONTINUOUS
 62
     4
 10
105.8364977840076
 20
62.81735170964517
 30
0.0
  0
VERTEX
  5
79A
  8
0
  6
CONTINUOUS
 62
     4
 10
105.9268615929662
 20
62.74893066639918
 30
0.0
  0
VERTEX
  5
79B
  8
0
  6
CONTINUOUS
 62
     4
 10
106.0204124363054
 20
62.68388897827816
 30
0.0
  0
VERTEX
  5
79C
  8
0
  6
CONTINUOUS
 62
     4
 10
106.1169861940573
 20
62.62234075050439
 30
0.0
  0
VERTEX
  5
79D
  8
0
  6
CONTINUOUS
 62
     4
 10
106.2164134430348
 20
62.56439395958361
 30
0.0
  0
VERTEX
  5
79E
  8
0
  6
CONTINUOUS
 62
     4
 10
106.3185197540576
 20
62.51015026387756
 30
0.0
  0
VERTEX
  5
79F
  8
0
  6
CONTINUOUS
 62
     4
 10
106.4231259979601
 20
62.45970482526062
 30
0.0
  0
VERTEX
  5
7A0
  8
0
  6
CONTINUOUS
 62
     4
 10
106.5300486598453
 20
62.4131461421736
 30
0.0
  0
VERTEX
  5
7A1
  8
0
  6
CONTINUOUS
 62
     4
 10
106.6391001610315
 20
62.3705558943674
 30
0.0
  0
VERTEX
  5
7A2
  8
0
  6
CONTINUOUS
 62
     4
 10
106.7500891881297
 20
62.33200879960892
 30
0.0
  0
VERTEX
  5
7A3
  8
0
  6
CONTINUOUS
 62
     4
 10
106.862821028672
 20
62.29757248260077
 30
0.0
  0
VERTEX
  5
7A4
  8
0
  6
CONTINUOUS
 62
     4
 10
106.9770979127037
 20
62.26730735634451
 30
0.0
  0
VERTEX
  5
7A5
  8
0
  6
CONTINUOUS
 62
     4
 10
107.0927193597385
 20
62.24126651615575
 30
0.0
  0
VERTEX
  5
7A6
  8
0
  6
CONTINUOUS
 62
     4
 10
107.20948253047
 20
62.21949564651693
 30
0.0
  0
VERTEX
  5
7A7
  8
0
  6
CONTINUOUS
 62
     4
 10
107.3271825826202
 20
62.20203294093118
 30
0.0
  0
VERTEX
  5
7A8
  8
0
  6
CONTINUOUS
 62
     4
 10
107.4456130303031
 20
62.18890903491797
 30
0.0
  0
VERTEX
  5
7A9
  8
0
  6
CONTINUOUS
 62
     4
 10
107.5645661062703
 20
62.18014695226798
 30
0.0
  0
VERTEX
  5
7AA
  8
0
  6
CONTINUOUS
 62
     4
 10
107.6838331264061
 20
62.17576206465154
 30
0.0
  0
VERTEX
  5
7AB
  8
0
  6
CONTINUOUS
 62
     4
 10
107.8032048558301
 20
62.17576206465154
 30
0.0
  0
VERTEX
  5
7AC
  8
0
  6
CONTINUOUS
 62
     4
 10
107.9224718759659
 20
62.18014695226798
 30
0.0
  0
VERTEX
  5
7AD
  8
0
  6
CONTINUOUS
 62
     4
 10
108.0414249519331
 20
62.18890903491797
 30
0.0
  0
VERTEX
  5
7AE
  8
0
  6
CONTINUOUS
 62
     4
 10
108.159855399616
 20
62.20203294093118
 30
0.0
  0
VERTEX
  5
7AF
  8
0
  6
CONTINUOUS
 62
     4
 10
108.2775554517662
 20
62.21949564651693
 30
0.0
  0
VERTEX
  5
7B0
  8
0
  6
CONTINUOUS
 62
     4
 10
108.3943186224977
 20
62.24126651615575
 30
0.0
  0
VERTEX
  5
7B1
  8
0
  6
CONTINUOUS
 62
     4
 10
108.5099400695325
 20
62.26730735634451
 30
0.0
  0
VERTEX
  5
7B2
  8
0
  6
CONTINUOUS
 62
     4
 10
108.6242169535642
 20
62.29757248260077
 30
0.0
  0
VERTEX
  5
7B3
  8
0
  6
CONTINUOUS
 62
     4
 10
108.7369487941065
 20
62.33200879960893
 30
0.0
  0
VERTEX
  5
7B4
  8
0
  6
CONTINUOUS
 62
     4
 10
108.8479378212047
 20
62.37055589436741
 30
0.0
  0
VERTEX
  5
7B5
  8
0
  6
CONTINUOUS
 62
     4
 10
108.9569893223909
 20
62.41314614217361
 30
0.0
  0
VERTEX
  5
7B6
  8
0
  6
CONTINUOUS
 62
     4
 10
109.0639119842761
 20
62.45970482526062
 30
0.0
  0
VERTEX
  5
7B7
  8
0
  6
CONTINUOUS
 62
     4
 10
109.1685182281787
 20
62.51015026387756
 30
0.0
  0
VERTEX
  5
7B8
  8
0
  6
CONTINUOUS
 62
     4
 10
109.2706245392014
 20
62.56439395958363
 30
0.0
  0
VERTEX
  5
7B9
  8
0
  6
CONTINUOUS
 62
     4
 10
109.3700517881789
 20
62.6223407505044
 30
0.0
  0
VERTEX
  5
7BA
  8
0
  6
CONTINUOUS
 62
     4
 10
109.4666255459308
 20
62.68388897827817
 30
0.0
  0
VERTEX
  5
7BB
  8
0
  6
CONTINUOUS
 62
     4
 10
109.5601763892701
 20
62.74893066639919
 30
0.0
  0
VERTEX
  5
7BC
  8
0
  6
CONTINUOUS
 62
     4
 10
109.6505401982286
 20
62.81735170964518
 30
0.0
  0
VERTEX
  5
7BD
  8
0
  6
CONTINUOUS
 62
     4
 10
109.7375584439797
 20
62.88903207425665
 30
0.0
  0
VERTEX
  5
7BE
  8
0
  6
CONTINUOUS
 62
     4
 10
109.8210784669513
 20
62.96384600851694
 30
0.0
  0
VERTEX
  5
7BF
  8
0
  6
CONTINUOUS
 62
     4
 10
109.9009537446428
 20
63.0416622633634
 30
0.0
  0
VERTEX
  5
7C0
  8
0
  6
CONTINUOUS
 62
     4
 10
109.9770441486754
 20
63.12234432264289
 30
0.0
  0
VERTEX
  5
7C1
  8
0
  6
CONTINUOUS
 62
     4
 10
110.0492161906247
 20
63.20575064260748
 30
0.0
  0
VERTEX
  5
7C2
  8
0
  6
CONTINUOUS
 62
     4
 10
110.1173432562049
 20
63.2917349002303
 30
0.0
  0
VERTEX
  5
7C3
  8
0
  6
CONTINUOUS
 62
     4
 10
110.1813058273933
 20
63.38014624990584
 30
0.0
  0
VERTEX
  5
7C4
  8
0
  6
CONTINUOUS
 62
     4
 10
110.2409916921052
 20
63.47082958808438
 30
0.0
  0
VERTEX
  5
7C5
  8
0
  6
CONTINUOUS
 62
     4
 10
110.2962961410528
 20
63.56362582537635
 30
0.0
  0
VERTEX
  5
7C6
  8
0
  6
CONTINUOUS
 62
     4
 10
110.3471221514398
 20
63.65837216564917
 30
0.0
  0
VERTEX
  5
7C7
  8
0
  6
CONTINUOUS
 62
     4
 10
110.3933805571733
 20
63.75490239162697
 30
0.0
  0
VERTEX
  5
7C8
  8
0
  6
CONTINUOUS
 62
     4
 10
110.4349902052909
 20
63.85304715649221
 30
0.0
  0
VERTEX
  5
7C9
  8
0
  6
CONTINUOUS
 62
     4
 10
110.4718780983309
 20
63.95263428097749
 30
0.0
  0
VERTEX
  5
7CA
  8
0
  6
CONTINUOUS
 62
     4
 10
110.5039795223941
 20
64.05348905542653
 30
0.0
  0
VERTEX
  5
7CB
  8
0
  6
CONTINUOUS
 62
     4
 10
110.5312381606747
 20
64.15543454629427
 30
0.0
  0
VERTEX
  5
7CC
  8
0
  6
CONTINUOUS
 62
     4
 10
110.5536061922585
 20
64.25829190654841
 30
0.0
  0
VERTEX
  5
7CD
  8
0
  6
CONTINUOUS
 62
     4
 10
110.5710443760175
 20
64.36188068942791
 30
0.0
  0
VERTEX
  5
7CE
  8
0
  6
CONTINUOUS
 62
     4
 10
110.5835221194517
 20
64.46601916500788
 30
0.0
  0
VERTEX
  5
7CF
  8
0
  6
CONTINUOUS
 62
     4
 10
110.5910175323594
 20
64.57052463901567
 30
0.0
  0
SEQEND
  5
739
  8
0
  6
CONTINUOUS
 62
     4
  0
POLYLINE
  5
3A1
  8
0
  6
CONTINUOUS
 62
     4
 66
     1
 10
0.0
 20
0.0
 30
0.0
 70
     1
  0
VERTEX
  5
7D0
  8
0
  6
CONTINUOUS
 62
     4
 10
1.0
 20
0.0
 30
0.0
  0
VERTEX
  5
7D1
  8
0
  6
CONTINUOUS
 62
     4
 10
0.9807852804032304
 20
0.1950903220161283
 30
0.0
  0
VERTEX
  5
7D2
  8
0
  6
CONTINUOUS
 62
     4
 10
0.9238795325112867
 20
0.3826834323650898
 30
0.0
  0
VERTEX
  5
7D3
  8
0
  6
CONTINUOUS
 62
     4
 10
0.8314696123025452
 20
0.5555702330196022
 30
0.0
  0
VERTEX
  5
7D4
  8
0
  6
CONTINUOUS
 62
     4
 10
0.7071067811865476
 20
0.7071067811865475
 30
0.0
  0
VERTEX
  5
7D5
  8
0
  6
CONTINUOUS
 62
     4
 10
0.5555702330196023
 20
0.8314696123025452
 30
0.0
  0
VERTEX
  5
7D6
  8
0
  6
CONTINUOUS
 62
     4
 10
0.3826834323650898
 20
0.9238795325112867
 30
0.0
  0
VERTEX
  5
7D7
  8
0
  6
CONTINUOUS
 62
     4
 10
0.1950903220161283
 20
0.9807852804032304
 30
0.0
  0
VERTEX
  5
7D8
  8
0
  6
CONTINUOUS
 62
     4
 10
0.0000000000000001
 20
1.0
 30
0.0
  0
VERTEX
  5
7D9
  8
0
  6
CONTINUOUS
 62
     4
 10
-0.1950903220161282
 20
0.9807852804032304
 30
0.0
  0
VERTEX
  5
7DA
  8
0
  6
CONTINUOUS
 62
     4
 10
-0.3826834323650897
 20
0.9238795325112867
 30
0.0
  0
VERTEX
  5
7DB
  8
0
  6
CONTINUOUS
 62
     4
 10
-0.555570233019602
 20
0.8314696123025455
 30
0.0
  0
VERTEX
  5
7DC
  8
0
  6
CONTINUOUS
 62
     4
 10
-0.7071067811865475
 20
0.7071067811865476
 30
0.0
  0
VERTEX
  5
7DD
  8
0
  6
CONTINUOUS
 62
     4
 10
-0.8314696123025454
 20
0.5555702330196022
 30
0.0
  0
VERTEX
  5
7DE
  8
0
  6
CONTINUOUS
 62
     4
 10
-0.9238795325112869
 20
0.3826834323650895
 30
0.0
  0
VERTEX
  5
7DF
  8
0
  6
CONTINUOUS
 62
     4
 10
-0.9807852804032305
 20
0.1950903220161277
 30
0.0
  0
VERTEX
  5
7E0
  8
0
  6
CONTINUOUS
 62
     4
 10
-1.0
 20
-0.0000000000000008
 30
0.0
  0
VERTEX
  5
7E1
  8
0
  6
CONTINUOUS
 62
     4
 10
-0.9807852804032302
 20
-0.1950903220161292
 30
0.0
  0
VERTEX
  5
7E2
  8
0
  6
CONTINUOUS
 62
     4
 10
-0.9238795325112863
 20
-0.3826834323650909
 30
0.0
  0
VERTEX
  5
7E3
  8
0
  6
CONTINUOUS
 62
     4
 10
-0.8314696123025445
 20
-0.5555702330196034
 30
0.0
  0
VERTEX
  5
7E4
  8
0
  6
CONTINUOUS
 62
     4
 10
-0.7071067811865464
 20
-0.7071067811865487
 30
0.0
  0
VERTEX
  5
7E5
  8
0
  6
CONTINUOUS
 62
     4
 10
-0.5555702330196007
 20
-0.8314696123025462
 30
0.0
  0
VERTEX
  5
7E6
  8
0
  6
CONTINUOUS
 62
     4
 10
-0.3826834323650879
 20
-0.9238795325112875
 30
0.0
  0
VERTEX
  5
7E7
  8
0
  6
CONTINUOUS
 62
     4
 10
-0.1950903220161261
 20
-0.9807852804032309
 30
0.0
  0
VERTEX
  5
7E8
  8
0
  6
CONTINUOUS
 62
     4
 10
0.0000000000000025
 20
-1.0
 30
0.0
  0
VERTEX
  5
7E9
  8
0
  6
CONTINUOUS
 62
     4
 10
0.1950903220161309
 20
-0.9807852804032299
 30
0.0
  0
VERTEX
  5
7EA
  8
0
  6
CONTINUOUS
 62
     4
 10
0.3826834323650925
 20
-0.9238795325112856
 30
0.0
  0
VERTEX
  5
7EB
  8
0
  6
CONTINUOUS
 62
     4
 10
0.5555702330196048
 20
-0.8314696123025435
 30
0.0
  0
VERTEX
  5
7EC
  8
0
  6
CONTINUOUS
 62
     4
 10
0.7071067811865499
 20
-0.7071067811865451
 30
0.0
  0
VERTEX
  5
7ED
  8
0
  6
CONTINUOUS
 62
     4
 10
0.8314696123025472
 20
-0.5555702330195993
 30
0.0
  0
VERTEX
  5
7EE
  8
0
  6
CONTINUOUS
 62
     4
 10
0.9238795325112882
 20
-0.3826834323650863
 30
0.0
  0
VERTEX
  5
7EF
  8
0
  6
CONTINUOUS
 62
     4
 10
0.9807852804032312
 20
-0.1950903220161244
 30
0.0
  0
SEQEND
  5
7F0
  8
0
  6
CONTINUOUS
 62
     4
  0
POLYLINE
  5
3A2
  8
0
  6
CONTINUOUS
 62
     4
 66
     1
 10
0.0
 20
0.0
 30
0.0
 70
     1
  0
VERTEX
  5
7F2
  8
0
  6
CONTINUOUS
 62
     4
 10
110.5935174652392
 20
11.67521377333866
 30
0.0
  0
VERTEX
  5
7F3
  8
0
  6
CONTINUOUS
 62
     4
 10
110.5910175323594
 20
11.77990290766165
 30
0.0
  0
VERTEX
  5
7F4
  8
0
  6
CONTINUOUS
 62
     4
 10
110.5835221194517
 20
11.88440838166944
 30
0.0
  0
VERTEX
  5
7F5
  8
0
  6
CONTINUOUS
 62
     4
 10
110.5710443760175
 20
11.98854685724942
 30
0.0
  0
VERTEX
  5
7F6
  8
0
  6
CONTINUOUS
 62
     4
 10
110.5536061922585
 20
12.09213564012891
 30
0.0
  0
VERTEX
  5
7F7
  8
0
  6
CONTINUOUS
 62
     4
 10
110.5312381606747
 20
12.19499300038305
 30
0.0
  0
VERTEX
  5
7F8
  8
0
  6
CONTINUOUS
 62
     4
 10
110.5039795223941
 20
12.29693849125079
 30
0.0
  0
VERTEX
  5
7F9
  8
0
  6
CONTINUOUS
 62
     4
 10
110.4718780983309
 20
12.39779326569983
 30
0.0
  0
VERTEX
  5
7FA
  8
0
  6
CONTINUOUS
 62
     4
 10
110.4349902052909
 20
12.49738039018511
 30
0.0
  0
VERTEX
  5
7FB
  8
0
  6
CONTINUOUS
 62
     4
 10
110.3933805571733
 20
12.59552515505035
 30
0.0
  0
VERTEX
  5
7FC
  8
0
  6
CONTINUOUS
 62
     4
 10
110.3471221514398
 20
12.69205538102816
 30
0.0
  0
VERTEX
  5
7FD
  8
0
  6
CONTINUOUS
 62
     4
 10
110.2962961410527
 20
12.78680172130097
 30
0.0
  0
VERTEX
  5
7FE
  8
0
  6
CONTINUOUS
 62
     4
 10
110.2409916921052
 20
12.87959795859294
 30
0.0
  0
VERTEX
  5
7FF
  8
0
  6
CONTINUOUS
 62
     4
 10
110.1813058273933
 20
12.97028129677148
 30
0.0
  0
VERTEX
  5
800
  8
0
  6
CONTINUOUS
 62
     4
 10
110.1173432562049
 20
13.05869264644701
 30
0.0
  0
VERTEX
  5
801
  8
0
  6
CONTINUOUS
 62
     4
 10
110.0492161906247
 20
13.14467690406984
 30
0.0
  0
VERTEX
  5
802
  8
0
  6
CONTINUOUS
 62
     4
 10
109.9770441486754
 20
13.22808322403443
 30
0.0
  0
VERTEX
  5
803
  8
0
  6
CONTINUOUS
 62
     4
 10
109.9009537446428
 20
13.30876528331392
 30
0.0
  0
VERTEX
  5
804
  8
0
  6
CONTINUOUS
 62
     4
 10
109.8210784669513
 20
13.38658153816038
 30
0.0
  0
VERTEX
  5
805
  8
0
  6
CONTINUOUS
 62
     4
 10
109.7375584439797
 20
13.46139547242066
 30
0.0
  0
VERTEX
  5
806
  8
0
  6
CONTINUOUS
 62
     4
 10
109.6505401982286
 20
13.53307583703214
 30
0.0
  0
VERTEX
  5
807
  8
0
  6
CONTINUOUS
 62
     4
 10
109.56017638927
 20
13.60149688027813
 30
0.0
  0
VERTEX
  5
808
  8
0
  6
CONTINUOUS
 62
     4
 10
109.4666255459308
 20
13.66653856839914
 30
0.0
  0
VERTEX
  5
809
  8
0
  6
CONTINUOUS
 62
     4
 10
109.3700517881789
 20
13.72808679617291
 30
0.0
  0
VERTEX
  5
80A
  8
0
  6
CONTINUOUS
 62
     4
 10
109.2706245392014
 20
13.78603358709369
 30
0.0
  0
VERTEX
  5
80B
  8
0
  6
CONTINUOUS
 62
     4
 10
109.1685182281786
 20
13.84027728279975
 30
0.0
  0
VERTEX
  5
80C
  8
0
  6
CONTINUOUS
 62
     4
 10
109.0639119842761
 20
13.89072272141669
 30
0.0
  0
VERTEX
  5
80D
  8
0
  6
CONTINUOUS
 62
     4
 10
108.9569893223909
 20
13.9372814045037
 30
0.0
  0
VERTEX
  5
80E
  8
0
  6
CONTINUOUS
 62
     4
 10
108.8479378212047
 20
13.97987165230991
 30
0.0
  0
VERTEX
  5
80F
  8
0
  6
CONTINUOUS
 62
     4
 10
108.7369487941065
 20
14.01841874706838
 30
0.0
  0
VERTEX
  5
810
  8
0
  6
CONTINUOUS
 62
     4
 10
108.6242169535642
 20
14.05285506407654
 30
0.0
  0
VERTEX
  5
811
  8
0
  6
CONTINUOUS
 62
     4
 10
108.5099400695325
 20
14.0831201903328
 30
0.0
  0
VERTEX
  5
812
  8
0
  6
CONTINUOUS
 62
     4
 10
108.3943186224977
 20
14.10916103052156
 30
0.0
  0
VERTEX
  5
813
  8
0
  6
CONTINUOUS
 62
     4
 10
108.2775554517662
 20
14.13093190016038
 30
0.0
  0
VERTEX
  5
814
  8
0
  6
CONTINUOUS
 62
     4
 10
108.159855399616
 20
14.14839460574613
 30
0.0
  0
VERTEX
  5
815
  8
0
  6
CONTINUOUS
 62
     4
 10
108.0414249519331
 20
14.16151851175934
 30
0.0
  0
VERTEX
  5
816
  8
0
  6
CONTINUOUS
 62
     4
 10
107.9224718759659
 20
14.17028059440933
 30
0.0
  0
VERTEX
  5
817
  8
0
  6
CONTINUOUS
 62
     4
 10
107.8032048558301
 20
14.17466548202577
 30
0.0
  0
VERTEX
  5
818
  8
0
  6
CONTINUOUS
 62
     4
 10
107.6838331264061
 20
14.17466548202577
 30
0.0
  0
VERTEX
  5
819
  8
0
  6
CONTINUOUS
 62
     4
 10
107.5645661062703
 20
14.17028059440933
 30
0.0
  0
VERTEX
  5
81A
  8
0
  6
CONTINUOUS
 62
     4
 10
107.4456130303031
 20
14.16151851175934
 30
0.0
  0
VERTEX
  5
81B
  8
0
  6
CONTINUOUS
 62
     4
 10
107.3271825826202
 20
14.14839460574613
 30
0.0
  0
VERTEX
  5
81C
  8
0
  6
CONTINUOUS
 62
     4
 10
107.20948253047
 20
14.13093190016038
 30
0.0
  0
VERTEX
  5
81D
  8
0
  6
CONTINUOUS
 62
     4
 10
107.0927193597385
 20
14.10916103052156
 30
0.0
  0
VERTEX
  5
81E
  8
0
  6
CONTINUOUS
 62
     4
 10
106.9770979127037
 20
14.0831201903328
 30
0.0
  0
VERTEX
  5
81F
  8
0
  6
CONTINUOUS
 62
     4
 10
106.862821028672
 20
14.05285506407654
 30
0.0
  0
VERTEX
  5
820
  8
0
  6
CONTINUOUS
 62
     4
 10
106.7500891881297
 20
14.01841874706838
 30
0.0
  0
VERTEX
  5
821
  8
0
  6
CONTINUOUS
 62
     4
 10
106.6391001610315
 20
13.97987165230991
 30
0.0
  0
VERTEX
  5
822
  8
0
  6
CONTINUOUS
 62
     4
 10
106.5300486598453
 20
13.9372814045037
 30
0.0
  0
VERTEX
  5
823
  8
0
  6
CONTINUOUS
 62
     4
 10
106.4231259979601
 20
13.89072272141669
 30
0.0
  0
VERTEX
  5
824
  8
0
  6
CONTINUOUS
 62
     4
 10
106.3185197540576
 20
13.84027728279975
 30
0.0
  0
VERTEX
  5
825
  8
0
  6
CONTINUOUS
 62
     4
 10
106.2164134430348
 20
13.78603358709369
 30
0.0
  0
VERTEX
  5
826
  8
0
  6
CONTINUOUS
 62
     4
 10
106.1169861940573
 20
13.72808679617291
 30
0.0
  0
VERTEX
  5
827
  8
0
  6
CONTINUOUS
 62
     4
 10
106.0204124363054
 20
13.66653856839914
 30
0.0
  0
VERTEX
  5
828
  8
0
  6
CONTINUOUS
 62
     4
 10
105.9268615929662
 20
13.60149688027813
 30
0.0
  0
VERTEX
  5
829
  8
0
  6
CONTINUOUS
 62
     4
 10
105.8364977840076
 20
13.53307583703214
 30
0.0
  0
VERTEX
  5
82A
  8
0
  6
CONTINUOUS
 62
     4
 10
105.7494795382565
 20
13.46139547242066
 30
0.0
  0
VERTEX
  5
82B
  8
0
  6
CONTINUOUS
 62
     4
 10
105.6659595152849
 20
13.38658153816038
 30
0.0
  0
VERTEX
  5
82C
  8
0
  6
CONTINUOUS
 62
     4
 10
105.5860842375934
 20
13.30876528331392
 30
0.0
  0
VERTEX
  5
82D
  8
0
  6
CONTINUOUS
 62
     4
 10
105.5099938335608
 20
13.22808322403443
 30
0.0
  0
VERTEX
  5
82E
  8
0
  6
CONTINUOUS
 62
     4
 10
105.4378217916115
 20
13.14467690406984
 30
0.0
  0
VERTEX
  5
82F
  8
0
  6
CONTINUOUS
 62
     4
 10
105.3696947260313
 20
13.05869264644701
 30
0.0
  0
VERTEX
  5
830
  8
0
  6
CONTINUOUS
 62
     4
 10
105.3057321548429
 20
12.97028129677148
 30
0.0
  0
VERTEX
  5
831
  8
0
  6
CONTINUOUS
 62
     4
 10
105.246046290131
 20
12.87959795859294
 30
0.0
  0
VERTEX
  5
832
  8
0
  6
CONTINUOUS
 62
     4
 10
105.1907418411835
 20
12.78680172130097
 30
0.0
  0
VERTEX
  5
833
  8
0
  6
CONTINUOUS
 62
     4
 10
105.1399158307964
 20
12.69205538102815
 30
0.0
  0
VERTEX
  5
834
  8
0
  6
CONTINUOUS
 62
     4
 10
105.0936574250629
 20
12.59552515505035
 30
0.0
  0
VERTEX
  5
835
  8
0
  6
CONTINUOUS
 62
     4
 10
105.0520477769453
 20
12.49738039018511
 30
0.0
  0
VERTEX
  5
836
  8
0
  6
CONTINUOUS
 62
     4
 10
105.0151598839053
 20
12.39779326569983
 30
0.0
  0
VERTEX
  5
837
  8
0
  6
CONTINUOUS
 62
     4
 10
104.9830584598421
 20
12.29693849125079
 30
0.0
  0
VERTEX
  5
838
  8
0
  6
CONTINUOUS
 62
     4
 10
104.9557998215615
 20
12.19499300038305
 30
0.0
  0
VERTEX
  5
839
  8
0
  6
CONTINUOUS
 62
     4
 10
104.9334317899777
 20
12.09213564012891
 30
0.0
  0
VERTEX
  5
83A
  8
0
  6
CONTINUOUS
 62
     4
 10
104.9159936062187
 20
11.98854685724941
 30
0.0
  0
VERTEX
  5
83B
  8
0
  6
CONTINUOUS
 62
     4
 10
104.9035158627845
 20
11.88440838166944
 30
0.0
  0
VERTEX
  5
83C
  8
0
  6
CONTINUOUS
 62
     4
 10
104.8960204498768
 20
11.77990290766165
 30
0.0
  0
VERTEX
  5
83D
  8
0
  6
CONTINUOUS
 62
     4
 10
104.893520516997
 20
11.67521377333865
 30
0.0
  0
VERTEX
  5
83E
  8
0
  6
CONTINUOUS
 62
     4
 10
104.8960204498768
 20
11.57052463901565
 30
0.0
  0
VERTEX
  5
83F
  8
0
  6
CONTINUOUS
 62
     4
 10
104.9035158627845
 20
11.46601916500786
 30
0.0
  0
VERTEX
  5
840
  8
0
  6
CONTINUOUS
 62
     4
 10
104.9159936062187
 20
11.36188068942789
 30
0.0
  0
VERTEX
  5
841
  8
0
  6
CONTINUOUS
 62
     4
 10
104.9334317899777
 20
11.25829190654839
 30
0.0
  0
VERTEX
  5
842
  8
0
  6
CONTINUOUS
 62
     4
 10
104.9557998215615
 20
11.15543454629425
 30
0.0
  0
VERTEX
  5
843
  8
0
  6
CONTINUOUS
 62
     4
 10
104.9830584598421
 20
11.05348905542651
 30
0.0
  0
VERTEX
  5
844
  8
0
  6
CONTINUOUS
 62
     4
 10
105.0151598839053
 20
10.95263428097747
 30
0.0
  0
VERTEX
  5
845
  8
0
  6
CONTINUOUS
 62
     4
 10
105.0520477769453
 20
10.85304715649219
 30
0.0
  0
VERTEX
  5
846
  8
0
  6
CONTINUOUS
 62
     4
 10
105.0936574250629
 20
10.75490239162695
 30
0.0
  0
VERTEX
  5
847
  8
0
  6
CONTINUOUS
 62
     4
 10
105.1399158307964
 20
10.65837216564915
 30
0.0
  0
VERTEX
  5
848
  8
0
  6
CONTINUOUS
 62
     4
 10
105.1907418411835
 20
10.56362582537633
 30
0.0
  0
VERTEX
  5
849
  8
0
  6
CONTINUOUS
 62
     4
 10
105.246046290131
 20
10.47082958808436
 30
0.0
  0
VERTEX
  5
84A
  8
0
  6
CONTINUOUS
 62
     4
 10
105.3057321548429
 20
10.38014624990582
 30
0.0
  0
VERTEX
  5
84B
  8
0
  6
CONTINUOUS
 62
     4
 10
105.3696947260313
 20
10.29173490023029
 30
0.0
  0
VERTEX
  5
84C
  8
0
  6
CONTINUOUS
 62
     4
 10
105.4378217916115
 20
10.20575064260747
 30
0.0
  0
VERTEX
  5
84D
  8
0
  6
CONTINUOUS
 62
     4
 10
105.5099938335608
 20
10.12234432264287
 30
0.0
  0
VERTEX
  5
84E
  8
0
  6
CONTINUOUS
 62
     4
 10
105.5860842375934
 20
10.04166226336339
 30
0.0
  0
VERTEX
  5
84F
  8
0
  6
CONTINUOUS
 62
     4
 10
105.6659595152849
 20
9.963846008516928
 30
0.0
  0
VERTEX
  5
850
  8
0
  6
CONTINUOUS
 62
     4
 10
105.7494795382565
 20
9.88903207425664
 30
0.0
  0
VERTEX
  5
851
  8
0
  6
CONTINUOUS
 62
     4
 10
105.8364977840076
 20
9.817351709645164
 30
0.0
  0
VERTEX
  5
852
  8
0
  6
CONTINUOUS
 62
     4
 10
105.9268615929662
 20
9.748930666399177
 30
0.0
  0
VERTEX
  5
853
  8
0
  6
CONTINUOUS
 62
     4
 10
106.0204124363054
 20
9.68388897827816
 30
0.0
  0
VERTEX
  5
854
  8
0
  6
CONTINUOUS
 62
     4
 10
106.1169861940573
 20
9.622340750504391
 30
0.0
  0
VERTEX
  5
855
  8
0
  6
CONTINUOUS
 62
     4
 10
106.2164134430348
 20
9.564393959583613
 30
0.0
  0
VERTEX
  5
856
  8
0
  6
CONTINUOUS
 62
     4
 10
106.3185197540576
 20
9.510150263877554
 30
0.0
  0
VERTEX
  5
857
  8
0
  6
CONTINUOUS
 62
     4
 10
106.4231259979601
 20
9.459704825260614
 30
0.0
  0
VERTEX
  5
858
  8
0
  6
CONTINUOUS
 62
     4
 10
106.5300486598453
 20
9.413146142173602
 30
0.0
  0
VERTEX
  5
859
  8
0
  6
CONTINUOUS
 62
     4
 10
106.6391001610315
 20
9.370555894367399
 30
0.0
  0
VERTEX
  5
85A
  8
0
  6
CONTINUOUS
 62
     4
 10
106.7500891881297
 20
9.332008799608923
 30
0.0
  0
VERTEX
  5
85B
  8
0
  6
CONTINUOUS
 62
     4
 10
106.862821028672
 20
9.297572482600769
 30
0.0
  0
VERTEX
  5
85C
  8
0
  6
CONTINUOUS
 62
     4
 10
106.9770979127037
 20
9.267307356344507
 30
0.0
  0
VERTEX
  5
85D
  8
0
  6
CONTINUOUS
 62
     4
 10
107.0927193597385
 20
9.241266516155752
 30
0.0
  0
VERTEX
  5
85E
  8
0
  6
CONTINUOUS
 62
     4
 10
107.20948253047
 20
9.219495646516931
 30
0.0
  0
VERTEX
  5
85F
  8
0
  6
CONTINUOUS
 62
     4
 10
107.3271825826202
 20
9.202032940931183
 30
0.0
  0
VERTEX
  5
860
  8
0
  6
CONTINUOUS
 62
     4
 10
107.4456130303031
 20
9.18890903491797
 30
0.0
  0
VERTEX
  5
861
  8
0
  6
CONTINUOUS
 62
     4
 10
107.5645661062703
 20
9.180146952267975
 30
0.0
  0
VERTEX
  5
862
  8
0
  6
CONTINUOUS
 62
     4
 10
107.6838331264061
 20
9.17576206465154
 30
0.0
  0
VERTEX
  5
863
  8
0
  6
CONTINUOUS
 62
     4
 10
107.8032048558301
 20
9.175762064651542
 30
0.0
  0
VERTEX
  5
864
  8
0
  6
CONTINUOUS
 62
     4
 10
107.9224718759659
 20
9.180146952267977
 30
0.0
  0
VERTEX
  5
865
  8
0
  6
CONTINUOUS
 62
     4
 10
108.0414249519331
 20
9.188909034917973
 30
0.0
  0
VERTEX
  5
866
  8
0
  6
CONTINUOUS
 62
     4
 10
108.159855399616
 20
9.202032940931186
 30
0.0
  0
VERTEX
  5
867
  8
0
  6
CONTINUOUS
 62
     4
 10
108.2775554517662
 20
9.219495646516934
 30
0.0
  0
VERTEX
  5
868
  8
0
  6
CONTINUOUS
 62
     4
 10
108.3943186224977
 20
9.241266516155756
 30
0.0
  0
VERTEX
  5
869
  8
0
  6
CONTINUOUS
 62
     4
 10
108.5099400695325
 20
9.267307356344512
 30
0.0
  0
VERTEX
  5
86A
  8
0
  6
CONTINUOUS
 62
     4
 10
108.6242169535642
 20
9.297572482600774
 30
0.0
  0
VERTEX
  5
86B
  8
0
  6
CONTINUOUS
 62
     4
 10
108.7369487941065
 20
9.33200879960893
 30
0.0
  0
VERTEX
  5
86C
  8
0
  6
CONTINUOUS
 62
     4
 10
108.8479378212047
 20
9.370555894367408
 30
0.0
  0
VERTEX
  5
86D
  8
0
  6
CONTINUOUS
 62
     4
 10
108.9569893223909
 20
9.413146142173611
 30
0.0
  0
VERTEX
  5
86E
  8
0
  6
CONTINUOUS
 62
     4
 10
109.0639119842761
 20
9.459704825260623
 30
0.0
  0
VERTEX
  5
86F
  8
0
  6
CONTINUOUS
 62
     4
 10
109.1685182281787
 20
9.510150263877563
 30
0.0
  0
VERTEX
  5
870
  8
0
  6
CONTINUOUS
 62
     4
 10
109.2706245392014
 20
9.564393959583622
 30
0.0
  0
VERTEX
  5
871
  8
0
  6
CONTINUOUS
 62
     4
 10
109.3700517881789
 20
9.622340750504401
 30
0.0
  0
VERTEX
  5
872
  8
0
  6
CONTINUOUS
 62
     4
 10
109.4666255459308
 20
9.683888978278171
 30
0.0
  0
VERTEX
  5
873
  8
0
  6
CONTINUOUS
 62
     4
 10
109.5601763892701
 20
9.74893066639919
 30
0.0
  0
VERTEX
  5
874
  8
0
  6
CONTINUOUS
 62
     4
 10
109.6505401982286
 20
9.817351709645177
 30
0.0
  0
VERTEX
  5
875
  8
0
  6
CONTINUOUS
 62
     4
 10
109.7375584439797
 20
9.889032074256654
 30
0.0
  0
VERTEX
  5
876
  8
0
  6
CONTINUOUS
 62
     4
 10
109.8210784669513
 20
9.963846008516942
 30
0.0
  0
VERTEX
  5
877
  8
0
  6
CONTINUOUS
 62
     4
 10
109.9009537446428
 20
10.0416622633634
 30
0.0
  0
VERTEX
  5
878
  8
0
  6
CONTINUOUS
 62
     4
 10
109.9770441486754
 20
10.12234432264289
 30
0.0
  0
VERTEX
  5
879
  8
0
  6
CONTINUOUS
 62
     4
 10
110.0492161906247
 20
10.20575064260748
 30
0.0
  0
VERTEX
  5
87A
  8
0
  6
CONTINUOUS
 62
     4
 10
110.1173432562049
 20
10.29173490023031
 30
0.0
  0
VERTEX
  5
87B
  8
0
  6
CONTINUOUS
 62
     4
 10
110.1813058273933
 20
10.38014624990584
 30
0.0
  0
VERTEX
  5
87C
  8
0
  6
CONTINUOUS
 62
     4
 10
110.2409916921052
 20
10.47082958808438
 30
0.0
  0
VERTEX
  5
87D
  8
0
  6
CONTINUOUS
 62
     4
 10
110.2962961410528
 20
10.56362582537635
 30
0.0
  0
VERTEX
  5
87E
  8
0
  6
CONTINUOUS
 62
     4
 10
110.3471221514398
 20
10.65837216564917
 30
0.0
  0
VERTEX
  5
87F
  8
0
  6
CONTINUOUS
 62
     4
 10
110.3933805571733
 20
10.75490239162697
 30
0.0
  0
VERTEX
  5
880
  8
0
  6
CONTINUOUS
 62
     4
 10
110.4349902052909
 20
10.85304715649221
 30
0.0
  0
VERTEX
  5
881
  8
0
  6
CONTINUOUS
 62
     4
 10
110.4718780983309
 20
10.95263428097749
 30
0.0
  0
VERTEX
  5
882
  8
0
  6
CONTINUOUS
 62
     4
 10
110.5039795223941
 20
11.05348905542653
 30
0.0
  0
VERTEX
  5
883
  8
0
  6
CONTINUOUS
 62
     4
 10
110.5312381606747
 20
11.15543454629427
 30
0.0
  0
VERTEX
  5
884
  8
0
  6
CONTINUOUS
 62
     4
 10
110.5536061922585
 20
11.25829190654841
 30
0.0
  0
VERTEX
  5
885
  8
0
  6
CONTINUOUS
 62
     4
 10
110.5710443760175
 20
11.36188068942791
 30
0.0
  0
VERTEX
  5
886
  8
0
  6
CONTINUOUS
 62
     4
 10
110.5835221194517
 20
11.46601916500788
 30
0.0
  0
VERTEX
  5
887
  8
0
  6
CONTINUOUS
 62
     4
 10
110.5910175323594
 20
11.57052463901567
 30
0.0
  0
SEQEND
  5
7F1
  8
0
  6
CONTINUOUS
 62
     4
  0
CIRCLE
  5
3A3
  8
LAYER0014
  6
CONTINUOUS
 62
     4
 10
-224.1115759185499
 20
15.26972385176883
 30
0.0
 40
4.0
  0
CIRCLE
  5
3A4
  8
LAYER0014
  6
CONTINUOUS
 62
     4
 10
-201.206088858003
 20
-24.40372947922482
 30
0.0
 40
4.0
  0
CIRCLE
  5
3A5
  8
LAYER0014
  6
CONTINUOUS
 62
     4
 10
41.893520516997
 20
176.2342347694324
 30
0.0
 40
4.0
  0
CIRCLE
  5
3A6
  8
LAYER0014
  6
CONTINUOUS
 62
     4
 10
23.893520516997
 20
176.2342347694324
 30
0.0
 40
4.0
  0
TEXT
  5
3A7
  8
LAYER0014
 62
     4
 10
-226.4640212067366
 20
12.76972385176883
 30
0.0
 40
5.0
  1
引
 41
0.6666666666666666
  7
FDASTYLE1
 72
     5
 11
-222.4640212067366
 21
12.76972385176883
 31
0.0
  0
TEXT
  5
3A8
  8
LAYER0014
 62
     4
 10
-203.3966166179408
 20
-27.06564700747374
 30
0.0
 40
5.0
  1
押
 41
0.6666666666666666
  7
FDASTYLE1
 72
     5
 11
-199.3966166179408
 21
-27.06564700747374
 31
0.0
  0
TEXT
  5
3A9
  8
LAYER0014
 62
     4
 10
39.79910430659843
 20
173.7342347694324
 30
0.0
 40
5.0
  1
引
 41
0.6666666666666666
  7
FDASTYLE1
 72
     5
 11
43.79910430659843
 21
173.7342347694324
 31
0.0
  0
TEXT
  5
3AA
  8
LAYER0014
 62
     4
 10
21.72031022610466
 20
173.7342347694324
 30
0.0
 40
5.0
  1
押
 41
0.6666666666666666
  7
FDASTYLE1
 72
     5
 11
25.72031022610466
 21
173.7342347694324
 31
0.0
  0
INSERT
  5
3AB
  8
0
  6
CONTINUOUS
  2
DA_IMAGEDIMGROUP_25
 10
0.0
 20
0.0
 30
0.0
  0
INSERT
  5
3AC
  8
0
  6
CONTINUOUS
  2
DA_IMAGEDIMGROUP_26
 10
0.0
 20
0.0
 30
0.0
  0
INSERT
  5
3AD
  8
0
  6
CONTINUOUS
  2
DA_IMAGEDIMGROUP_27
 10
0.0
 20
0.0
 30
0.0
  0
VIEWPORT
  5
48
 67
     1
  8
0
 10
0.0
 20
0.0
 30
0.0
 40
1662.0
 41
1140.0
 68
     1
 69
     1
1001
ACAD
1000
MVIEW
1002
{
1070
    16
1010
0.0
1020
0.0
1030
0.0
1020
0.0
1030
0.0
1010
0.0
1020
0.0
1030
1.0
1020
0.0
1030
1.0
1040
0.0
1040
1140.0
1040
0.0
1040
0.0
1040
50.0
1040
0.0
1040
0.0
1070
     0
1070
   100
1070
     0
1070
     1
1070
     0
1070
     0
1070
     0
1070
     0
1040
0.0
1040
0.0
1040
0.0
1040
0.5
1040
0.5
1040
0.0
1040
0.0
1070
     0
1002
{
1002
}
1002
}
  0
ENDSEC
  0
EOF
